ISO-10303-21;
HEADER;
FILE_DESCRIPTION (( 'STEP AP214' ),
    '1' );
FILE_NAME ('Micro_GEM-171-2X.STEP',
    '2021-09-01T19:56:18',
    ( '' ),
    ( '' ),
    'SwSTEP 2.0',
    'SolidWorks 2020',
    '' );
FILE_SCHEMA (( 'AUTOMOTIVE_DESIGN' ));
ENDSEC;

DATA;
#1 = LINE ( 'NONE', #235, #263 ) ;
#2 = EDGE_CURVE ( 'NONE', #296, #275, #1, .T. ) ;
#3 = DIRECTION ( 'NONE',  ( -1.224646799147353207E-16, -0.0000000000000000000, -1.000000000000000000 ) ) ;
#4 = LINE ( 'NONE', #90, #99 ) ;
#5 = VECTOR ( 'NONE', #3, 39.37007874015748143 ) ;
#6 = FACE_OUTER_BOUND ( 'NONE', #203, .T. ) ;
#7 = CARTESIAN_POINT ( 'NONE',  ( 0.0000000000000000000, 0.0000000000000000000, 2.000000000000000000 ) ) ;
#8 =( LENGTH_UNIT ( ) NAMED_UNIT ( * ) SI_UNIT ( $, .METRE. ) );
#9 = ORIENTED_EDGE ( 'NONE', *, *, #199, .T. ) ;
#10 = CARTESIAN_POINT ( 'NONE',  ( -0.09375000000000001388, 0.0000000000000000000, 1.984999999999999654 ) ) ;
#11 = VECTOR ( 'NONE', #230, 39.37007874015748143 ) ;
#12 = STYLED_ITEM ( 'NONE', ( #225 ), #39 ) ;
#13 = CARTESIAN_POINT ( 'NONE',  ( -0.09374999999999991673, 0.0000000000000000000, 0.6697234448654140193 ) ) ;
#14 = LINE ( 'NONE', #107, #103 ) ;
#15 = AXIS2_PLACEMENT_3D ( 'NONE', #175, #216, #68 ) ;
#16 = FACE_OUTER_BOUND ( 'NONE', #122, .T. ) ;
#17 = DIRECTION ( 'NONE',  ( -1.224646799147353207E-16, -0.0000000000000000000, -1.000000000000000000 ) ) ;
#18 = DIRECTION ( 'NONE',  ( 1.000000000000000000, 0.0000000000000000000, 0.0000000000000000000 ) ) ;
#19 = DIRECTION ( 'NONE',  ( -0.0000000000000000000, -0.0000000000000000000, -1.000000000000000000 ) ) ;
#20 = CONICAL_SURFACE ( 'NONE', #213, 0.07874999999999980627, 0.7853981633974466137 ) ;
#21 = CARTESIAN_POINT ( 'NONE',  ( 7.654042494670957853E-17, 0.0000000000000000000, 0.6250000000000000000 ) ) ;
#22 = EDGE_LOOP ( 'NONE', ( #166, #159, #111, #57 ) ) ;
#23 = DIRECTION ( 'NONE',  ( 0.0000000000000000000, 0.0000000000000000000, 1.000000000000000000 ) ) ;
#24 = DIRECTION ( 'NONE',  ( 1.000000000000000000, 0.0000000000000000000, 0.0000000000000000000 ) ) ;
#25 = MECHANICAL_DESIGN_GEOMETRIC_PRESENTATION_REPRESENTATION (  '', ( #12 ), #49 ) ;
#26 = CARTESIAN_POINT ( 'NONE',  ( -0.09375000000000001388, 0.0000000000000000000, 2.000000000000000000 ) ) ;
#27 = CARTESIAN_POINT ( 'NONE',  ( 7.654042494670957853E-17, 0.0000000000000000000, 0.6250000000000000000 ) ) ;
#28 = FACE_OUTER_BOUND ( 'NONE', #105, .T. ) ;
#29 = ADVANCED_FACE ( 'NONE', ( #158 ), #40, .T. ) ;
#30 = AXIS2_PLACEMENT_3D ( 'NONE', #32, #74, #291 ) ;
#31 = DIRECTION ( 'NONE',  ( 1.000000000000000000, 0.0000000000000000000, 0.0000000000000000000 ) ) ;
#32 = CARTESIAN_POINT ( 'NONE',  ( 8.201746730683681886E-17, 0.0000000000000000000, 0.6697234448654140193 ) ) ;
#33 = LENGTH_MEASURE_WITH_UNIT ( LENGTH_MEASURE( 0.02539999999999999897 ), #55 );
#34 = CARTESIAN_POINT ( 'NONE',  ( 0.08586405000000006671, 0.0000000000000000000, 0.6250000000000000000 ) ) ;
#35 = DIRECTION ( 'NONE',  ( -1.000000000000000000, 0.0000000000000000000, 1.224646799147353454E-16 ) ) ;
#36 = PRESENTATION_LAYER_ASSIGNMENT (  '', '', ( #12 ) ) ;
#37 = ORIENTED_EDGE ( 'NONE', *, *, #238, .F. ) ;
#38 = CARTESIAN_POINT ( 'NONE',  ( 0.0000000000000000000, 0.0000000000000000000, 0.0000000000000000000 ) ) ;
#39 = ADVANCED_BREP_SHAPE_REPRESENTATION ( 'Micro_GEM-171-2X', ( #222, #260 ), #181 ) ;
#40 = CYLINDRICAL_SURFACE ( 'NONE', #141, 0.08586404999999999732 ) ;
#41 = CONICAL_SURFACE ( 'NONE', #176, 0.08586404999999999732, 0.1745329251994338360 ) ;
#42 = EDGE_CURVE ( 'NONE', #275, #277, #292, .T. ) ;
#43 = DIRECTION ( 'NONE',  ( -0.1736481776669311639, 2.126576849575782392E-17, 0.9848077530122080203 ) ) ;
#44 = CARTESIAN_POINT ( 'NONE',  ( 0.0000000000000000000, 0.0000000000000000000, 2.000000000000000000 ) ) ;
#45 = ORIENTED_EDGE ( 'NONE', *, *, #134, .F. ) ;
#46 = LINE ( 'NONE', #26, #56 ) ;
#47 = AXIS2_PLACEMENT_3D ( 'NONE', #38, #278, #274 ) ;
#48 = ORIENTED_EDGE ( 'NONE', *, *, #108, .F. ) ;
#49 =( GEOMETRIC_REPRESENTATION_CONTEXT ( 3 ) GLOBAL_UNCERTAINTY_ASSIGNED_CONTEXT ( ( #269 ) ) GLOBAL_UNIT_ASSIGNED_CONTEXT ( ( #198, #249, #110 ) ) REPRESENTATION_CONTEXT ( 'NONE', 'WORKASPACE' ) );
#50 = FILL_AREA_STYLE_COLOUR ( '', #286 ) ;
#51 = FILL_AREA_STYLE ('',( #155 ) ) ;
#52 = CIRCLE ( 'NONE', #30, 0.09375000000000001388 ) ;
#53 = LINE ( 'NONE', #152, #131 ) ;
#54 = ORIENTED_EDGE ( 'NONE', *, *, #298, .F. ) ;
#55 =( LENGTH_UNIT ( ) NAMED_UNIT ( * ) SI_UNIT ( $, .METRE. ) );
#56 = VECTOR ( 'NONE', #139, 39.37007874015748143 ) ;
#57 = ORIENTED_EDGE ( 'NONE', *, *, #42, .F. ) ;
#58 = CARTESIAN_POINT ( 'NONE',  ( 0.0000000000000000000, 0.0000000000000000000, 2.000000000000000000 ) ) ;
#59 = ORIENTED_EDGE ( 'NONE', *, *, #108, .T. ) ;
#60 = DIRECTION ( 'NONE',  ( -1.224646799147353207E-16, -0.0000000000000000000, -1.000000000000000000 ) ) ;
#61 = CONICAL_SURFACE ( 'NONE', #273, 0.07874999999999980627, 0.7853981633974466137 ) ;
#62 = DIMENSIONAL_EXPONENTS ( 1.000000000000000000, 0.0000000000000000000, 0.0000000000000000000, 0.0000000000000000000, 0.0000000000000000000, 0.0000000000000000000, 0.0000000000000000000 ) ;
#63 = ORIENTED_EDGE ( 'NONE', *, *, #162, .F. ) ;
#64 = APPLICATION_PROTOCOL_DEFINITION ( 'draft international standard', 'automotive_design', 1998, #177 ) ;
#65 = ORIENTED_EDGE ( 'NONE', *, *, #264, .T. ) ;
#66 = EDGE_CURVE ( 'NONE', #231, #182, #14, .T. ) ;
#67 = FACE_OUTER_BOUND ( 'NONE', #133, .T. ) ;
#68 = DIRECTION ( 'NONE',  ( -1.000000000000000000, 0.0000000000000000000, 0.0000000000000000000 ) ) ;
#69 = PRODUCT_DEFINITION ( 'UNKNOWN', '', #160, #150 ) ;
#70 = DIRECTION ( 'NONE',  ( -1.000000000000000000, 0.0000000000000000000, 0.0000000000000000000 ) ) ;
#71 = CARTESIAN_POINT ( 'NONE',  ( 7.654042494670957853E-17, 0.0000000000000000000, 0.6250000000000000000 ) ) ;
#72 = DIRECTION ( 'NONE',  ( -1.224646799147353207E-16, -0.0000000000000000000, -1.000000000000000000 ) ) ;
#73 = EDGE_CURVE ( 'NONE', #296, #145, #267, .T. ) ;
#74 = DIRECTION ( 'NONE',  ( -1.224646799147353207E-16, -0.0000000000000000000, -1.000000000000000000 ) ) ;
#75 = CARTESIAN_POINT ( 'NONE',  ( 0.08586404999999999732, 1.051531339943283032E-17, 0.0000000000000000000 ) ) ;
#76 = LENGTH_MEASURE_WITH_UNIT ( LENGTH_MEASURE( 0.02539999999999999897 ), #126 );
#77 = CIRCLE ( 'NONE', #156, 0.07874999999999980627 ) ;
#78 = EDGE_CURVE ( 'NONE', #296, #182, #189, .T. ) ;
#79 = ORIENTED_EDGE ( 'NONE', *, *, #78, .F. ) ;
#80 = CARTESIAN_POINT ( 'NONE',  ( -0.07874999999999980627, 0.0000000000000000000, 2.000000000000000000 ) ) ;
#81 = ORIENTED_EDGE ( 'NONE', *, *, #137, .T. ) ;
#82 = FACE_OUTER_BOUND ( 'NONE', #164, .T. ) ;
#83 = ADVANCED_FACE ( 'NONE', ( #16 ), #253, .T. ) ;
#84 = AXIS2_PLACEMENT_3D ( 'NONE', #279, #295, #299 ) ;
#85 = VERTEX_POINT ( 'NONE', #80 ) ;
#86 = AXIS2_PLACEMENT_3D ( 'NONE', #97, #72, #146 ) ;
#87 = DIRECTION ( 'NONE',  ( -1.000000000000000000, 0.0000000000000000000, 0.0000000000000000000 ) ) ;
#88 = ORIENTED_EDGE ( 'NONE', *, *, #98, .F. ) ;
#89 = DIRECTION ( 'NONE',  ( 1.000000000000000000, 0.0000000000000000000, 0.0000000000000000000 ) ) ;
#90 = CARTESIAN_POINT ( 'NONE',  ( -0.08586404999999992793, 1.051531339943283032E-17, 0.6250000000000000000 ) ) ;
#91 = ADVANCED_FACE ( 'NONE', ( #188 ), #106, .F. ) ;
#92 = DIRECTION ( 'NONE',  ( 0.0000000000000000000, 0.0000000000000000000, -1.000000000000000000 ) ) ;
#93 = LINE ( 'NONE', #191, #5 ) ;
#94 = VECTOR ( 'NONE', #101, 39.37007874015748143 ) ;
#95 = ADVANCED_FACE ( 'NONE', ( #232 ), #186, .T. ) ;
#96 = SURFACE_STYLE_USAGE ( .BOTH. , #220 ) ;
#97 = CARTESIAN_POINT ( 'NONE',  ( 1.287754489664668799E-33, 0.0000000000000000000, 1.051531339943283032E-17 ) ) ;
#98 = EDGE_CURVE ( 'NONE', #85, #163, #192, .T. ) ;
#99 = VECTOR ( 'NONE', #43, 39.37007874015747433 ) ;
#100 =( NAMED_UNIT ( * ) PLANE_ANGLE_UNIT ( ) SI_UNIT ( $, .RADIAN. ) );
#101 = DIRECTION ( 'NONE',  ( 0.7071067811865463515, 8.659560562354916834E-17, -0.7071067811865486830 ) ) ;
#102 = ADVANCED_FACE ( 'NONE', ( #82 ), #61, .T. ) ;
#103 = VECTOR ( 'NONE', #112, 39.37007874015748143 ) ;
#104 = AXIS2_PLACEMENT_3D ( 'NONE', #71, #287, #241 ) ;
#105 = EDGE_LOOP ( 'NONE', ( #227, #88, #210, #135 ) ) ;
#106 = PLANE ( 'NONE',  #47 ) ;
#107 = CARTESIAN_POINT ( 'NONE',  ( 0.09375000000000001388, 1.148106374200643863E-17, 2.000000000000000000 ) ) ;
#108 = EDGE_CURVE ( 'NONE', #228, #258, #46, .T. ) ;
#109 = ORIENTED_EDGE ( 'NONE', *, *, #168, .F. ) ;
#110 =( NAMED_UNIT ( * ) SI_UNIT ( $, .STERADIAN. ) SOLID_ANGLE_UNIT ( ) );
#111 = ORIENTED_EDGE ( 'NONE', *, *, #162, .T. ) ;
#112 = DIRECTION ( 'NONE',  ( -0.0000000000000000000, -0.0000000000000000000, -1.000000000000000000 ) ) ;
#113 = CIRCLE ( 'NONE', #268, 0.09375000000000001388 ) ;
#114 = ORIENTED_EDGE ( 'NONE', *, *, #78, .T. ) ;
#115 = CARTESIAN_POINT ( 'NONE',  ( 0.0000000000000000000, 0.0000000000000000000, 2.000000000000000000 ) ) ;
#116 = DIRECTION ( 'NONE',  ( -1.000000000000000000, 0.0000000000000000000, 0.0000000000000000000 ) ) ;
#117 = PRESENTATION_STYLE_ASSIGNMENT (( #170 ) ) ;
#118 = PRESENTATION_LAYER_ASSIGNMENT (  '', '', ( #124 ) ) ;
#119 = FACE_OUTER_BOUND ( 'NONE', #239, .T. ) ;
#120 = CARTESIAN_POINT ( 'NONE',  ( 7.654042494670957853E-17, 0.0000000000000000000, 0.6250000000000000000 ) ) ;
#121 = ADVANCED_FACE ( 'NONE', ( #6 ), #236, .T. ) ;
#122 = EDGE_LOOP ( 'NONE', ( #206, #297, #151, #63 ) ) ;
#123 =( NAMED_UNIT ( * ) PLANE_ANGLE_UNIT ( ) SI_UNIT ( $, .RADIAN. ) );
#124 = STYLED_ITEM ( 'NONE', ( #117 ), #222 ) ;
#125 = ADVANCED_FACE ( 'NONE', ( #28 ), #20, .T. ) ;
#126 =( LENGTH_UNIT ( ) NAMED_UNIT ( * ) SI_UNIT ( $, .METRE. ) );
#127 = SURFACE_STYLE_FILL_AREA ( #51 ) ;
#128 = SHAPE_DEFINITION_REPRESENTATION ( #144, #39 ) ;
#129 = EDGE_LOOP ( 'NONE', ( #109, #190, #276, #79 ) ) ;
#130 = DIMENSIONAL_EXPONENTS ( 1.000000000000000000, 0.0000000000000000000, 0.0000000000000000000, 0.0000000000000000000, 0.0000000000000000000, 0.0000000000000000000, 0.0000000000000000000 ) ;
#131 = VECTOR ( 'NONE', #246, 39.37007874015748143 ) ;
#132 = CARTESIAN_POINT ( 'NONE',  ( 1.287754489664668799E-33, 0.0000000000000000000, 1.051531339943283032E-17 ) ) ;
#133 = EDGE_LOOP ( 'NONE', ( #243, #136, #114, #148 ) ) ;
#134 = EDGE_CURVE ( 'NONE', #163, #85, #77, .T. ) ;
#135 = ORIENTED_EDGE ( 'NONE', *, *, #199, .F. ) ;
#136 = ORIENTED_EDGE ( 'NONE', *, *, #73, .F. ) ;
#137 = EDGE_CURVE ( 'NONE', #228, #231, #255, .T. ) ;
#138 = CARTESIAN_POINT ( 'NONE',  ( 0.0000000000000000000, 0.0000000000000000000, 1.984999999999999654 ) ) ;
#139 = DIRECTION ( 'NONE',  ( -0.0000000000000000000, -0.0000000000000000000, -1.000000000000000000 ) ) ;
#140 = DIRECTION ( 'NONE',  ( 1.000000000000000000, 0.0000000000000000000, 0.0000000000000000000 ) ) ;
#141 = AXIS2_PLACEMENT_3D ( 'NONE', #205, #250, #35 ) ;
#142 = FILL_AREA_STYLE ('',( #50 ) ) ;
#143 = CARTESIAN_POINT ( 'NONE',  ( 0.09375000000000009714, 1.148106374200644787E-17, 0.6697234448654140193 ) ) ;
#144 = PRODUCT_DEFINITION_SHAPE ( 'NONE', 'NONE',  #69 ) ;
#145 = VERTEX_POINT ( 'NONE', #259 ) ;
#146 = DIRECTION ( 'NONE',  ( -1.000000000000000000, 0.0000000000000000000, 1.224646799147353454E-16 ) ) ;
#147 = EDGE_CURVE ( 'NONE', #145, #258, #4, .T. ) ;
#148 = ORIENTED_EDGE ( 'NONE', *, *, #298, .T. ) ;
#149 =( CONVERSION_BASED_UNIT ( 'INCH', #76 ) LENGTH_UNIT ( ) NAMED_UNIT ( #153 ) );
#150 = PRODUCT_DEFINITION_CONTEXT ( 'detailed design', #177, 'design' ) ;
#151 = ORIENTED_EDGE ( 'NONE', *, *, #293, .F. ) ;
#152 = CARTESIAN_POINT ( 'NONE',  ( -0.07874999999999980627, 0.0000000000000000000, 2.000000000000000000 ) ) ;
#153 = DIMENSIONAL_EXPONENTS ( 1.000000000000000000, 0.0000000000000000000, 0.0000000000000000000, 0.0000000000000000000, 0.0000000000000000000, 0.0000000000000000000, 0.0000000000000000000 ) ;
#154 = EDGE_LOOP ( 'NONE', ( #251, #167 ) ) ;
#155 = FILL_AREA_STYLE_COLOUR ( '', #180 ) ;
#156 = AXIS2_PLACEMENT_3D ( 'NONE', #256, #284, #89 ) ;
#157 = APPLICATION_CONTEXT ( 'automotive_design' ) ;
#158 = FACE_OUTER_BOUND ( 'NONE', #22, .T. ) ;
#159 = ORIENTED_EDGE ( 'NONE', *, *, #73, .T. ) ;
#160 = PRODUCT_DEFINITION_FORMATION_WITH_SPECIFIED_SOURCE ( 'ANY', '', #223, .NOT_KNOWN. ) ;
#161 = PRODUCT_CONTEXT ( 'NONE', #157, 'mechanical' ) ;
#162 = EDGE_CURVE ( 'NONE', #145, #277, #93, .T. ) ;
#163 = VERTEX_POINT ( 'NONE', #237 ) ;
#164 = EDGE_LOOP ( 'NONE', ( #45, #65, #283, #265 ) ) ;
#165 = ORIENTED_EDGE ( 'NONE', *, *, #134, .T. ) ;
#166 = ORIENTED_EDGE ( 'NONE', *, *, #2, .F. ) ;
#167 = ORIENTED_EDGE ( 'NONE', *, *, #42, .T. ) ;
#168 = EDGE_CURVE ( 'NONE', #145, #296, #209, .T. ) ;
#169 = AXIS2_PLACEMENT_3D ( 'NONE', #132, #17, #248 ) ;
#170 = SURFACE_STYLE_USAGE ( .BOTH. , #262 ) ;
#171 = AXIS2_PLACEMENT_3D ( 'NONE', #120, #218, #197 ) ;
#172 = DIRECTION ( 'NONE',  ( 1.224646799147353207E-16, 0.0000000000000000000, 1.000000000000000000 ) ) ;
#173 = CLOSED_SHELL ( 'NONE', ( #83, #226, #102, #204, #95, #121, #125, #215, #29, #91 ) ) ;
#174 = DIRECTION ( 'NONE',  ( 0.0000000000000000000, 0.0000000000000000000, -1.000000000000000000 ) ) ;
#175 = CARTESIAN_POINT ( 'NONE',  ( 0.0000000000000000000, 0.0000000000000000000, 2.000000000000000000 ) ) ;
#176 = AXIS2_PLACEMENT_3D ( 'NONE', #27, #172, #261 ) ;
#177 = APPLICATION_CONTEXT ( 'automotive_design' ) ;
#178 = CARTESIAN_POINT ( 'NONE',  ( 0.08586405000000006671, 0.0000000000000000000, 0.6250000000000000000 ) ) ;
#179 = DIRECTION ( 'NONE',  ( -1.224646799147353207E-16, -0.0000000000000000000, -1.000000000000000000 ) ) ;
#180 = COLOUR_RGB ( '',0.7921568627450980005, 0.8196078431372548767, 0.9333333333333333481 ) ;
#181 =( GEOMETRIC_REPRESENTATION_CONTEXT ( 3 ) GLOBAL_UNCERTAINTY_ASSIGNED_CONTEXT ( ( #183 ) ) GLOBAL_UNIT_ASSIGNED_CONTEXT ( ( #149, #100, #266 ) ) REPRESENTATION_CONTEXT ( 'NONE', 'WORKASPACE' ) );
#182 = VERTEX_POINT ( 'NONE', #143 ) ;
#183 = UNCERTAINTY_MEASURE_WITH_UNIT (LENGTH_MEASURE( 1.000000000000000082E-05 ), #149, 'distance_accuracy_value', 'NONE');
#184 = CIRCLE ( 'NONE', #244, 0.09375000000000001388 ) ;
#185 = DIRECTION ( 'NONE',  ( 1.000000000000000000, 0.0000000000000000000, 0.0000000000000000000 ) ) ;
#186 = CYLINDRICAL_SURFACE ( 'NONE', #202, 0.09375000000000001388 ) ;
#187 = DIRECTION ( 'NONE',  ( -1.224646799147353207E-16, -0.0000000000000000000, -1.000000000000000000 ) ) ;
#188 = FACE_OUTER_BOUND ( 'NONE', #154, .T. ) ;
#189 = LINE ( 'NONE', #34, #11 ) ;
#190 = ORIENTED_EDGE ( 'NONE', *, *, #147, .T. ) ;
#191 = CARTESIAN_POINT ( 'NONE',  ( -0.08586404999999999732, 0.0000000000000000000, 1.051531339943283032E-17 ) ) ;
#192 = CIRCLE ( 'NONE', #196, 0.07874999999999980627 ) ;
#193 =( CONVERSION_BASED_UNIT ( 'INCH', #257 ) LENGTH_UNIT ( ) NAMED_UNIT ( #62 ) );
#194 = DIRECTION ( 'NONE',  ( 0.0000000000000000000, 0.0000000000000000000, -1.000000000000000000 ) ) ;
#195 = SURFACE_STYLE_FILL_AREA ( #142 ) ;
#196 = AXIS2_PLACEMENT_3D ( 'NONE', #115, #211, #185 ) ;
#197 = DIRECTION ( 'NONE',  ( 1.000000000000000000, 0.0000000000000000000, 0.0000000000000000000 ) ) ;
#198 =( CONVERSION_BASED_UNIT ( 'INCH', #33 ) LENGTH_UNIT ( ) NAMED_UNIT ( #130 ) );
#199 = EDGE_CURVE ( 'NONE', #231, #228, #113, .T. ) ;
#200 = UNCERTAINTY_MEASURE_WITH_UNIT (LENGTH_MEASURE( 1.000000000000000082E-05 ), #193, 'distance_accuracy_value', 'NONE');
#201 =( NAMED_UNIT ( * ) SI_UNIT ( $, .STERADIAN. ) SOLID_ANGLE_UNIT ( ) );
#202 = AXIS2_PLACEMENT_3D ( 'NONE', #58, #19, #87 ) ;
#203 = EDGE_LOOP ( 'NONE', ( #242, #165 ) ) ;
#204 = ADVANCED_FACE ( 'NONE', ( #119 ), #281, .T. ) ;
#205 = CARTESIAN_POINT ( 'NONE',  ( 0.0000000000000000000, 0.0000000000000000000, 0.0000000000000000000 ) ) ;
#206 = ORIENTED_EDGE ( 'NONE', *, *, #168, .T. ) ;
#207 = DIRECTION ( 'NONE',  ( 0.0000000000000000000, 0.0000000000000000000, 1.000000000000000000 ) ) ;
#208 = DIRECTION ( 'NONE',  ( -1.000000000000000000, 0.0000000000000000000, 0.0000000000000000000 ) ) ;
#209 = CIRCLE ( 'NONE', #104, 0.08586404999999999732 ) ;
#210 = ORIENTED_EDGE ( 'NONE', *, *, #270, .T. ) ;
#211 = DIRECTION ( 'NONE',  ( 0.0000000000000000000, 0.0000000000000000000, 1.000000000000000000 ) ) ;
#212 = DIRECTION ( 'NONE',  ( 0.0000000000000000000, 0.0000000000000000000, -1.000000000000000000 ) ) ;
#213 = AXIS2_PLACEMENT_3D ( 'NONE', #7, #212, #70 ) ;
#214 = CARTESIAN_POINT ( 'NONE',  ( 0.0000000000000000000, 0.0000000000000000000, 1.984999999999999654 ) ) ;
#215 = ADVANCED_FACE ( 'NONE', ( #67 ), #41, .T. ) ;
#216 = DIRECTION ( 'NONE',  ( -0.0000000000000000000, -0.0000000000000000000, -1.000000000000000000 ) ) ;
#217 = CARTESIAN_POINT ( 'NONE',  ( 0.0000000000000000000, 0.0000000000000000000, 2.000000000000000000 ) ) ;
#218 = DIRECTION ( 'NONE',  ( 1.224646799147353207E-16, 0.0000000000000000000, 1.000000000000000000 ) ) ;
#219 = APPLICATION_PROTOCOL_DEFINITION ( 'draft international standard', 'automotive_design', 1998, #157 ) ;
#220 = SURFACE_SIDE_STYLE ('',( #127 ) ) ;
#221 = CARTESIAN_POINT ( 'NONE',  ( -0.08586404999999999732, 0.0000000000000000000, 2.103062679886566065E-17 ) ) ;
#222 = MANIFOLD_SOLID_BREP ( 'Cut-Revolve1', #173 ) ;
#223 = PRODUCT ( 'Micro_GEM-171-2X', 'Micro_GEM-171-2X', '', ( #161 ) ) ;
#224 = AXIS2_PLACEMENT_3D ( 'NONE', #217, #23, #282 ) ;
#225 = PRESENTATION_STYLE_ASSIGNMENT (( #96 ) ) ;
#226 = ADVANCED_FACE ( 'NONE', ( #272 ), #290, .T. ) ;
#227 = ORIENTED_EDGE ( 'NONE', *, *, #264, .F. ) ;
#228 = VERTEX_POINT ( 'NONE', #10 ) ;
#229 = CIRCLE ( 'NONE', #86, 0.08586404999999999732 ) ;
#230 = DIRECTION ( 'NONE',  ( 0.1736481776669313304, 0.0000000000000000000, 0.9848077530122077983 ) ) ;
#231 = VERTEX_POINT ( 'NONE', #271 ) ;
#232 = FACE_OUTER_BOUND ( 'NONE', #234, .T. ) ;
#233 = AXIS2_PLACEMENT_3D ( 'NONE', #214, #174, #140 ) ;
#234 = EDGE_LOOP ( 'NONE', ( #288, #9, #59, #54 ) ) ;
#235 = CARTESIAN_POINT ( 'NONE',  ( 0.08586404999999999732, 1.051531339943283032E-17, -1.051531339943283032E-17 ) ) ;
#236 = PLANE ( 'NONE',  #224 ) ;
#237 = CARTESIAN_POINT ( 'NONE',  ( 0.07874999999999980627, 1.056257864264590573E-17, 2.000000000000000000 ) ) ;
#238 = EDGE_CURVE ( 'NONE', #258, #182, #52, .T. ) ;
#239 = EDGE_LOOP ( 'NONE', ( #81, #254, #37, #48 ) ) ;
#240 =( GEOMETRIC_REPRESENTATION_CONTEXT ( 3 ) GLOBAL_UNCERTAINTY_ASSIGNED_CONTEXT ( ( #200 ) ) GLOBAL_UNIT_ASSIGNED_CONTEXT ( ( #193, #123, #201 ) ) REPRESENTATION_CONTEXT ( 'NONE', 'WORKASPACE' ) );
#241 = DIRECTION ( 'NONE',  ( -1.000000000000000000, 0.0000000000000000000, 0.0000000000000000000 ) ) ;
#242 = ORIENTED_EDGE ( 'NONE', *, *, #98, .T. ) ;
#243 = ORIENTED_EDGE ( 'NONE', *, *, #147, .F. ) ;
#244 = AXIS2_PLACEMENT_3D ( 'NONE', #247, #179, #31 ) ;
#245 = LINE ( 'NONE', #289, #94 ) ;
#246 = DIRECTION ( 'NONE',  ( -0.7071067811865463515, 0.0000000000000000000, -0.7071067811865486830 ) ) ;
#247 = CARTESIAN_POINT ( 'NONE',  ( 8.201746730683681886E-17, 0.0000000000000000000, 0.6697234448654140193 ) ) ;
#248 = DIRECTION ( 'NONE',  ( -1.000000000000000000, 0.0000000000000000000, 1.224646799147353454E-16 ) ) ;
#249 =( NAMED_UNIT ( * ) PLANE_ANGLE_UNIT ( ) SI_UNIT ( $, .RADIAN. ) );
#250 = DIRECTION ( 'NONE',  ( -1.224646799147353207E-16, -0.0000000000000000000, -1.000000000000000000 ) ) ;
#251 = ORIENTED_EDGE ( 'NONE', *, *, #293, .T. ) ;
#252 = CARTESIAN_POINT ( 'NONE',  ( 0.0000000000000000000, 0.0000000000000000000, 0.0000000000000000000 ) ) ;
#253 = CYLINDRICAL_SURFACE ( 'NONE', #84, 0.08586404999999999732 ) ;
#254 = ORIENTED_EDGE ( 'NONE', *, *, #66, .T. ) ;
#255 = CIRCLE ( 'NONE', #233, 0.09375000000000001388 ) ;
#256 = CARTESIAN_POINT ( 'NONE',  ( 0.0000000000000000000, 0.0000000000000000000, 2.000000000000000000 ) ) ;
#257 = LENGTH_MEASURE_WITH_UNIT ( LENGTH_MEASURE( 0.02539999999999999897 ), #8 );
#258 = VERTEX_POINT ( 'NONE', #13 ) ;
#259 = CARTESIAN_POINT ( 'NONE',  ( -0.08586404999999992793, 1.099818857071963216E-17, 0.6250000000000000000 ) ) ;
#260 = AXIS2_PLACEMENT_3D ( 'NONE', #252, #207, #18 ) ;
#261 = DIRECTION ( 'NONE',  ( 1.000000000000000000, 0.0000000000000000000, 0.0000000000000000000 ) ) ;
#262 = SURFACE_SIDE_STYLE ('',( #195 ) ) ;
#263 = VECTOR ( 'NONE', #60, 39.37007874015748143 ) ;
#264 = EDGE_CURVE ( 'NONE', #163, #231, #245, .T. ) ;
#265 = ORIENTED_EDGE ( 'NONE', *, *, #270, .F. ) ;
#266 =( NAMED_UNIT ( * ) SI_UNIT ( $, .STERADIAN. ) SOLID_ANGLE_UNIT ( ) );
#267 = CIRCLE ( 'NONE', #280, 0.08586404999999999732 ) ;
#268 = AXIS2_PLACEMENT_3D ( 'NONE', #138, #92, #24 ) ;
#269 = UNCERTAINTY_MEASURE_WITH_UNIT (LENGTH_MEASURE( 1.000000000000000082E-05 ), #198, 'distance_accuracy_value', 'NONE');
#270 = EDGE_CURVE ( 'NONE', #85, #228, #53, .T. ) ;
#271 = CARTESIAN_POINT ( 'NONE',  ( 0.09375000000000001388, 1.148106374200643863E-17, 1.984999999999999654 ) ) ;
#272 = FACE_OUTER_BOUND ( 'NONE', #129, .T. ) ;
#273 = AXIS2_PLACEMENT_3D ( 'NONE', #44, #194, #116 ) ;
#274 = DIRECTION ( 'NONE',  ( 1.000000000000000000, 0.0000000000000000000, -0.0000000000000000000 ) ) ;
#275 = VERTEX_POINT ( 'NONE', #75 ) ;
#276 = ORIENTED_EDGE ( 'NONE', *, *, #238, .T. ) ;
#277 = VERTEX_POINT ( 'NONE', #221 ) ;
#278 = DIRECTION ( 'NONE',  ( 0.0000000000000000000, 0.0000000000000000000, 1.000000000000000000 ) ) ;
#279 = CARTESIAN_POINT ( 'NONE',  ( 0.0000000000000000000, 0.0000000000000000000, 0.0000000000000000000 ) ) ;
#280 = AXIS2_PLACEMENT_3D ( 'NONE', #21, #187, #208 ) ;
#281 = CYLINDRICAL_SURFACE ( 'NONE', #15, 0.09375000000000001388 ) ;
#282 = DIRECTION ( 'NONE',  ( 1.000000000000000000, 0.0000000000000000000, -0.0000000000000000000 ) ) ;
#283 = ORIENTED_EDGE ( 'NONE', *, *, #137, .F. ) ;
#284 = DIRECTION ( 'NONE',  ( 0.0000000000000000000, 0.0000000000000000000, 1.000000000000000000 ) ) ;
#285 = PRODUCT_RELATED_PRODUCT_CATEGORY ( 'part', '', ( #223 ) ) ;
#286 = COLOUR_RGB ( '',0.7921568627450980005, 0.8196078431372548767, 0.9333333333333333481 ) ;
#287 = DIRECTION ( 'NONE',  ( -1.224646799147353207E-16, -0.0000000000000000000, -1.000000000000000000 ) ) ;
#288 = ORIENTED_EDGE ( 'NONE', *, *, #66, .F. ) ;
#289 = CARTESIAN_POINT ( 'NONE',  ( 0.07874999999999980627, 9.644093543285380530E-18, 2.000000000000000000 ) ) ;
#290 = CONICAL_SURFACE ( 'NONE', #171, 0.08586404999999999732, 0.1745329251994338360 ) ;
#291 = DIRECTION ( 'NONE',  ( 1.000000000000000000, 0.0000000000000000000, 0.0000000000000000000 ) ) ;
#292 = CIRCLE ( 'NONE', #169, 0.08586404999999999732 ) ;
#293 = EDGE_CURVE ( 'NONE', #277, #275, #229, .T. ) ;
#294 = MECHANICAL_DESIGN_GEOMETRIC_PRESENTATION_REPRESENTATION (  '', ( #124 ), #240 ) ;
#295 = DIRECTION ( 'NONE',  ( -1.224646799147353207E-16, -0.0000000000000000000, -1.000000000000000000 ) ) ;
#296 = VERTEX_POINT ( 'NONE', #178 ) ;
#297 = ORIENTED_EDGE ( 'NONE', *, *, #2, .T. ) ;
#298 = EDGE_CURVE ( 'NONE', #182, #258, #184, .T. ) ;
#299 = DIRECTION ( 'NONE',  ( -1.000000000000000000, 0.0000000000000000000, 1.224646799147353454E-16 ) ) ;
ENDSEC;
END-ISO-10303-21;
