ISO-10303-21;
HEADER;
FILE_DESCRIPTION (( 'STEP AP214' ),
    '1' );
FILE_NAME ('Micro_SFP-187-45.STEP',
    '2021-09-02T06:16:59',
    ( '' ),
    ( '' ),
    'SwSTEP 2.0',
    'SolidWorks 2020',
    '' );
FILE_SCHEMA (( 'AUTOMOTIVE_DESIGN' ));
ENDSEC;

DATA;
#1 = CARTESIAN_POINT ( 'NONE',  ( 0.0000000000000000000, 0.0000000000000000000, 2.000000000000000000 ) ) ;
#2 = ORIENTED_EDGE ( 'NONE', *, *, #200, .F. ) ;
#3 = DIRECTION ( 'NONE',  ( 0.0000000000000000000, 0.0000000000000000000, 1.000000000000000000 ) ) ;
#4 = ORIENTED_EDGE ( 'NONE', *, *, #211, .F. ) ;
#5 = ORIENTED_EDGE ( 'NONE', *, *, #119, .T. ) ;
#6 = PLANE ( 'NONE',  #76 ) ;
#7 = EDGE_CURVE ( 'NONE', #93, #233, #51, .T. ) ;
#8 = ADVANCED_FACE ( 'NONE', ( #52 ), #155, .T. ) ;
#9 = ORIENTED_EDGE ( 'NONE', *, *, #86, .F. ) ;
#10 = DIRECTION ( 'NONE',  ( -1.000000000000000000, 0.0000000000000000000, 1.224646799147352961E-16 ) ) ;
#11 =( GEOMETRIC_REPRESENTATION_CONTEXT ( 3 ) GLOBAL_UNCERTAINTY_ASSIGNED_CONTEXT ( ( #254 ) ) GLOBAL_UNIT_ASSIGNED_CONTEXT ( ( #177, #229, #42 ) ) REPRESENTATION_CONTEXT ( 'NONE', 'WORKASPACE' ) );
#12 = DIRECTION ( 'NONE',  ( 1.000000000000000000, 0.0000000000000000000, 0.0000000000000000000 ) ) ;
#13 = DIRECTION ( 'NONE',  ( -1.000000000000000000, 0.0000000000000000000, 0.0000000000000000000 ) ) ;
#14 = CARTESIAN_POINT ( 'NONE',  ( 0.1099999999999996397, 1.438959988998137757E-17, 2.000000000000000000 ) ) ;
#15 = CONICAL_SURFACE ( 'NONE', #268, 0.1099999999999996397, 0.7853981633974426169 ) ;
#16 = FILL_AREA_STYLE_COLOUR ( '', #193 ) ;
#17 = ADVANCED_FACE ( 'NONE', ( #121 ), #267, .T. ) ;
#18 = EDGE_CURVE ( 'NONE', #178, #158, #165, .T. ) ;
#19 = SURFACE_STYLE_FILL_AREA ( #153 ) ;
#20 = FACE_OUTER_BOUND ( 'NONE', #71, .T. ) ;
#21 =( NAMED_UNIT ( * ) PLANE_ANGLE_UNIT ( ) SI_UNIT ( $, .RADIAN. ) );
#22 = PRESENTATION_LAYER_ASSIGNMENT (  '', '', ( #228 ) ) ;
#23 =( LENGTH_UNIT ( ) NAMED_UNIT ( * ) SI_UNIT ( $, .METRE. ) );
#24 = APPLICATION_PROTOCOL_DEFINITION ( 'draft international standard', 'automotive_design', 1998, #195 ) ;
#25 = ORIENTED_EDGE ( 'NONE', *, *, #241, .F. ) ;
#26 = EDGE_LOOP ( 'NONE', ( #90, #9, #297, #227 ) ) ;
#27 = LENGTH_MEASURE_WITH_UNIT ( LENGTH_MEASURE( 0.02539999999999999897 ), #23 );
#28 = EDGE_LOOP ( 'NONE', ( #97, #46, #30, #2 ) ) ;
#29 = EDGE_LOOP ( 'NONE', ( #202, #5, #92, #281 ) ) ;
#30 = ORIENTED_EDGE ( 'NONE', *, *, #251, .F. ) ;
#31 = VECTOR ( 'NONE', #217, 39.37007874015748143 ) ;
#32 = DIRECTION ( 'NONE',  ( 0.0000000000000000000, 0.0000000000000000000, -1.000000000000000000 ) ) ;
#33 = DIMENSIONAL_EXPONENTS ( 1.000000000000000000, 0.0000000000000000000, 0.0000000000000000000, 0.0000000000000000000, 0.0000000000000000000, 0.0000000000000000000, 0.0000000000000000000 ) ;
#34 = CARTESIAN_POINT ( 'NONE',  ( -0.1250000000000000000, 0.0000000000000000000, 1.984999999999999432 ) ) ;
#35 = CARTESIAN_POINT ( 'NONE',  ( -0.09365624999999992706, 1.338883383380317231E-17, 0.6250000000000000000 ) ) ;
#36 = DIRECTION ( 'NONE',  ( 1.000000000000000000, 0.0000000000000000000, -0.0000000000000000000 ) ) ;
#37 = FACE_OUTER_BOUND ( 'NONE', #259, .T. ) ;
#38 = EDGE_CURVE ( 'NONE', #199, #135, #238, .T. ) ;
#39 = CARTESIAN_POINT ( 'NONE',  ( -0.1099999999999996397, 0.0000000000000000000, 2.000000000000000000 ) ) ;
#40 = CIRCLE ( 'NONE', #182, 0.09365624999999999645 ) ;
#41 = CIRCLE ( 'NONE', #256, 0.1250000000000000000 ) ;
#42 =( NAMED_UNIT ( * ) SI_UNIT ( $, .STERADIAN. ) SOLID_ANGLE_UNIT ( ) );
#43 = EDGE_LOOP ( 'NONE', ( #225, #47, #66, #94 ) ) ;
#44 = ORIENTED_EDGE ( 'NONE', *, *, #200, .T. ) ;
#45 = FILL_AREA_STYLE_COLOUR ( '', #239 ) ;
#46 = ORIENTED_EDGE ( 'NONE', *, *, #241, .T. ) ;
#47 = ORIENTED_EDGE ( 'NONE', *, *, #131, .T. ) ;
#48 = EDGE_LOOP ( 'NONE', ( #181, #253, #277, #176 ) ) ;
#49 = DIRECTION ( 'NONE',  ( 1.000000000000000000, 0.0000000000000000000, 0.0000000000000000000 ) ) ;
#50 = AXIS2_PLACEMENT_3D ( 'NONE', #132, #270, #292 ) ;
#51 = LINE ( 'NONE', #74, #111 ) ;
#52 = FACE_OUTER_BOUND ( 'NONE', #26, .T. ) ;
#53 = ADVANCED_FACE ( 'NONE', ( #242 ), #15, .T. ) ;
#54 = CARTESIAN_POINT ( 'NONE',  ( 7.654042494670957853E-17, 0.0000000000000000000, 0.6250000000000000000 ) ) ;
#55 = MECHANICAL_DESIGN_GEOMETRIC_PRESENTATION_REPRESENTATION (  '', ( #228 ), #11 ) ;
#56 = CARTESIAN_POINT ( 'NONE',  ( 0.0000000000000000000, 0.0000000000000000000, 2.000000000000000000 ) ) ;
#57 = EDGE_CURVE ( 'NONE', #93, #135, #208, .T. ) ;
#58 = ADVANCED_FACE ( 'NONE', ( #37 ), #79, .T. ) ;
#59 = DIMENSIONAL_EXPONENTS ( 1.000000000000000000, 0.0000000000000000000, 0.0000000000000000000, 0.0000000000000000000, 0.0000000000000000000, 0.0000000000000000000, 0.0000000000000000000 ) ;
#60 = SURFACE_SIDE_STYLE ('',( #19 ) ) ;
#61 = PRODUCT_DEFINITION_FORMATION_WITH_SPECIFIED_SOURCE ( 'ANY', '', #154, .NOT_KNOWN. ) ;
#62 = DIRECTION ( 'NONE',  ( 0.0000000000000000000, 0.0000000000000000000, -1.000000000000000000 ) ) ;
#63 = CARTESIAN_POINT ( 'NONE',  ( 0.0000000000000000000, 0.0000000000000000000, 1.984999999999999432 ) ) ;
#64 = DIRECTION ( 'NONE',  ( 1.000000000000000000, 0.0000000000000000000, 0.0000000000000000000 ) ) ;
#65 = STYLED_ITEM ( 'NONE', ( #100 ), #212 ) ;
#66 = ORIENTED_EDGE ( 'NONE', *, *, #262, .F. ) ;
#67 = ADVANCED_FACE ( 'NONE', ( #166 ), #6, .F. ) ;
#68 = EDGE_LOOP ( 'NONE', ( #275, #160 ) ) ;
#69 = ORIENTED_EDGE ( 'NONE', *, *, #170, .T. ) ;
#70 = VECTOR ( 'NONE', #191, 39.37007874015748143 ) ;
#71 = EDGE_LOOP ( 'NONE', ( #139, #136, #110, #255 ) ) ;
#72 =( GEOMETRIC_REPRESENTATION_CONTEXT ( 3 ) GLOBAL_UNCERTAINTY_ASSIGNED_CONTEXT ( ( #299 ) ) GLOBAL_UNIT_ASSIGNED_CONTEXT ( ( #109, #198, #296 ) ) REPRESENTATION_CONTEXT ( 'NONE', 'WORKASPACE' ) );
#73 = ORIENTED_EDGE ( 'NONE', *, *, #149, .F. ) ;
#74 = CARTESIAN_POINT ( 'NONE',  ( -0.09365624999999992706, 1.146958267826442798E-17, 0.6250000000000000000 ) ) ;
#75 = FACE_OUTER_BOUND ( 'NONE', #48, .T. ) ;
#76 = AXIS2_PLACEMENT_3D ( 'NONE', #237, #162, #36 ) ;
#77 = ADVANCED_FACE ( 'NONE', ( #187 ), #163, .T. ) ;
#78 = DIRECTION ( 'NONE',  ( 0.0000000000000000000, 0.0000000000000000000, 1.000000000000000000 ) ) ;
#79 = CYLINDRICAL_SURFACE ( 'NONE', #101, 0.1250000000000000000 ) ;
#80 = CARTESIAN_POINT ( 'NONE',  ( 0.09365624999999999645, 1.146958267826442798E-17, -1.146958267826442798E-17 ) ) ;
#81 =( CONVERSION_BASED_UNIT ( 'INCH', #148 ) LENGTH_UNIT ( ) NAMED_UNIT ( #33 ) );
#82 = LINE ( 'NONE', #39, #289 ) ;
#83 = CARTESIAN_POINT ( 'NONE',  ( 0.0000000000000000000, 0.0000000000000000000, 1.984999999999999432 ) ) ;
#84 = CIRCLE ( 'NONE', #234, 0.1250000000000000000 ) ;
#85 = DIRECTION ( 'NONE',  ( 1.224646799147353207E-16, 0.0000000000000000000, 1.000000000000000000 ) ) ;
#86 = EDGE_CURVE ( 'NONE', #178, #93, #164, .T. ) ;
#87 = FACE_OUTER_BOUND ( 'NONE', #28, .T. ) ;
#88 = PRESENTATION_STYLE_ASSIGNMENT (( #278 ) ) ;
#89 = EDGE_CURVE ( 'NONE', #204, #205, #117, .T. ) ;
#90 = ORIENTED_EDGE ( 'NONE', *, *, #7, .F. ) ;
#91 = FILL_AREA_STYLE ('',( #45 ) ) ;
#92 = ORIENTED_EDGE ( 'NONE', *, *, #250, .F. ) ;
#93 = VERTEX_POINT ( 'NONE', #35 ) ;
#94 = ORIENTED_EDGE ( 'NONE', *, *, #57, .F. ) ;
#95 = CARTESIAN_POINT ( 'NONE',  ( 0.0000000000000000000, 0.0000000000000000000, 0.0000000000000000000 ) ) ;
#96 = CARTESIAN_POINT ( 'NONE',  ( 0.0000000000000000000, 0.0000000000000000000, 2.000000000000000000 ) ) ;
#97 = ORIENTED_EDGE ( 'NONE', *, *, #250, .T. ) ;
#98 = CARTESIAN_POINT ( 'NONE',  ( 0.1099999999999996397, 1.347111479062084158E-17, 2.000000000000000000 ) ) ;
#99 = LINE ( 'NONE', #80, #123 ) ;
#100 = PRESENTATION_STYLE_ASSIGNMENT (( #194 ) ) ;
#101 = AXIS2_PLACEMENT_3D ( 'NONE', #96, #235, #141 ) ;
#102 = DIRECTION ( 'NONE',  ( -0.0000000000000000000, -0.0000000000000000000, -1.000000000000000000 ) ) ;
#103 = CARTESIAN_POINT ( 'NONE',  ( 0.09365624999999999645, 1.146958267826442798E-17, 0.0000000000000000000 ) ) ;
#104 = ADVANCED_FACE ( 'NONE', ( #75 ), #142, .T. ) ;
#105 =( LENGTH_UNIT ( ) NAMED_UNIT ( * ) SI_UNIT ( $, .METRE. ) );
#106 = AXIS2_PLACEMENT_3D ( 'NONE', #190, #118, #10 ) ;
#107 = CIRCLE ( 'NONE', #201, 0.1250000000000000000 ) ;
#108 = DIRECTION ( 'NONE',  ( 1.000000000000000000, 0.0000000000000000000, 0.0000000000000000000 ) ) ;
#109 =( CONVERSION_BASED_UNIT ( 'INCH', #27 ) LENGTH_UNIT ( ) NAMED_UNIT ( #266 ) );
#110 = ORIENTED_EDGE ( 'NONE', *, *, #251, .T. ) ;
#111 = VECTOR ( 'NONE', #287, 39.37007874015747433 ) ;
#112 = APPLICATION_PROTOCOL_DEFINITION ( 'draft international standard', 'automotive_design', 1998, #210 ) ;
#113 = AXIS2_PLACEMENT_3D ( 'NONE', #197, #174, #64 ) ;
#114 = EDGE_LOOP ( 'NONE', ( #232, #258 ) ) ;
#115 = VERTEX_POINT ( 'NONE', #34 ) ;
#116 = VERTEX_POINT ( 'NONE', #213 ) ;
#117 = CIRCLE ( 'NONE', #128, 0.1099999999999996397 ) ;
#118 = DIRECTION ( 'NONE',  ( -1.224646799147353207E-16, -0.0000000000000000000, -1.000000000000000000 ) ) ;
#119 = EDGE_CURVE ( 'NONE', #204, #116, #209, .T. ) ;
#120 = EDGE_CURVE ( 'NONE', #93, #178, #40, .T. ) ;
#121 = FACE_OUTER_BOUND ( 'NONE', #29, .T. ) ;
#122 = DIRECTION ( 'NONE',  ( -1.000000000000000000, 0.0000000000000000000, 1.224646799147352961E-16 ) ) ;
#123 = VECTOR ( 'NONE', #167, 39.37007874015748143 ) ;
#124 = CIRCLE ( 'NONE', #113, 0.1250000000000000000 ) ;
#125 = CARTESIAN_POINT ( 'NONE',  ( 7.654042494670957853E-17, 0.0000000000000000000, 0.6250000000000000000 ) ) ;
#126 = DIRECTION ( 'NONE',  ( -1.224646799147353207E-16, -0.0000000000000000000, -1.000000000000000000 ) ) ;
#127 = CARTESIAN_POINT ( 'NONE',  ( -0.1250000000000000000, 0.0000000000000000000, 2.000000000000000000 ) ) ;
#128 = AXIS2_PLACEMENT_3D ( 'NONE', #56, #78, #49 ) ;
#129 = LINE ( 'NONE', #127, #31 ) ;
#130 = ADVANCED_BREP_SHAPE_REPRESENTATION ( 'Micro_SFP-187-45', ( #212, #172 ), #72 ) ;
#131 = EDGE_CURVE ( 'NONE', #178, #199, #99, .T. ) ;
#132 = CARTESIAN_POINT ( 'NONE',  ( 0.0000000000000000000, 0.0000000000000000000, 2.000000000000000000 ) ) ;
#133 = AXIS2_PLACEMENT_3D ( 'NONE', #295, #102, #244 ) ;
#134 = DIRECTION ( 'NONE',  ( -1.000000000000000000, 0.0000000000000000000, 1.224646799147352961E-16 ) ) ;
#135 = VERTEX_POINT ( 'NONE', #171 ) ;
#136 = ORIENTED_EDGE ( 'NONE', *, *, #7, .T. ) ;
#137 = ADVANCED_FACE ( 'NONE', ( #87 ), #290, .T. ) ;
#138 = DIRECTION ( 'NONE',  ( 0.0000000000000000000, 0.0000000000000000000, 1.000000000000000000 ) ) ;
#139 = ORIENTED_EDGE ( 'NONE', *, *, #120, .F. ) ;
#140 = DIRECTION ( 'NONE',  ( -1.000000000000000000, 0.0000000000000000000, 0.0000000000000000000 ) ) ;
#141 = DIRECTION ( 'NONE',  ( -1.000000000000000000, 0.0000000000000000000, 0.0000000000000000000 ) ) ;
#142 = CYLINDRICAL_SURFACE ( 'NONE', #298, 0.09365624999999999645 ) ;
#143 = DIRECTION ( 'NONE',  ( -1.224646799147353207E-16, -0.0000000000000000000, -1.000000000000000000 ) ) ;
#144 = PRESENTATION_LAYER_ASSIGNMENT (  '', '', ( #65 ) ) ;
#145 = DIRECTION ( 'NONE',  ( 1.224646799147353207E-16, 0.0000000000000000000, 1.000000000000000000 ) ) ;
#146 = DIRECTION ( 'NONE',  ( -0.7071067811865434649, 0.0000000000000000000, -0.7071067811865515695 ) ) ;
#147 = PRODUCT_RELATED_PRODUCT_CATEGORY ( 'part', '', ( #154 ) ) ;
#148 = LENGTH_MEASURE_WITH_UNIT ( LENGTH_MEASURE( 0.02539999999999999897 ), #105 );
#149 = EDGE_CURVE ( 'NONE', #158, #233, #41, .T. ) ;
#150 = AXIS2_PLACEMENT_3D ( 'NONE', #186, #282, #140 ) ;
#151 = AXIS2_PLACEMENT_3D ( 'NONE', #95, #265, #122 ) ;
#152 = CARTESIAN_POINT ( 'NONE',  ( 7.654042494670957853E-17, 0.0000000000000000000, 0.6250000000000000000 ) ) ;
#153 = FILL_AREA_STYLE ('',( #16 ) ) ;
#154 = PRODUCT ( 'Micro_SFP-187-45', 'Micro_SFP-187-45', '', ( #203 ) ) ;
#155 = CONICAL_SURFACE ( 'NONE', #284, 0.09365624999999999645, 0.1745329251994338915 ) ;
#156 = AXIS2_PLACEMENT_3D ( 'NONE', #283, #286, #260 ) ;
#157 = PRODUCT_DEFINITION_CONTEXT ( 'detailed design', #210, 'design' ) ;
#158 = VERTEX_POINT ( 'NONE', #215 ) ;
#159 = LENGTH_MEASURE_WITH_UNIT ( LENGTH_MEASURE( 0.02539999999999999897 ), #175 );
#160 = ORIENTED_EDGE ( 'NONE', *, *, #38, .T. ) ;
#161 =( GEOMETRIC_REPRESENTATION_CONTEXT ( 3 ) GLOBAL_UNCERTAINTY_ASSIGNED_CONTEXT ( ( #276 ) ) GLOBAL_UNIT_ASSIGNED_CONTEXT ( ( #81, #21, #219 ) ) REPRESENTATION_CONTEXT ( 'NONE', 'WORKASPACE' ) );
#162 = DIRECTION ( 'NONE',  ( 0.0000000000000000000, 0.0000000000000000000, 1.000000000000000000 ) ) ;
#163 = CYLINDRICAL_SURFACE ( 'NONE', #151, 0.09365624999999999645 ) ;
#164 = CIRCLE ( 'NONE', #156, 0.09365624999999999645 ) ;
#165 = LINE ( 'NONE', #269, #70 ) ;
#166 = FACE_OUTER_BOUND ( 'NONE', #68, .T. ) ;
#167 = DIRECTION ( 'NONE',  ( -1.224646799147353207E-16, -0.0000000000000000000, -1.000000000000000000 ) ) ;
#168 = AXIS2_PLACEMENT_3D ( 'NONE', #152, #85, #246 ) ;
#169 = EDGE_CURVE ( 'NONE', #205, #204, #261, .T. ) ;
#170 = EDGE_CURVE ( 'NONE', #205, #115, #82, .T. ) ;
#171 = CARTESIAN_POINT ( 'NONE',  ( -0.09365624999999999645, 0.0000000000000000000, 2.293916535652885596E-17 ) ) ;
#172 = AXIS2_PLACEMENT_3D ( 'NONE', #257, #138, #231 ) ;
#173 = CARTESIAN_POINT ( 'NONE',  ( 0.1250000000000000000, 1.530808498934191509E-17, 2.000000000000000000 ) ) ;
#174 = DIRECTION ( 'NONE',  ( -1.224646799147353207E-16, -0.0000000000000000000, -1.000000000000000000 ) ) ;
#175 =( LENGTH_UNIT ( ) NAMED_UNIT ( * ) SI_UNIT ( $, .METRE. ) );
#176 = ORIENTED_EDGE ( 'NONE', *, *, #38, .F. ) ;
#177 =( CONVERSION_BASED_UNIT ( 'INCH', #159 ) LENGTH_UNIT ( ) NAMED_UNIT ( #59 ) );
#178 = VERTEX_POINT ( 'NONE', #247 ) ;
#179 = DIRECTION ( 'NONE',  ( 1.000000000000000000, 0.0000000000000000000, -0.0000000000000000000 ) ) ;
#180 = EDGE_LOOP ( 'NONE', ( #279, #280, #69, #4 ) ) ;
#181 = ORIENTED_EDGE ( 'NONE', *, *, #131, .F. ) ;
#182 = AXIS2_PLACEMENT_3D ( 'NONE', #125, #214, #13 ) ;
#183 = SHAPE_DEFINITION_REPRESENTATION ( #185, #130 ) ;
#184 = ADVANCED_FACE ( 'NONE', ( #20 ), #249, .T. ) ;
#185 = PRODUCT_DEFINITION_SHAPE ( 'NONE', 'NONE',  #216 ) ;
#186 = CARTESIAN_POINT ( 'NONE',  ( 0.0000000000000000000, 0.0000000000000000000, 2.000000000000000000 ) ) ;
#187 = FACE_OUTER_BOUND ( 'NONE', #43, .T. ) ;
#188 = DIRECTION ( 'NONE',  ( -1.000000000000000000, 0.0000000000000000000, 0.0000000000000000000 ) ) ;
#189 = AXIS2_PLACEMENT_3D ( 'NONE', #1, #3, #179 ) ;
#190 = CARTESIAN_POINT ( 'NONE',  ( 1.404618771449245766E-33, 0.0000000000000000000, 1.146958267826442798E-17 ) ) ;
#191 = DIRECTION ( 'NONE',  ( 0.1736481776669313859, 0.0000000000000000000, 0.9848077530122077983 ) ) ;
#192 = CARTESIAN_POINT ( 'NONE',  ( -0.1099999999999996397, 0.0000000000000000000, 2.000000000000000000 ) ) ;
#193 = COLOUR_RGB ( '',0.7921568627450980005, 0.8196078431372548767, 0.9333333333333333481 ) ;
#194 = SURFACE_STYLE_USAGE ( .BOTH. , #60 ) ;
#195 = APPLICATION_CONTEXT ( 'automotive_design' ) ;
#196 = DIRECTION ( 'NONE',  ( 1.000000000000000000, 0.0000000000000000000, 0.0000000000000000000 ) ) ;
#197 = CARTESIAN_POINT ( 'NONE',  ( 9.830965331808376686E-17, 0.0000000000000000000, 0.8027592395336416997 ) ) ;
#198 =( NAMED_UNIT ( * ) PLANE_ANGLE_UNIT ( ) SI_UNIT ( $, .RADIAN. ) );
#199 = VERTEX_POINT ( 'NONE', #103 ) ;
#200 = EDGE_CURVE ( 'NONE', #115, #233, #129, .T. ) ;
#201 = AXIS2_PLACEMENT_3D ( 'NONE', #83, #62, #221 ) ;
#202 = ORIENTED_EDGE ( 'NONE', *, *, #89, .F. ) ;
#203 = PRODUCT_CONTEXT ( 'NONE', #195, 'mechanical' ) ;
#204 = VERTEX_POINT ( 'NONE', #14 ) ;
#205 = VERTEX_POINT ( 'NONE', #192 ) ;
#206 = VECTOR ( 'NONE', #288, 39.37007874015748143 ) ;
#207 = CARTESIAN_POINT ( 'NONE',  ( -0.09365624999999999645, 0.0000000000000000000, 1.146958267826442798E-17 ) ) ;
#208 = LINE ( 'NONE', #207, #218 ) ;
#209 = LINE ( 'NONE', #98, #206 ) ;
#210 = APPLICATION_CONTEXT ( 'automotive_design' ) ;
#211 = EDGE_CURVE ( 'NONE', #116, #115, #107, .T. ) ;
#212 = MANIFOLD_SOLID_BREP ( 'Cut-Revolve1', #293 ) ;
#213 = CARTESIAN_POINT ( 'NONE',  ( 0.1250000000000000000, 1.530808498934191509E-17, 1.984999999999999432 ) ) ;
#214 = DIRECTION ( 'NONE',  ( -1.224646799147353207E-16, -0.0000000000000000000, -1.000000000000000000 ) ) ;
#215 = CARTESIAN_POINT ( 'NONE',  ( 0.1250000000000001110, 1.530808498934192742E-17, 0.8027592395336416997 ) ) ;
#216 = PRODUCT_DEFINITION ( 'UNKNOWN', '', #61, #157 ) ;
#217 = DIRECTION ( 'NONE',  ( -0.0000000000000000000, -0.0000000000000000000, -1.000000000000000000 ) ) ;
#218 = VECTOR ( 'NONE', #263, 39.37007874015748143 ) ;
#219 =( NAMED_UNIT ( * ) SI_UNIT ( $, .STERADIAN. ) SOLID_ANGLE_UNIT ( ) );
#220 = DIRECTION ( 'NONE',  ( -1.224646799147353207E-16, -0.0000000000000000000, -1.000000000000000000 ) ) ;
#221 = DIRECTION ( 'NONE',  ( 1.000000000000000000, 0.0000000000000000000, 0.0000000000000000000 ) ) ;
#222 = AXIS2_PLACEMENT_3D ( 'NONE', #248, #126, #134 ) ;
#223 = FACE_OUTER_BOUND ( 'NONE', #114, .T. ) ;
#224 = SURFACE_SIDE_STYLE ('',( #252 ) ) ;
#225 = ORIENTED_EDGE ( 'NONE', *, *, #120, .T. ) ;
#226 = PLANE ( 'NONE',  #189 ) ;
#227 = ORIENTED_EDGE ( 'NONE', *, *, #149, .T. ) ;
#228 = STYLED_ITEM ( 'NONE', ( #88 ), #130 ) ;
#229 =( NAMED_UNIT ( * ) PLANE_ANGLE_UNIT ( ) SI_UNIT ( $, .RADIAN. ) );
#230 = ORIENTED_EDGE ( 'NONE', *, *, #211, .T. ) ;
#231 = DIRECTION ( 'NONE',  ( 1.000000000000000000, 0.0000000000000000000, 0.0000000000000000000 ) ) ;
#232 = ORIENTED_EDGE ( 'NONE', *, *, #169, .T. ) ;
#233 = VERTEX_POINT ( 'NONE', #243 ) ;
#234 = AXIS2_PLACEMENT_3D ( 'NONE', #63, #274, #108 ) ;
#235 = DIRECTION ( 'NONE',  ( -0.0000000000000000000, -0.0000000000000000000, -1.000000000000000000 ) ) ;
#236 = DIRECTION ( 'NONE',  ( -1.000000000000000000, 0.0000000000000000000, 1.224646799147352961E-16 ) ) ;
#237 = CARTESIAN_POINT ( 'NONE',  ( 0.0000000000000000000, 0.0000000000000000000, 0.0000000000000000000 ) ) ;
#238 = CIRCLE ( 'NONE', #106, 0.09365624999999999645 ) ;
#239 = COLOUR_RGB ( '',0.7921568627450980005, 0.8196078431372548767, 0.9333333333333333481 ) ;
#240 = CARTESIAN_POINT ( 'NONE',  ( 0.0000000000000000000, 0.0000000000000000000, 2.000000000000000000 ) ) ;
#241 = EDGE_CURVE ( 'NONE', #116, #158, #294, .T. ) ;
#242 = FACE_OUTER_BOUND ( 'NONE', #180, .T. ) ;
#243 = CARTESIAN_POINT ( 'NONE',  ( -0.1249999999999999029, 0.0000000000000000000, 0.8027592395336416997 ) ) ;
#244 = DIRECTION ( 'NONE',  ( -1.000000000000000000, 0.0000000000000000000, 0.0000000000000000000 ) ) ;
#245 = VECTOR ( 'NONE', #273, 39.37007874015748143 ) ;
#246 = DIRECTION ( 'NONE',  ( 1.000000000000000000, 0.0000000000000000000, 0.0000000000000000000 ) ) ;
#247 = CARTESIAN_POINT ( 'NONE',  ( 0.09365625000000006584, 0.0000000000000000000, 0.6250000000000000000 ) ) ;
#248 = CARTESIAN_POINT ( 'NONE',  ( 1.404618771449245766E-33, 0.0000000000000000000, 1.146958267826442798E-17 ) ) ;
#249 = CONICAL_SURFACE ( 'NONE', #168, 0.09365624999999999645, 0.1745329251994338915 ) ;
#250 = EDGE_CURVE ( 'NONE', #115, #116, #84, .T. ) ;
#251 = EDGE_CURVE ( 'NONE', #233, #158, #124, .T. ) ;
#252 = SURFACE_STYLE_FILL_AREA ( #91 ) ;
#253 = ORIENTED_EDGE ( 'NONE', *, *, #86, .T. ) ;
#254 = UNCERTAINTY_MEASURE_WITH_UNIT (LENGTH_MEASURE( 1.000000000000000082E-05 ), #177, 'distance_accuracy_value', 'NONE');
#255 = ORIENTED_EDGE ( 'NONE', *, *, #18, .F. ) ;
#256 = AXIS2_PLACEMENT_3D ( 'NONE', #271, #220, #196 ) ;
#257 = CARTESIAN_POINT ( 'NONE',  ( 0.0000000000000000000, 0.0000000000000000000, 0.0000000000000000000 ) ) ;
#258 = ORIENTED_EDGE ( 'NONE', *, *, #89, .T. ) ;
#259 = EDGE_LOOP ( 'NONE', ( #25, #230, #44, #73 ) ) ;
#260 = DIRECTION ( 'NONE',  ( -1.000000000000000000, 0.0000000000000000000, 0.0000000000000000000 ) ) ;
#261 = CIRCLE ( 'NONE', #50, 0.1099999999999996397 ) ;
#262 = EDGE_CURVE ( 'NONE', #135, #199, #285, .T. ) ;
#263 = DIRECTION ( 'NONE',  ( -1.224646799147353207E-16, -0.0000000000000000000, -1.000000000000000000 ) ) ;
#264 = CARTESIAN_POINT ( 'NONE',  ( 0.0000000000000000000, 0.0000000000000000000, 0.0000000000000000000 ) ) ;
#265 = DIRECTION ( 'NONE',  ( -1.224646799147353207E-16, -0.0000000000000000000, -1.000000000000000000 ) ) ;
#266 = DIMENSIONAL_EXPONENTS ( 1.000000000000000000, 0.0000000000000000000, 0.0000000000000000000, 0.0000000000000000000, 0.0000000000000000000, 0.0000000000000000000, 0.0000000000000000000 ) ;
#267 = CONICAL_SURFACE ( 'NONE', #150, 0.1099999999999996397, 0.7853981633974426169 ) ;
#268 = AXIS2_PLACEMENT_3D ( 'NONE', #240, #32, #188 ) ;
#269 = CARTESIAN_POINT ( 'NONE',  ( 0.09365625000000006584, 0.0000000000000000000, 0.6250000000000000000 ) ) ;
#270 = DIRECTION ( 'NONE',  ( 0.0000000000000000000, 0.0000000000000000000, 1.000000000000000000 ) ) ;
#271 = CARTESIAN_POINT ( 'NONE',  ( 9.830965331808376686E-17, 0.0000000000000000000, 0.8027592395336416997 ) ) ;
#272 = MECHANICAL_DESIGN_GEOMETRIC_PRESENTATION_REPRESENTATION (  '', ( #65 ), #161 ) ;
#273 = DIRECTION ( 'NONE',  ( -0.0000000000000000000, -0.0000000000000000000, -1.000000000000000000 ) ) ;
#274 = DIRECTION ( 'NONE',  ( 0.0000000000000000000, 0.0000000000000000000, -1.000000000000000000 ) ) ;
#275 = ORIENTED_EDGE ( 'NONE', *, *, #262, .T. ) ;
#276 = UNCERTAINTY_MEASURE_WITH_UNIT (LENGTH_MEASURE( 1.000000000000000082E-05 ), #81, 'distance_accuracy_value', 'NONE');
#277 = ORIENTED_EDGE ( 'NONE', *, *, #57, .T. ) ;
#278 = SURFACE_STYLE_USAGE ( .BOTH. , #224 ) ;
#279 = ORIENTED_EDGE ( 'NONE', *, *, #119, .F. ) ;
#280 = ORIENTED_EDGE ( 'NONE', *, *, #169, .F. ) ;
#281 = ORIENTED_EDGE ( 'NONE', *, *, #170, .F. ) ;
#282 = DIRECTION ( 'NONE',  ( 0.0000000000000000000, 0.0000000000000000000, -1.000000000000000000 ) ) ;
#283 = CARTESIAN_POINT ( 'NONE',  ( 7.654042494670957853E-17, 0.0000000000000000000, 0.6250000000000000000 ) ) ;
#284 = AXIS2_PLACEMENT_3D ( 'NONE', #54, #145, #12 ) ;
#285 = CIRCLE ( 'NONE', #222, 0.09365624999999999645 ) ;
#286 = DIRECTION ( 'NONE',  ( -1.224646799147353207E-16, -0.0000000000000000000, -1.000000000000000000 ) ) ;
#287 = DIRECTION ( 'NONE',  ( -0.1736481776669311916, 2.126576849575783316E-17, 0.9848077530122080203 ) ) ;
#288 = DIRECTION ( 'NONE',  ( 0.7071067811865434649, 8.659560562354883554E-17, -0.7071067811865515695 ) ) ;
#289 = VECTOR ( 'NONE', #146, 39.37007874015748143 ) ;
#290 = CYLINDRICAL_SURFACE ( 'NONE', #133, 0.1250000000000000000 ) ;
#291 = ADVANCED_FACE ( 'NONE', ( #223 ), #226, .T. ) ;
#292 = DIRECTION ( 'NONE',  ( 1.000000000000000000, 0.0000000000000000000, 0.0000000000000000000 ) ) ;
#293 = CLOSED_SHELL ( 'NONE', ( #77, #184, #17, #137, #58, #291, #53, #8, #104, #67 ) ) ;
#294 = LINE ( 'NONE', #173, #245 ) ;
#295 = CARTESIAN_POINT ( 'NONE',  ( 0.0000000000000000000, 0.0000000000000000000, 2.000000000000000000 ) ) ;
#296 =( NAMED_UNIT ( * ) SI_UNIT ( $, .STERADIAN. ) SOLID_ANGLE_UNIT ( ) );
#297 = ORIENTED_EDGE ( 'NONE', *, *, #18, .T. ) ;
#298 = AXIS2_PLACEMENT_3D ( 'NONE', #264, #143, #236 ) ;
#299 = UNCERTAINTY_MEASURE_WITH_UNIT (LENGTH_MEASURE( 1.000000000000000082E-05 ), #109, 'distance_accuracy_value', 'NONE');
ENDSEC;
END-ISO-10303-21;
