ISO-10303-21;
HEADER;
FILE_DESCRIPTION (( 'STEP AP214' ),
    '1' );
FILE_NAME ('03360.STEP',
    '2023-06-22T15:12:36',
    ( '' ),
    ( '' ),
    'SwSTEP 2.0',
    'SolidWorks 2023',
    '' );
FILE_SCHEMA (( 'AUTOMOTIVE_DESIGN' ));
ENDSEC;

DATA;
#1 =( NAMED_UNIT ( * ) SI_UNIT ( $, .STERADIAN. ) SOLID_ANGLE_UNIT ( ) );
#2 = PRESENTATION_LAYER_ASSIGNMENT (  '', '', ( #297 ) ) ;
#3 = DIRECTION ( 'NONE',  ( 0.000000000000000000, -1.000000000000000000, -0.000000000000000000 ) ) ;
#4 = CARTESIAN_POINT ( 'NONE',  ( -0.1875000000000001388, 3.500000000000000000, 0.000000000000000000 ) ) ;
#5 = ADVANCED_BREP_SHAPE_REPRESENTATION ( '03360', ( #122, #213, #16 ), #245 ) ;
#6 = DIRECTION ( 'NONE',  ( -2.721437331438560697E-17, 1.000000000000000000, -0.000000000000000000 ) ) ;
#7 = CIRCLE ( 'NONE', #179, 0.1875000000000000278 ) ;
#8 =( NAMED_UNIT ( * ) PLANE_ANGLE_UNIT ( ) SI_UNIT ( $, .RADIAN. ) );
#9 =( LENGTH_UNIT ( ) NAMED_UNIT ( * ) SI_UNIT ( $, .METRE. ) );
#10 = LENGTH_MEASURE_WITH_UNIT ( LENGTH_MEASURE( 0.02539999999999999897 ), #121 );
#11 = SURFACE_STYLE_USAGE ( .BOTH. , #119 ) ;
#12 = ADVANCED_FACE ( 'NONE', ( #19 ), #48, .T. ) ;
#13 = ORIENTED_EDGE ( 'NONE', *, *, #159, .F. ) ;
#14 = APPLICATION_PROTOCOL_DEFINITION ( 'draft international standard', 'automotive_design', 1998, #49 ) ;
#15 = ORIENTED_EDGE ( 'NONE', *, *, #173, .F. ) ;
#16 = AXIS2_PLACEMENT_3D ( 'NONE', #158, #224, #251 ) ;
#17 = PRODUCT_CONTEXT ( 'NONE', #49, 'mechanical' ) ;
#18 = SURFACE_STYLE_FILL_AREA ( #116 ) ;
#19 = FACE_OUTER_BOUND ( 'NONE', #197, .T. ) ;
#20 =( LENGTH_UNIT ( ) NAMED_UNIT ( * ) SI_UNIT ( $, .METRE. ) );
#21 = VERTEX_POINT ( 'NONE', #309 ) ;
#22 = PRESENTATION_STYLE_ASSIGNMENT (( #209 ) ) ;
#23 =( GEOMETRIC_REPRESENTATION_CONTEXT ( 3 ) GLOBAL_UNCERTAINTY_ASSIGNED_CONTEXT ( ( #236 ) ) GLOBAL_UNIT_ASSIGNED_CONTEXT ( ( #56, #125, #1 ) ) REPRESENTATION_CONTEXT ( 'NONE', 'WORKASPACE' ) );
#24 =( LENGTH_UNIT ( ) NAMED_UNIT ( * ) SI_UNIT ( $, .METRE. ) );
#25 = PLANE ( 'NONE',  #190 ) ;
#26 = SURFACE_SIDE_STYLE ('',( #77 ) ) ;
#27 = VECTOR ( 'NONE', #6, 39.37007874015748143 ) ;
#28 = CARTESIAN_POINT ( 'NONE',  ( 0.000000000000000000, 0.000000000000000000, 0.000000000000000000 ) ) ;
#29 = DIRECTION ( 'NONE',  ( 0.000000000000000000, 1.000000000000000000, 0.000000000000000000 ) ) ;
#30 = LENGTH_MEASURE_WITH_UNIT ( LENGTH_MEASURE( 0.02539999999999999897 ), #152 );
#31 = CARTESIAN_POINT ( 'NONE',  ( 0.1874999999999999722, 3.500000000000000000, 2.296212748401288034E-17 ) ) ;
#32 =( NAMED_UNIT ( * ) PLANE_ANGLE_UNIT ( ) SI_UNIT ( $, .RADIAN. ) );
#33 = STYLED_ITEM ( 'NONE', ( #22 ), #35 ) ;
#34 = PLANE ( 'NONE',  #131 ) ;
#35 = ADVANCED_FACE ( 'NONE', ( #167 ), #25, .T. ) ;
#36 = FILL_AREA_STYLE_COLOUR ( '', #257 ) ;
#37 = ORIENTED_EDGE ( 'NONE', *, *, #192, .T. ) ;
#38 = CIRCLE ( 'NONE', #81, 0.1875000000000000278 ) ;
#39 = DIRECTION ( 'NONE',  ( -1.000000000000000000, -2.721437331438560697E-17, 0.000000000000000000 ) ) ;
#40 = CARTESIAN_POINT ( 'NONE',  ( -6.123233995736759873E-17, 3.500000000000000000, 0.000000000000000000 ) ) ;
#41 = EDGE_LOOP ( 'NONE', ( #92, #181 ) ) ;
#42 = ORIENTED_EDGE ( 'NONE', *, *, #289, .T. ) ;
#43 = PRODUCT_DEFINITION_SHAPE ( 'NONE', 'NONE',  #84 ) ;
#44 = CARTESIAN_POINT ( 'NONE',  ( -6.123233995736759873E-17, 3.500000000000000000, 0.000000000000000000 ) ) ;
#45 = ORIENTED_EDGE ( 'NONE', *, *, #159, .T. ) ;
#46 = VECTOR ( 'NONE', #163, 39.37007874015748143 ) ;
#47 = PRESENTATION_STYLE_ASSIGNMENT (( #262 ) ) ;
#48 = PLANE ( 'NONE',  #205 ) ;
#49 = APPLICATION_CONTEXT ( 'automotive_design' ) ;
#50 = SURFACE_STYLE_USAGE ( .BOTH. , #284 ) ;
#51 = DIRECTION ( 'NONE',  ( -0.000000000000000000, -1.000000000000000000, -0.000000000000000000 ) ) ;
#52 = PRODUCT_DEFINITION_CONTEXT ( 'detailed design', #85, 'design' ) ;
#53 = AXIS2_PLACEMENT_3D ( 'NONE', #28, #128, #215 ) ;
#54 =( LENGTH_UNIT ( ) NAMED_UNIT ( * ) SI_UNIT ( $, .METRE. ) );
#55 = DIRECTION ( 'NONE',  ( 1.000000000000000000, 2.721437331438560697E-17, 0.000000000000000000 ) ) ;
#56 =( CONVERSION_BASED_UNIT ( 'INCH', #103 ) LENGTH_UNIT ( ) NAMED_UNIT ( #252 ) );
#57 =( NAMED_UNIT ( * ) SI_UNIT ( $, .STERADIAN. ) SOLID_ANGLE_UNIT ( ) );
#58 =( NAMED_UNIT ( * ) SI_UNIT ( $, .STERADIAN. ) SOLID_ANGLE_UNIT ( ) );
#59 = FACE_OUTER_BOUND ( 'NONE', #41, .T. ) ;
#60 = COLOUR_RGB ( '',1.000000000000000000, 0.000000000000000000, 0.000000000000000000 ) ;
#61 = PRODUCT_RELATED_PRODUCT_CATEGORY ( 'part', '', ( #94 ) ) ;
#62 = LENGTH_MEASURE_WITH_UNIT ( LENGTH_MEASURE( 0.02539999999999999897 ), #300 );
#63 = DIRECTION ( 'NONE',  ( 0.000000000000000000, 0.000000000000000000, -1.000000000000000000 ) ) ;
#64 = LENGTH_MEASURE_WITH_UNIT ( LENGTH_MEASURE( 0.02539999999999999897 ), #9 );
#65 = ORIENTED_EDGE ( 'NONE', *, *, #214, .F. ) ;
#66 = CIRCLE ( 'NONE', #105, 0.1875000000000000833 ) ;
#67 = CYLINDRICAL_SURFACE ( 'NONE', #247, 0.1875000000000000555 ) ;
#68 = ORIENTED_EDGE ( 'NONE', *, *, #242, .T. ) ;
#69 = DIRECTION ( 'NONE',  ( -1.000000000000000000, 0.000000000000000000, 0.000000000000000000 ) ) ;
#70 = SURFACE_SIDE_STYLE ('',( #308 ) ) ;
#71 = CLOSED_SHELL ( 'NONE', ( #146, #304, #208, #266 ) ) ;
#72 = DIMENSIONAL_EXPONENTS ( 1.000000000000000000, 0.000000000000000000, 0.000000000000000000, 0.000000000000000000, 0.000000000000000000, 0.000000000000000000, 0.000000000000000000 ) ;
#73 = PRESENTATION_STYLE_ASSIGNMENT (( #50 ) ) ;
#74 = FILL_AREA_STYLE ('',( #285 ) ) ;
#75 = MECHANICAL_DESIGN_GEOMETRIC_PRESENTATION_REPRESENTATION (  '', ( #303 ), #191 ) ;
#76 = LINE ( 'NONE', #126, #244 ) ;
#77 = SURFACE_STYLE_FILL_AREA ( #74 ) ;
#78 = UNCERTAINTY_MEASURE_WITH_UNIT (LENGTH_MEASURE( 1.000000000000000082E-05 ), #112, 'distance_accuracy_value', 'NONE');
#79 =( CONVERSION_BASED_UNIT ( 'INCH', #149 ) LENGTH_UNIT ( ) NAMED_UNIT ( #203 ) );
#80 = LENGTH_MEASURE_WITH_UNIT ( LENGTH_MEASURE( 0.02539999999999999897 ), #24 );
#81 = AXIS2_PLACEMENT_3D ( 'NONE', #180, #258, #220 ) ;
#82 = PRESENTATION_STYLE_ASSIGNMENT (( #271 ) ) ;
#83 = EDGE_LOOP ( 'NONE', ( #37, #279, #65, #255 ) ) ;
#84 = PRODUCT_DEFINITION ( 'UNKNOWN', '', #287, #52 ) ;
#85 = APPLICATION_CONTEXT ( 'automotive_design' ) ;
#86 = LINE ( 'NONE', #31, #27 ) ;
#87 = MECHANICAL_DESIGN_GEOMETRIC_PRESENTATION_REPRESENTATION (  '', ( #297 ), #127 ) ;
#88 = FACE_OUTER_BOUND ( 'NONE', #281, .T. ) ;
#89 = CARTESIAN_POINT ( 'NONE',  ( 0.000000000000000000, 0.000000000000000000, 0.000000000000000000 ) ) ;
#90 = DIRECTION ( 'NONE',  ( -1.000000000000000000, 0.000000000000000000, 0.000000000000000000 ) ) ;
#91 = VECTOR ( 'NONE', #51, 39.37007874015748143 ) ;
#92 = ORIENTED_EDGE ( 'NONE', *, *, #214, .T. ) ;
#93 =( NAMED_UNIT ( * ) PLANE_ANGLE_UNIT ( ) SI_UNIT ( $, .RADIAN. ) );
#94 = PRODUCT ( '03360', '03360', '', ( #17 ) ) ;
#95 = VERTEX_POINT ( 'NONE', #187 ) ;
#96 = DIMENSIONAL_EXPONENTS ( 1.000000000000000000, 0.000000000000000000, 0.000000000000000000, 0.000000000000000000, 0.000000000000000000, 0.000000000000000000, 0.000000000000000000 ) ;
#97 = SURFACE_STYLE_USAGE ( .BOTH. , #70 ) ;
#98 =( GEOMETRIC_REPRESENTATION_CONTEXT ( 3 ) GLOBAL_UNCERTAINTY_ASSIGNED_CONTEXT ( ( #216 ) ) GLOBAL_UNIT_ASSIGNED_CONTEXT ( ( #299, #263, #290 ) ) REPRESENTATION_CONTEXT ( 'NONE', 'WORKASPACE' ) );
#99 =( GEOMETRIC_REPRESENTATION_CONTEXT ( 3 ) GLOBAL_UNCERTAINTY_ASSIGNED_CONTEXT ( ( #256 ) ) GLOBAL_UNIT_ASSIGNED_CONTEXT ( ( #130, #104, #171 ) ) REPRESENTATION_CONTEXT ( 'NONE', 'WORKASPACE' ) );
#100 = SURFACE_SIDE_STYLE ('',( #188 ) ) ;
#101 = LINE ( 'NONE', #288, #91 ) ;
#102 = AXIS2_PLACEMENT_3D ( 'NONE', #273, #298, #193 ) ;
#103 = LENGTH_MEASURE_WITH_UNIT ( LENGTH_MEASURE( 0.02539999999999999897 ), #54 );
#104 =( NAMED_UNIT ( * ) PLANE_ANGLE_UNIT ( ) SI_UNIT ( $, .RADIAN. ) );
#105 = AXIS2_PLACEMENT_3D ( 'NONE', #44, #305, #200 ) ;
#106 = EDGE_CURVE ( 'NONE', #95, #270, #101, .T. ) ;
#107 = CARTESIAN_POINT ( 'NONE',  ( 0.000000000000000000, 0.000000000000000000, 0.000000000000000000 ) ) ;
#108 =( CONVERSION_BASED_UNIT ( 'INCH', #80 ) LENGTH_UNIT ( ) NAMED_UNIT ( #260 ) );
#109 = PRESENTATION_LAYER_ASSIGNMENT (  '', '', ( #243 ) ) ;
#110 = AXIS2_PLACEMENT_3D ( 'NONE', #107, #294, #217 ) ;
#111 = LINE ( 'NONE', #194, #46 ) ;
#112 =( CONVERSION_BASED_UNIT ( 'INCH', #64 ) LENGTH_UNIT ( ) NAMED_UNIT ( #72 ) );
#113 = ORIENTED_EDGE ( 'NONE', *, *, #293, .T. ) ;
#114 = DIRECTION ( 'NONE',  ( -0.000000000000000000, -1.000000000000000000, -0.000000000000000000 ) ) ;
#115 = APPLICATION_PROTOCOL_DEFINITION ( 'draft international standard', 'automotive_design', 1998, #85 ) ;
#116 = FILL_AREA_STYLE ('',( #156 ) ) ;
#117 = ORIENTED_EDGE ( 'NONE', *, *, #106, .F. ) ;
#118 = EDGE_CURVE ( 'NONE', #138, #306, #76, .T. ) ;
#119 = SURFACE_SIDE_STYLE ('',( #18 ) ) ;
#120 = FILL_AREA_STYLE_COLOUR ( '', #218 ) ;
#121 =( LENGTH_UNIT ( ) NAMED_UNIT ( * ) SI_UNIT ( $, .METRE. ) );
#122 = MANIFOLD_SOLID_BREP ( 'Revolve - Cutting Edge', #178 ) ;
#123 = UNCERTAINTY_MEASURE_WITH_UNIT (LENGTH_MEASURE( 1.000000000000000082E-05 ), #108, 'distance_accuracy_value', 'NONE');
#124 = CIRCLE ( 'NONE', #145, 0.1875000000000000278 ) ;
#125 =( NAMED_UNIT ( * ) PLANE_ANGLE_UNIT ( ) SI_UNIT ( $, .RADIAN. ) );
#126 = CARTESIAN_POINT ( 'NONE',  ( 0.000000000000000000, 0.000000000000000000, -0.1875000000000000278 ) ) ;
#127 =( GEOMETRIC_REPRESENTATION_CONTEXT ( 3 ) GLOBAL_UNCERTAINTY_ASSIGNED_CONTEXT ( ( #165 ) ) GLOBAL_UNIT_ASSIGNED_CONTEXT ( ( #79, #32, #57 ) ) REPRESENTATION_CONTEXT ( 'NONE', 'WORKASPACE' ) );
#128 = DIRECTION ( 'NONE',  ( -0.000000000000000000, -1.000000000000000000, -0.000000000000000000 ) ) ;
#129 = SURFACE_STYLE_FILL_AREA ( #168 ) ;
#130 =( CONVERSION_BASED_UNIT ( 'INCH', #30 ) LENGTH_UNIT ( ) NAMED_UNIT ( #96 ) );
#131 = AXIS2_PLACEMENT_3D ( 'NONE', #132, #240, #55 ) ;
#132 = CARTESIAN_POINT ( 'NONE',  ( 0.1875000000000000278, 3.500000000000000000, 0.000000000000000000 ) ) ;
#133 = MECHANICAL_DESIGN_GEOMETRIC_PRESENTATION_REPRESENTATION (  '', ( #33 ), #23 ) ;
#134 = AXIS2_PLACEMENT_3D ( 'NONE', #253, #228, #90 ) ;
#135 = FILL_AREA_STYLE ('',( #36 ) ) ;
#136 = EDGE_LOOP ( 'NONE', ( #117, #140, #226, #229 ) ) ;
#137 = DIRECTION ( 'NONE',  ( -1.000000000000000000, 0.000000000000000000, 0.000000000000000000 ) ) ;
#138 = VERTEX_POINT ( 'NONE', #295 ) ;
#139 = ADVANCED_FACE ( 'NONE', ( #88 ), #233, .T. ) ;
#140 = ORIENTED_EDGE ( 'NONE', *, *, #235, .T. ) ;
#141 = FACE_OUTER_BOUND ( 'NONE', #302, .T. ) ;
#142 = COLOUR_RGB ( '',0.7921568627450980005, 0.8196078431372548767, 0.9333333333333333481 ) ;
#143 = FILL_AREA_STYLE ('',( #120 ) ) ;
#144 = DIMENSIONAL_EXPONENTS ( 1.000000000000000000, 0.000000000000000000, 0.000000000000000000, 0.000000000000000000, 0.000000000000000000, 0.000000000000000000, 0.000000000000000000 ) ;
#145 = AXIS2_PLACEMENT_3D ( 'NONE', #89, #175, #63 ) ;
#146 = ADVANCED_FACE ( 'NONE', ( #301 ), #160, .T. ) ;
#147 = CARTESIAN_POINT ( 'NONE',  ( 0.000000000000000000, 1.250000000000000000, 0.000000000000000000 ) ) ;
#148 = AXIS2_PLACEMENT_3D ( 'NONE', #291, #239, #39 ) ;
#149 = LENGTH_MEASURE_WITH_UNIT ( LENGTH_MEASURE( 0.02539999999999999897 ), #20 );
#150 = SURFACE_STYLE_FILL_AREA ( #241 ) ;
#151 = CIRCLE ( 'NONE', #53, 0.1875000000000000278 ) ;
#152 =( LENGTH_UNIT ( ) NAMED_UNIT ( * ) SI_UNIT ( $, .METRE. ) );
#153 = CARTESIAN_POINT ( 'NONE',  ( 0.000000000000000000, 0.000000000000000000, -0.1875000000000000278 ) ) ;
#154 = FACE_OUTER_BOUND ( 'NONE', #136, .T. ) ;
#155 = PRESENTATION_LAYER_ASSIGNMENT (  '', '', ( #186 ) ) ;
#156 = FILL_AREA_STYLE_COLOUR ( '', #142 ) ;
#157 = VERTEX_POINT ( 'NONE', #222 ) ;
#158 = CARTESIAN_POINT ( 'NONE',  ( 0.000000000000000000, 0.000000000000000000, 0.000000000000000000 ) ) ;
#159 = EDGE_CURVE ( 'NONE', #138, #95, #286, .T. ) ;
#160 = CYLINDRICAL_SURFACE ( 'NONE', #134, 0.1875000000000000555 ) ;
#161 = EDGE_LOOP ( 'NONE', ( #13, #177 ) ) ;
#162 = CARTESIAN_POINT ( 'NONE',  ( 0.000000000000000000, 0.000000000000000000, 0.000000000000000000 ) ) ;
#163 = DIRECTION ( 'NONE',  ( -2.721437331438560697E-17, 1.000000000000000000, -0.000000000000000000 ) ) ;
#164 = AXIS2_PLACEMENT_3D ( 'NONE', #162, #114, #307 ) ;
#165 = UNCERTAINTY_MEASURE_WITH_UNIT (LENGTH_MEASURE( 1.000000000000000082E-05 ), #79, 'distance_accuracy_value', 'NONE');
#166 = CARTESIAN_POINT ( 'NONE',  ( 0.000000000000000000, 0.000000000000000000, 0.000000000000000000 ) ) ;
#167 = FACE_OUTER_BOUND ( 'NONE', #161, .T. ) ;
#168 = FILL_AREA_STYLE ('',( #211 ) ) ;
#169 = PLANE ( 'NONE',  #148 ) ;
#170 = MECHANICAL_DESIGN_GEOMETRIC_PRESENTATION_REPRESENTATION (  '', ( #206 ), #238 ) ;
#171 =( NAMED_UNIT ( * ) SI_UNIT ( $, .STERADIAN. ) SOLID_ANGLE_UNIT ( ) );
#172 = ORIENTED_EDGE ( 'NONE', *, *, #293, .F. ) ;
#173 = EDGE_CURVE ( 'NONE', #157, #277, #66, .T. ) ;
#174 = SURFACE_SIDE_STYLE ('',( #150 ) ) ;
#175 = DIRECTION ( 'NONE',  ( -0.000000000000000000, -1.000000000000000000, -0.000000000000000000 ) ) ;
#176 = DIRECTION ( 'NONE',  ( -2.721437331438560389E-17, 1.000000000000000000, -0.000000000000000000 ) ) ;
#177 = ORIENTED_EDGE ( 'NONE', *, *, #235, .F. ) ;
#178 = CLOSED_SHELL ( 'NONE', ( #139, #35, #254, #12 ) ) ;
#179 = AXIS2_PLACEMENT_3D ( 'NONE', #147, #264, #237 ) ;
#180 = CARTESIAN_POINT ( 'NONE',  ( 0.000000000000000000, 1.250000000000000000, 0.000000000000000000 ) ) ;
#181 = ORIENTED_EDGE ( 'NONE', *, *, #173, .T. ) ;
#182 = PRESENTATION_STYLE_ASSIGNMENT (( #11 ) ) ;
#183 = ORIENTED_EDGE ( 'NONE', *, *, #289, .F. ) ;
#184 = CARTESIAN_POINT ( 'NONE',  ( -6.123233995736759873E-17, 3.500000000000000000, 0.000000000000000000 ) ) ;
#185 = VERTEX_POINT ( 'NONE', #196 ) ;
#186 = STYLED_ITEM ( 'NONE', ( #82 ), #139 ) ;
#187 = CARTESIAN_POINT ( 'NONE',  ( 2.296212748401287726E-17, 1.250000000000000000, 0.1875000000000000278 ) ) ;
#188 = SURFACE_STYLE_FILL_AREA ( #135 ) ;
#189 = FACE_OUTER_BOUND ( 'NONE', #223, .T. ) ;
#190 = AXIS2_PLACEMENT_3D ( 'NONE', #234, #29, #207 ) ;
#191 =( GEOMETRIC_REPRESENTATION_CONTEXT ( 3 ) GLOBAL_UNCERTAINTY_ASSIGNED_CONTEXT ( ( #123 ) ) GLOBAL_UNIT_ASSIGNED_CONTEXT ( ( #108, #8, #58 ) ) REPRESENTATION_CONTEXT ( 'NONE', 'WORKASPACE' ) );
#192 = EDGE_CURVE ( 'NONE', #21, #185, #283, .T. ) ;
#193 = DIRECTION ( 'NONE',  ( 0.000000000000000000, 0.000000000000000000, -1.000000000000000000 ) ) ;
#194 = CARTESIAN_POINT ( 'NONE',  ( -0.1875000000000001110, 3.500000000000000000, 0.000000000000000000 ) ) ;
#195 = PRESENTATION_STYLE_ASSIGNMENT (( #97 ) ) ;
#196 = CARTESIAN_POINT ( 'NONE',  ( 0.1875000000000000278, 1.250000000000000000, 2.296212748401288342E-17 ) ) ;
#197 = EDGE_LOOP ( 'NONE', ( #113, #68 ) ) ;
#198 = SHAPE_DEFINITION_REPRESENTATION ( #43, #5 ) ;
#199 = PRESENTATION_LAYER_ASSIGNMENT (  '', '', ( #303 ) ) ;
#200 = DIRECTION ( 'NONE',  ( -1.000000000000000000, 0.000000000000000000, 0.000000000000000000 ) ) ;
#201 = ORIENTED_EDGE ( 'NONE', *, *, #106, .T. ) ;
#202 = CARTESIAN_POINT ( 'NONE',  ( 0.000000000000000000, 1.250000000000000000, 0.000000000000000000 ) ) ;
#203 = DIMENSIONAL_EXPONENTS ( 1.000000000000000000, 0.000000000000000000, 0.000000000000000000, 0.000000000000000000, 0.000000000000000000, 0.000000000000000000, 0.000000000000000000 ) ;
#204 = ORIENTED_EDGE ( 'NONE', *, *, #231, .T. ) ;
#205 = AXIS2_PLACEMENT_3D ( 'NONE', #166, #3, #265 ) ;
#206 = STYLED_ITEM ( 'NONE', ( #182 ), #213 ) ;
#207 = DIRECTION ( 'NONE',  ( 0.000000000000000000, -0.000000000000000000, 1.000000000000000000 ) ) ;
#208 = ADVANCED_FACE ( 'NONE', ( #141 ), #67, .T. ) ;
#209 = SURFACE_STYLE_USAGE ( .BOTH. , #26 ) ;
#210 = UNCERTAINTY_MEASURE_WITH_UNIT (LENGTH_MEASURE( 1.000000000000000082E-05 ), #272, 'distance_accuracy_value', 'NONE');
#211 = FILL_AREA_STYLE_COLOUR ( '', #261 ) ;
#212 = CIRCLE ( 'NONE', #232, 0.1875000000000000833 ) ;
#213 = MANIFOLD_SOLID_BREP ( 'Revolve - Tool Body (Straight Shanked)', #71 ) ;
#214 = EDGE_CURVE ( 'NONE', #277, #157, #212, .T. ) ;
#215 = DIRECTION ( 'NONE',  ( 0.000000000000000000, 0.000000000000000000, -1.000000000000000000 ) ) ;
#216 = UNCERTAINTY_MEASURE_WITH_UNIT (LENGTH_MEASURE( 1.000000000000000082E-05 ), #299, 'distance_accuracy_value', 'NONE');
#217 = DIRECTION ( 'NONE',  ( 0.000000000000000000, 0.000000000000000000, -1.000000000000000000 ) ) ;
#218 = COLOUR_RGB ( '',1.000000000000000000, 0.000000000000000000, 0.000000000000000000 ) ;
#219 =( NAMED_UNIT ( * ) PLANE_ANGLE_UNIT ( ) SI_UNIT ( $, .RADIAN. ) );
#220 = DIRECTION ( 'NONE',  ( 0.000000000000000000, 0.000000000000000000, -1.000000000000000000 ) ) ;
#221 = PRESENTATION_LAYER_ASSIGNMENT (  '', '', ( #206 ) ) ;
#222 = CARTESIAN_POINT ( 'NONE',  ( 0.1875000000000000278, 3.500000000000000000, 2.296212748401288342E-17 ) ) ;
#223 = EDGE_LOOP ( 'NONE', ( #274, #183 ) ) ;
#224 = DIRECTION ( 'NONE',  ( 0.000000000000000000, 0.000000000000000000, 1.000000000000000000 ) ) ;
#225 =( NAMED_UNIT ( * ) SI_UNIT ( $, .STERADIAN. ) SOLID_ANGLE_UNIT ( ) );
#226 = ORIENTED_EDGE ( 'NONE', *, *, #118, .T. ) ;
#227 = DIMENSIONAL_EXPONENTS ( 1.000000000000000000, 0.000000000000000000, 0.000000000000000000, 0.000000000000000000, 0.000000000000000000, 0.000000000000000000, 0.000000000000000000 ) ;
#228 = DIRECTION ( 'NONE',  ( -2.721437331438560389E-17, 1.000000000000000000, -0.000000000000000000 ) ) ;
#229 = ORIENTED_EDGE ( 'NONE', *, *, #242, .F. ) ;
#230 = COLOUR_RGB ( '',1.000000000000000000, 0.000000000000000000, 0.000000000000000000 ) ;
#231 = EDGE_CURVE ( 'NONE', #21, #277, #111, .T. ) ;
#232 = AXIS2_PLACEMENT_3D ( 'NONE', #184, #280, #69 ) ;
#233 = CYLINDRICAL_SURFACE ( 'NONE', #164, 0.1875000000000000278 ) ;
#234 = CARTESIAN_POINT ( 'NONE',  ( 0.000000000000000000, 1.250000000000000000, 0.000000000000000000 ) ) ;
#235 = EDGE_CURVE ( 'NONE', #95, #138, #38, .T. ) ;
#236 = UNCERTAINTY_MEASURE_WITH_UNIT (LENGTH_MEASURE( 1.000000000000000082E-05 ), #56, 'distance_accuracy_value', 'NONE');
#237 = DIRECTION ( 'NONE',  ( -1.000000000000000000, 0.000000000000000000, 0.000000000000000000 ) ) ;
#238 =( GEOMETRIC_REPRESENTATION_CONTEXT ( 3 ) GLOBAL_UNCERTAINTY_ASSIGNED_CONTEXT ( ( #78 ) ) GLOBAL_UNIT_ASSIGNED_CONTEXT ( ( #112, #93, #225 ) ) REPRESENTATION_CONTEXT ( 'NONE', 'WORKASPACE' ) );
#239 = DIRECTION ( 'NONE',  ( -2.721437331438560697E-17, 1.000000000000000000, 0.000000000000000000 ) ) ;
#240 = DIRECTION ( 'NONE',  ( 2.721437331438560697E-17, -1.000000000000000000, 0.000000000000000000 ) ) ;
#241 = FILL_AREA_STYLE ('',( #267 ) ) ;
#242 = EDGE_CURVE ( 'NONE', #270, #306, #124, .T. ) ;
#243 = STYLED_ITEM ( 'NONE', ( #195 ), #12 ) ;
#244 = VECTOR ( 'NONE', #259, 39.37007874015748143 ) ;
#245 =( GEOMETRIC_REPRESENTATION_CONTEXT ( 3 ) GLOBAL_UNCERTAINTY_ASSIGNED_CONTEXT ( ( #210 ) ) GLOBAL_UNIT_ASSIGNED_CONTEXT ( ( #272, #219, #276 ) ) REPRESENTATION_CONTEXT ( 'NONE', 'WORKASPACE' ) );
#246 = CYLINDRICAL_SURFACE ( 'NONE', #110, 0.1875000000000000278 ) ;
#247 = AXIS2_PLACEMENT_3D ( 'NONE', #40, #176, #137 ) ;
#248 = DIRECTION ( 'NONE',  ( -1.000000000000000000, 0.000000000000000000, 0.000000000000000000 ) ) ;
#249 = ORIENTED_EDGE ( 'NONE', *, *, #269, .F. ) ;
#250 = ORIENTED_EDGE ( 'NONE', *, *, #118, .F. ) ;
#251 = DIRECTION ( 'NONE',  ( 1.000000000000000000, 0.000000000000000000, 0.000000000000000000 ) ) ;
#252 = DIMENSIONAL_EXPONENTS ( 1.000000000000000000, 0.000000000000000000, 0.000000000000000000, 0.000000000000000000, 0.000000000000000000, 0.000000000000000000, 0.000000000000000000 ) ;
#253 = CARTESIAN_POINT ( 'NONE',  ( -6.123233995736759873E-17, 3.500000000000000000, 0.000000000000000000 ) ) ;
#254 = ADVANCED_FACE ( 'NONE', ( #154 ), #246, .T. ) ;
#255 = ORIENTED_EDGE ( 'NONE', *, *, #231, .F. ) ;
#256 = UNCERTAINTY_MEASURE_WITH_UNIT (LENGTH_MEASURE( 1.000000000000000082E-05 ), #130, 'distance_accuracy_value', 'NONE');
#257 = COLOUR_RGB ( '',1.000000000000000000, 0.000000000000000000, 0.000000000000000000 ) ;
#258 = DIRECTION ( 'NONE',  ( -0.000000000000000000, -1.000000000000000000, -0.000000000000000000 ) ) ;
#259 = DIRECTION ( 'NONE',  ( -0.000000000000000000, -1.000000000000000000, -0.000000000000000000 ) ) ;
#260 = DIMENSIONAL_EXPONENTS ( 1.000000000000000000, 0.000000000000000000, 0.000000000000000000, 0.000000000000000000, 0.000000000000000000, 0.000000000000000000, 0.000000000000000000 ) ;
#261 = COLOUR_RGB ( '',0.7921568627450980005, 0.8196078431372548767, 0.9333333333333333481 ) ;
#262 = SURFACE_STYLE_USAGE ( .BOTH. , #100 ) ;
#263 =( NAMED_UNIT ( * ) PLANE_ANGLE_UNIT ( ) SI_UNIT ( $, .RADIAN. ) );
#264 = DIRECTION ( 'NONE',  ( -2.721437331438560389E-17, 1.000000000000000000, -0.000000000000000000 ) ) ;
#265 = DIRECTION ( 'NONE',  ( 0.000000000000000000, 0.000000000000000000, -1.000000000000000000 ) ) ;
#266 = ADVANCED_FACE ( 'NONE', ( #59 ), #34, .F. ) ;
#267 = FILL_AREA_STYLE_COLOUR ( '', #60 ) ;
#268 = AXIS2_PLACEMENT_3D ( 'NONE', #202, #278, #248 ) ;
#269 = EDGE_CURVE ( 'NONE', #185, #157, #86, .T. ) ;
#270 = VERTEX_POINT ( 'NONE', #296 ) ;
#271 = SURFACE_STYLE_USAGE ( .BOTH. , #174 ) ;
#272 =( CONVERSION_BASED_UNIT ( 'INCH', #62 ) LENGTH_UNIT ( ) NAMED_UNIT ( #144 ) );
#273 = CARTESIAN_POINT ( 'NONE',  ( 0.000000000000000000, 1.250000000000000000, 0.000000000000000000 ) ) ;
#274 = ORIENTED_EDGE ( 'NONE', *, *, #192, .F. ) ;
#275 = MECHANICAL_DESIGN_GEOMETRIC_PRESENTATION_REPRESENTATION (  '', ( #186 ), #99 ) ;
#276 =( NAMED_UNIT ( * ) SI_UNIT ( $, .STERADIAN. ) SOLID_ANGLE_UNIT ( ) );
#277 = VERTEX_POINT ( 'NONE', #4 ) ;
#278 = DIRECTION ( 'NONE',  ( -2.721437331438560389E-17, 1.000000000000000000, -0.000000000000000000 ) ) ;
#279 = ORIENTED_EDGE ( 'NONE', *, *, #269, .T. ) ;
#280 = DIRECTION ( 'NONE',  ( -2.721437331438560389E-17, 1.000000000000000000, -0.000000000000000000 ) ) ;
#281 = EDGE_LOOP ( 'NONE', ( #45, #201, #172, #250 ) ) ;
#282 = MECHANICAL_DESIGN_GEOMETRIC_PRESENTATION_REPRESENTATION (  '', ( #243 ), #98 ) ;
#283 = CIRCLE ( 'NONE', #268, 0.1875000000000000278 ) ;
#284 = SURFACE_SIDE_STYLE ('',( #129 ) ) ;
#285 = FILL_AREA_STYLE_COLOUR ( '', #230 ) ;
#286 = CIRCLE ( 'NONE', #102, 0.1875000000000000278 ) ;
#287 = PRODUCT_DEFINITION_FORMATION_WITH_SPECIFIED_SOURCE ( 'ANY', '', #94, .NOT_KNOWN. ) ;
#288 = CARTESIAN_POINT ( 'NONE',  ( 2.296212748401287726E-17, 0.000000000000000000, 0.1875000000000000278 ) ) ;
#289 = EDGE_CURVE ( 'NONE', #185, #21, #7, .T. ) ;
#290 =( NAMED_UNIT ( * ) SI_UNIT ( $, .STERADIAN. ) SOLID_ANGLE_UNIT ( ) );
#291 = CARTESIAN_POINT ( 'NONE',  ( 6.943332327138218856E-35, 1.250000000000000000, 0.000000000000000000 ) ) ;
#292 = PRESENTATION_LAYER_ASSIGNMENT (  '', '', ( #33 ) ) ;
#293 = EDGE_CURVE ( 'NONE', #306, #270, #151, .T. ) ;
#294 = DIRECTION ( 'NONE',  ( -0.000000000000000000, -1.000000000000000000, -0.000000000000000000 ) ) ;
#295 = CARTESIAN_POINT ( 'NONE',  ( 0.000000000000000000, 1.250000000000000000, -0.1875000000000000278 ) ) ;
#296 = CARTESIAN_POINT ( 'NONE',  ( 2.296212748401287726E-17, 0.000000000000000000, 0.1875000000000000278 ) ) ;
#297 = STYLED_ITEM ( 'NONE', ( #47 ), #254 ) ;
#298 = DIRECTION ( 'NONE',  ( -0.000000000000000000, -1.000000000000000000, -0.000000000000000000 ) ) ;
#299 =( CONVERSION_BASED_UNIT ( 'INCH', #10 ) LENGTH_UNIT ( ) NAMED_UNIT ( #227 ) );
#300 =( LENGTH_UNIT ( ) NAMED_UNIT ( * ) SI_UNIT ( $, .METRE. ) );
#301 = FACE_OUTER_BOUND ( 'NONE', #83, .T. ) ;
#302 = EDGE_LOOP ( 'NONE', ( #249, #42, #204, #15 ) ) ;
#303 = STYLED_ITEM ( 'NONE', ( #73 ), #122 ) ;
#304 = ADVANCED_FACE ( 'NONE', ( #189 ), #169, .F. ) ;
#305 = DIRECTION ( 'NONE',  ( -2.721437331438560389E-17, 1.000000000000000000, -0.000000000000000000 ) ) ;
#306 = VERTEX_POINT ( 'NONE', #153 ) ;
#307 = DIRECTION ( 'NONE',  ( 0.000000000000000000, 0.000000000000000000, -1.000000000000000000 ) ) ;
#308 = SURFACE_STYLE_FILL_AREA ( #143 ) ;
#309 = CARTESIAN_POINT ( 'NONE',  ( -0.1875000000000000278, 1.250000000000000000, 0.000000000000000000 ) ) ;
ENDSEC;
END-ISO-10303-21;
