ISO-10303-21;
HEADER;
FILE_DESCRIPTION (( 'STEP AP214' ),
    '1' );
FILE_NAME ('Micro_RSC-125-13.STEP',
    '2021-09-03T17:43:53',
    ( '' ),
    ( '' ),
    'SwSTEP 2.0',
    'SolidWorks 2020',
    '' );
FILE_SCHEMA (( 'AUTOMOTIVE_DESIGN' ));
ENDSEC;

DATA;
#1 = CONICAL_SURFACE ( 'NONE', #120, 0.04750000000000186712, 0.7853981633974499443 ) ;
#2 = ORIENTED_EDGE ( 'NONE', *, *, #212, .F. ) ;
#3 = DIRECTION ( 'NONE',  ( 0.0000000000000000000, 0.0000000000000000000, 1.000000000000000000 ) ) ;
#4 = DIRECTION ( 'NONE',  ( 0.0000000000000000000, 0.0000000000000000000, -1.000000000000000000 ) ) ;
#5 = ORIENTED_EDGE ( 'NONE', *, *, #208, .F. ) ;
#6 = DIRECTION ( 'NONE',  ( -0.0000000000000000000, -0.0000000000000000000, -1.000000000000000000 ) ) ;
#7 = CIRCLE ( 'NONE', #28, 0.06249999999999997918 ) ;
#8 = APPLICATION_PROTOCOL_DEFINITION ( 'draft international standard', 'automotive_design', 1998, #66 ) ;
#9 = DIRECTION ( 'NONE',  ( -1.000000000000000000, 0.0000000000000000000, 0.0000000000000000000 ) ) ;
#10 = ORIENTED_EDGE ( 'NONE', *, *, #145, .F. ) ;
#11 = CARTESIAN_POINT ( 'NONE',  ( 0.04750000000000186712, 5.817072295950156750E-18, 3.000000000000000444 ) ) ;
#12 = DIRECTION ( 'NONE',  ( -0.0000000000000000000, -0.0000000000000000000, -1.000000000000000000 ) ) ;
#13 = CYLINDRICAL_SURFACE ( 'NONE', #142, 0.06249999999999997918 ) ;
#14 = EDGE_CURVE ( 'NONE', #58, #63, #237, .T. ) ;
#15 = CONICAL_SURFACE ( 'NONE', #79, 0.003999999999999999216, 0.5235987755983000369 ) ;
#16 = AXIS2_PLACEMENT_3D ( 'NONE', #231, #131, #113 ) ;
#17 = CIRCLE ( 'NONE', #23, 0.04750000000000186712 ) ;
#18 = ADVANCED_FACE ( 'NONE', ( #95 ), #59, .F. ) ;
#19 =( NAMED_UNIT ( * ) PLANE_ANGLE_UNIT ( ) SI_UNIT ( $, .RADIAN. ) );
#20 = FACE_OUTER_BOUND ( 'NONE', #217, .T. ) ;
#21 = CARTESIAN_POINT ( 'NONE',  ( 0.0000000000000000000, 0.0000000000000000000, 2.985000000000002096 ) ) ;
#22 = EDGE_LOOP ( 'NONE', ( #42, #31 ) ) ;
#23 = AXIS2_PLACEMENT_3D ( 'NONE', #206, #53, #189 ) ;
#24 = ADVANCED_FACE ( 'NONE', ( #146 ), #45, .T. ) ;
#25 = SURFACE_SIDE_STYLE ('',( #127 ) ) ;
#26 = CYLINDRICAL_SURFACE ( 'NONE', #109, 0.06249999999999997918 ) ;
#27 = FILL_AREA_STYLE_COLOUR ( '', #62 ) ;
#28 = AXIS2_PLACEMENT_3D ( 'NONE', #114, #73, #224 ) ;
#29 = CARTESIAN_POINT ( 'NONE',  ( -0.06249999999999997918, 0.0000000000000000000, 2.985000000000002096 ) ) ;
#30 = PRESENTATION_STYLE_ASSIGNMENT (( #155 ) ) ;
#31 = ORIENTED_EDGE ( 'NONE', *, *, #82, .T. ) ;
#32 = PRODUCT_DEFINITION_CONTEXT ( 'detailed design', #66, 'design' ) ;
#33 =( CONVERSION_BASED_UNIT ( 'INCH', #191 ) LENGTH_UNIT ( ) NAMED_UNIT ( #213 ) );
#34 = MECHANICAL_DESIGN_GEOMETRIC_PRESENTATION_REPRESENTATION (  '', ( #198 ), #94 ) ;
#35 = ORIENTED_EDGE ( 'NONE', *, *, #181, .F. ) ;
#36 = DIRECTION ( 'NONE',  ( 0.0000000000000000000, 0.0000000000000000000, 1.000000000000000000 ) ) ;
#37 = CIRCLE ( 'NONE', #128, 0.04750000000000186712 ) ;
#38 = AXIS2_PLACEMENT_3D ( 'NONE', #93, #207, #9 ) ;
#39 = DIRECTION ( 'NONE',  ( 0.0000000000000000000, 0.0000000000000000000, 1.000000000000000000 ) ) ;
#40 = ADVANCED_FACE ( 'NONE', ( #176 ), #15, .T. ) ;
#41 = CARTESIAN_POINT ( 'NONE',  ( 0.0000000000000000000, 0.0000000000000000000, 0.1013249722427790322 ) ) ;
#42 = ORIENTED_EDGE ( 'NONE', *, *, #171, .T. ) ;
#43 = CARTESIAN_POINT ( 'NONE',  ( 0.0000000000000000000, 0.0000000000000000000, 3.000000000000000444 ) ) ;
#44 =( NAMED_UNIT ( * ) SI_UNIT ( $, .STERADIAN. ) SOLID_ANGLE_UNIT ( ) );
#45 = PLANE ( 'NONE',  #188 ) ;
#46 = AXIS2_PLACEMENT_3D ( 'NONE', #61, #193, #235 ) ;
#47 = VECTOR ( 'NONE', #12, 39.37007874015748143 ) ;
#48 = DIRECTION ( 'NONE',  ( -0.7071067811865486830, 0.0000000000000000000, -0.7071067811865463515 ) ) ;
#49 = FILL_AREA_STYLE ('',( #147 ) ) ;
#50 = LINE ( 'NONE', #182, #218 ) ;
#51 = CONICAL_SURFACE ( 'NONE', #150, 0.003999999999999999216, 0.5235987755983000369 ) ;
#52 = ORIENTED_EDGE ( 'NONE', *, *, #14, .T. ) ;
#53 = DIRECTION ( 'NONE',  ( 0.0000000000000000000, 0.0000000000000000000, 1.000000000000000000 ) ) ;
#54 = FILL_AREA_STYLE ('',( #27 ) ) ;
#55 = DIRECTION ( 'NONE',  ( -1.000000000000000000, 0.0000000000000000000, 0.0000000000000000000 ) ) ;
#56 = CARTESIAN_POINT ( 'NONE',  ( -0.06249999999999997918, 0.0000000000000000000, 0.1013249722427790322 ) ) ;
#57 = PRESENTATION_LAYER_ASSIGNMENT (  '', '', ( #198 ) ) ;
#58 = VERTEX_POINT ( 'NONE', #158 ) ;
#59 = PLANE ( 'NONE',  #229 ) ;
#60 = DIRECTION ( 'NONE',  ( -1.000000000000000000, 0.0000000000000000000, 0.0000000000000000000 ) ) ;
#61 = CARTESIAN_POINT ( 'NONE',  ( 0.0000000000000000000, 0.0000000000000000000, 0.0000000000000000000 ) ) ;
#62 = COLOUR_RGB ( '',0.7921568627450980005, 0.8196078431372548767, 0.9333333333333333481 ) ;
#63 = VERTEX_POINT ( 'NONE', #121 ) ;
#64 = EDGE_LOOP ( 'NONE', ( #2, #137, #133, #75 ) ) ;
#65 = ADVANCED_FACE ( 'NONE', ( #20 ), #1, .T. ) ;
#66 = APPLICATION_CONTEXT ( 'automotive_design' ) ;
#67 = DIRECTION ( 'NONE',  ( 0.7071067811865486830, 8.659560562354947649E-17, -0.7071067811865463515 ) ) ;
#68 = CARTESIAN_POINT ( 'NONE',  ( 0.003999999999999999216, 0.0000000000000000000, 0.0000000000000000000 ) ) ;
#69 = CARTESIAN_POINT ( 'NONE',  ( 0.0000000000000000000, 0.0000000000000000000, 0.0000000000000000000 ) ) ;
#70 = AXIS2_PLACEMENT_3D ( 'NONE', #69, #87, #245 ) ;
#71 = EDGE_CURVE ( 'NONE', #81, #154, #50, .T. ) ;
#72 = UNCERTAINTY_MEASURE_WITH_UNIT (LENGTH_MEASURE( 1.000000000000000082E-05 ), #33, 'distance_accuracy_value', 'NONE');
#73 = DIRECTION ( 'NONE',  ( 0.0000000000000000000, 0.0000000000000000000, -1.000000000000000000 ) ) ;
#74 = PRESENTATION_LAYER_ASSIGNMENT (  '', '', ( #244 ) ) ;
#75 = ORIENTED_EDGE ( 'NONE', *, *, #163, .F. ) ;
#76 = DIMENSIONAL_EXPONENTS ( 1.000000000000000000, 0.0000000000000000000, 0.0000000000000000000, 0.0000000000000000000, 0.0000000000000000000, 0.0000000000000000000, 0.0000000000000000000 ) ;
#77 = PRODUCT_RELATED_PRODUCT_CATEGORY ( 'part', '', ( #99 ) ) ;
#78 = SURFACE_SIDE_STYLE ('',( #174 ) ) ;
#79 = AXIS2_PLACEMENT_3D ( 'NONE', #141, #3, #83 ) ;
#80 = VECTOR ( 'NONE', #118, 39.37007874015748143 ) ;
#81 = VERTEX_POINT ( 'NONE', #201 ) ;
#82 = EDGE_CURVE ( 'NONE', #211, #81, #37, .T. ) ;
#83 = DIRECTION ( 'NONE',  ( 1.000000000000000000, 0.0000000000000000000, 0.0000000000000000000 ) ) ;
#84 = VECTOR ( 'NONE', #220, 39.37007874015748143 ) ;
#85 = VERTEX_POINT ( 'NONE', #243 ) ;
#86 =( NAMED_UNIT ( * ) PLANE_ANGLE_UNIT ( ) SI_UNIT ( $, .RADIAN. ) );
#87 = DIRECTION ( 'NONE',  ( 0.0000000000000000000, 0.0000000000000000000, 1.000000000000000000 ) ) ;
#88 = CARTESIAN_POINT ( 'NONE',  ( 0.0000000000000000000, 0.0000000000000000000, 3.000000000000000444 ) ) ;
#89 =( LENGTH_UNIT ( ) NAMED_UNIT ( * ) SI_UNIT ( $, .METRE. ) );
#90 = ORIENTED_EDGE ( 'NONE', *, *, #212, .T. ) ;
#91 = EDGE_CURVE ( 'NONE', #63, #85, #149, .T. ) ;
#92 = FACE_OUTER_BOUND ( 'NONE', #64, .T. ) ;
#93 = CARTESIAN_POINT ( 'NONE',  ( 0.0000000000000000000, 0.0000000000000000000, 0.1013249722427790322 ) ) ;
#94 =( GEOMETRIC_REPRESENTATION_CONTEXT ( 3 ) GLOBAL_UNCERTAINTY_ASSIGNED_CONTEXT ( ( #165 ) ) GLOBAL_UNIT_ASSIGNED_CONTEXT ( ( #143, #19, #44 ) ) REPRESENTATION_CONTEXT ( 'NONE', 'WORKASPACE' ) );
#95 = FACE_OUTER_BOUND ( 'NONE', #132, .T. ) ;
#96 = MANIFOLD_SOLID_BREP ( 'Cut-Revolve1', #202 ) ;
#97 = COLOUR_RGB ( '',0.7921568627450980005, 0.8196078431372548767, 0.9333333333333333481 ) ;
#98 = ORIENTED_EDGE ( 'NONE', *, *, #116, .F. ) ;
#99 = PRODUCT ( 'Micro_RSC-125-13', 'Micro_RSC-125-13', '', ( #184 ) ) ;
#100 = ORIENTED_EDGE ( 'NONE', *, *, #145, .T. ) ;
#101 = DIRECTION ( 'NONE',  ( 0.0000000000000000000, 0.0000000000000000000, 1.000000000000000000 ) ) ;
#102 = DIRECTION ( 'NONE',  ( -0.0000000000000000000, -0.0000000000000000000, -1.000000000000000000 ) ) ;
#103 = EDGE_LOOP ( 'NONE', ( #10, #151, #187, #178 ) ) ;
#104 = DIRECTION ( 'NONE',  ( 1.000000000000000000, 0.0000000000000000000, 0.0000000000000000000 ) ) ;
#105 = ORIENTED_EDGE ( 'NONE', *, *, #136, .T. ) ;
#106 =( NAMED_UNIT ( * ) PLANE_ANGLE_UNIT ( ) SI_UNIT ( $, .RADIAN. ) );
#107 = APPLICATION_PROTOCOL_DEFINITION ( 'draft international standard', 'automotive_design', 1998, #108 ) ;
#108 = APPLICATION_CONTEXT ( 'automotive_design' ) ;
#109 = AXIS2_PLACEMENT_3D ( 'NONE', #43, #111, #55 ) ;
#110 = ADVANCED_BREP_SHAPE_REPRESENTATION ( 'Micro_RSC-125-13', ( #96, #70 ), #173 ) ;
#111 = DIRECTION ( 'NONE',  ( -0.0000000000000000000, -0.0000000000000000000, -1.000000000000000000 ) ) ;
#112 = ORIENTED_EDGE ( 'NONE', *, *, #181, .T. ) ;
#113 = DIRECTION ( 'NONE',  ( -1.000000000000000000, 0.0000000000000000000, 0.0000000000000000000 ) ) ;
#114 = CARTESIAN_POINT ( 'NONE',  ( 0.0000000000000000000, 0.0000000000000000000, 2.985000000000002096 ) ) ;
#115 = CIRCLE ( 'NONE', #38, 0.06249999999999997918 ) ;
#116 = EDGE_CURVE ( 'NONE', #154, #223, #160, .T. ) ;
#117 = ORIENTED_EDGE ( 'NONE', *, *, #82, .F. ) ;
#118 = DIRECTION ( 'NONE',  ( -0.0000000000000000000, -0.0000000000000000000, -1.000000000000000000 ) ) ;
#119 = DIRECTION ( 'NONE',  ( 1.000000000000000000, 0.0000000000000000000, -0.0000000000000000000 ) ) ;
#120 = AXIS2_PLACEMENT_3D ( 'NONE', #177, #4, #144 ) ;
#121 = CARTESIAN_POINT ( 'NONE',  ( 0.003999999999999999216, 0.0000000000000000000, 0.0000000000000000000 ) ) ;
#122 = EDGE_LOOP ( 'NONE', ( #162, #100, #168, #238 ) ) ;
#123 = EDGE_CURVE ( 'NONE', #154, #228, #138, .T. ) ;
#124 = CARTESIAN_POINT ( 'NONE',  ( 0.0000000000000000000, 0.0000000000000000000, 3.000000000000000444 ) ) ;
#125 = DIRECTION ( 'NONE',  ( 0.0000000000000000000, 0.0000000000000000000, 1.000000000000000000 ) ) ;
#126 = EDGE_CURVE ( 'NONE', #228, #85, #230, .T. ) ;
#127 = SURFACE_STYLE_FILL_AREA ( #49 ) ;
#128 = AXIS2_PLACEMENT_3D ( 'NONE', #88, #125, #164 ) ;
#129 = AXIS2_PLACEMENT_3D ( 'NONE', #180, #6, #60 ) ;
#130 = FACE_OUTER_BOUND ( 'NONE', #159, .T. ) ;
#131 = DIRECTION ( 'NONE',  ( 0.0000000000000000000, 0.0000000000000000000, -1.000000000000000000 ) ) ;
#132 = EDGE_LOOP ( 'NONE', ( #105, #52 ) ) ;
#133 = ORIENTED_EDGE ( 'NONE', *, *, #71, .T. ) ;
#134 = CARTESIAN_POINT ( 'NONE',  ( 0.0000000000000000000, 0.0000000000000000000, 3.000000000000000444 ) ) ;
#135 =( LENGTH_UNIT ( ) NAMED_UNIT ( * ) SI_UNIT ( $, .METRE. ) );
#136 = EDGE_CURVE ( 'NONE', #63, #58, #222, .T. ) ;
#137 = ORIENTED_EDGE ( 'NONE', *, *, #171, .F. ) ;
#138 = LINE ( 'NONE', #216, #80 ) ;
#139 = CARTESIAN_POINT ( 'NONE',  ( 0.0000000000000000000, 0.0000000000000000000, 0.0000000000000000000 ) ) ;
#140 = DIRECTION ( 'NONE',  ( -1.000000000000000000, 0.0000000000000000000, 0.0000000000000000000 ) ) ;
#141 = CARTESIAN_POINT ( 'NONE',  ( 0.0000000000000000000, 0.0000000000000000000, 0.0000000000000000000 ) ) ;
#142 = AXIS2_PLACEMENT_3D ( 'NONE', #134, #248, #226 ) ;
#143 =( CONVERSION_BASED_UNIT ( 'INCH', #156 ) LENGTH_UNIT ( ) NAMED_UNIT ( #232 ) );
#144 = DIRECTION ( 'NONE',  ( -1.000000000000000000, 0.0000000000000000000, 0.0000000000000000000 ) ) ;
#145 = EDGE_CURVE ( 'NONE', #58, #228, #214, .T. ) ;
#146 = FACE_OUTER_BOUND ( 'NONE', #22, .T. ) ;
#147 = FILL_AREA_STYLE_COLOUR ( '', #97 ) ;
#148 = CARTESIAN_POINT ( 'NONE',  ( 0.06249999999999997918, 7.654042494670954463E-18, 2.985000000000002096 ) ) ;
#149 = LINE ( 'NONE', #68, #84 ) ;
#150 = AXIS2_PLACEMENT_3D ( 'NONE', #234, #101, #195 ) ;
#151 = ORIENTED_EDGE ( 'NONE', *, *, #136, .F. ) ;
#152 = LINE ( 'NONE', #204, #47 ) ;
#153 = ADVANCED_FACE ( 'NONE', ( #130 ), #26, .T. ) ;
#154 = VERTEX_POINT ( 'NONE', #29 ) ;
#155 = SURFACE_STYLE_USAGE ( .BOTH. , #78 ) ;
#156 = LENGTH_MEASURE_WITH_UNIT ( LENGTH_MEASURE( 0.02539999999999999897 ), #240 );
#157 = ORIENTED_EDGE ( 'NONE', *, *, #123, .F. ) ;
#158 = CARTESIAN_POINT ( 'NONE',  ( -0.003999999999999999216, 4.071950607164948101E-18, 0.0000000000000000000 ) ) ;
#159 = EDGE_LOOP ( 'NONE', ( #35, #172, #249, #5 ) ) ;
#160 = CIRCLE ( 'NONE', #219, 0.06249999999999997918 ) ;
#161 = CONICAL_SURFACE ( 'NONE', #16, 0.04750000000000186712, 0.7853981633974499443 ) ;
#162 = ORIENTED_EDGE ( 'NONE', *, *, #14, .F. ) ;
#163 = EDGE_CURVE ( 'NONE', #223, #154, #7, .T. ) ;
#164 = DIRECTION ( 'NONE',  ( 1.000000000000000000, 0.0000000000000000000, 0.0000000000000000000 ) ) ;
#165 = UNCERTAINTY_MEASURE_WITH_UNIT (LENGTH_MEASURE( 1.000000000000000082E-05 ), #143, 'distance_accuracy_value', 'NONE');
#166 = PRESENTATION_STYLE_ASSIGNMENT (( #221 ) ) ;
#167 = CARTESIAN_POINT ( 'NONE',  ( 0.04750000000000186712, 6.735557395310556377E-18, 3.000000000000000444 ) ) ;
#168 = ORIENTED_EDGE ( 'NONE', *, *, #126, .T. ) ;
#169 = ORIENTED_EDGE ( 'NONE', *, *, #71, .F. ) ;
#170 = FACE_OUTER_BOUND ( 'NONE', #175, .T. ) ;
#171 = EDGE_CURVE ( 'NONE', #81, #211, #17, .T. ) ;
#172 = ORIENTED_EDGE ( 'NONE', *, *, #163, .T. ) ;
#173 =( GEOMETRIC_REPRESENTATION_CONTEXT ( 3 ) GLOBAL_UNCERTAINTY_ASSIGNED_CONTEXT ( ( #72 ) ) GLOBAL_UNIT_ASSIGNED_CONTEXT ( ( #33, #106, #200 ) ) REPRESENTATION_CONTEXT ( 'NONE', 'WORKASPACE' ) );
#174 = SURFACE_STYLE_FILL_AREA ( #54 ) ;
#175 = EDGE_LOOP ( 'NONE', ( #196, #112, #194, #157 ) ) ;
#176 = FACE_OUTER_BOUND ( 'NONE', #103, .T. ) ;
#177 = CARTESIAN_POINT ( 'NONE',  ( 0.0000000000000000000, 0.0000000000000000000, 3.000000000000000444 ) ) ;
#178 = ORIENTED_EDGE ( 'NONE', *, *, #208, .T. ) ;
#179 =( GEOMETRIC_REPRESENTATION_CONTEXT ( 3 ) GLOBAL_UNCERTAINTY_ASSIGNED_CONTEXT ( ( #227 ) ) GLOBAL_UNIT_ASSIGNED_CONTEXT ( ( #183, #86, #199 ) ) REPRESENTATION_CONTEXT ( 'NONE', 'WORKASPACE' ) );
#180 = CARTESIAN_POINT ( 'NONE',  ( 0.0000000000000000000, 0.0000000000000000000, 0.0000000000000000000 ) ) ;
#181 = EDGE_CURVE ( 'NONE', #223, #85, #152, .T. ) ;
#182 = CARTESIAN_POINT ( 'NONE',  ( -0.04750000000000186712, 0.0000000000000000000, 3.000000000000000444 ) ) ;
#183 =( CONVERSION_BASED_UNIT ( 'INCH', #186 ) LENGTH_UNIT ( ) NAMED_UNIT ( #76 ) );
#184 = PRODUCT_CONTEXT ( 'NONE', #108, 'mechanical' ) ;
#185 = AXIS2_PLACEMENT_3D ( 'NONE', #41, #102, #140 ) ;
#186 = LENGTH_MEASURE_WITH_UNIT ( LENGTH_MEASURE( 0.02539999999999999897 ), #89 );
#187 = ORIENTED_EDGE ( 'NONE', *, *, #91, .T. ) ;
#188 = AXIS2_PLACEMENT_3D ( 'NONE', #124, #39, #119 ) ;
#189 = DIRECTION ( 'NONE',  ( 1.000000000000000000, 0.0000000000000000000, 0.0000000000000000000 ) ) ;
#190 = ADVANCED_FACE ( 'NONE', ( #92 ), #161, .T. ) ;
#191 = LENGTH_MEASURE_WITH_UNIT ( LENGTH_MEASURE( 0.02539999999999999897 ), #135 );
#192 = DIRECTION ( 'NONE',  ( -0.5000000000000009992, 6.123233995736778362E-17, 0.8660254037844380415 ) ) ;
#193 = DIRECTION ( 'NONE',  ( -0.0000000000000000000, -0.0000000000000000000, -1.000000000000000000 ) ) ;
#194 = ORIENTED_EDGE ( 'NONE', *, *, #126, .F. ) ;
#195 = DIRECTION ( 'NONE',  ( 1.000000000000000000, 0.0000000000000000000, 0.0000000000000000000 ) ) ;
#196 = ORIENTED_EDGE ( 'NONE', *, *, #116, .T. ) ;
#197 = ADVANCED_FACE ( 'NONE', ( #170 ), #13, .T. ) ;
#198 = STYLED_ITEM ( 'NONE', ( #30 ), #96 ) ;
#199 =( NAMED_UNIT ( * ) SI_UNIT ( $, .STERADIAN. ) SOLID_ANGLE_UNIT ( ) );
#200 =( NAMED_UNIT ( * ) SI_UNIT ( $, .STERADIAN. ) SOLID_ANGLE_UNIT ( ) );
#201 = CARTESIAN_POINT ( 'NONE',  ( -0.04750000000000186712, 0.0000000000000000000, 3.000000000000000444 ) ) ;
#202 = CLOSED_SHELL ( 'NONE', ( #247, #65, #197, #153, #24, #190, #40, #18 ) ) ;
#203 = LINE ( 'NONE', #11, #239 ) ;
#204 = CARTESIAN_POINT ( 'NONE',  ( 0.06249999999999997918, 7.654042494670954463E-18, 3.000000000000000444 ) ) ;
#205 = VECTOR ( 'NONE', #192, 39.37007874015748143 ) ;
#206 = CARTESIAN_POINT ( 'NONE',  ( 0.0000000000000000000, 0.0000000000000000000, 3.000000000000000444 ) ) ;
#207 = DIRECTION ( 'NONE',  ( -0.0000000000000000000, -0.0000000000000000000, -1.000000000000000000 ) ) ;
#208 = EDGE_CURVE ( 'NONE', #85, #228, #115, .T. ) ;
#209 = FACE_OUTER_BOUND ( 'NONE', #122, .T. ) ;
#210 = PRODUCT_DEFINITION_FORMATION_WITH_SPECIFIED_SOURCE ( 'ANY', '', #99, .NOT_KNOWN. ) ;
#211 = VERTEX_POINT ( 'NONE', #167 ) ;
#212 = EDGE_CURVE ( 'NONE', #211, #223, #203, .T. ) ;
#213 = DIMENSIONAL_EXPONENTS ( 1.000000000000000000, 0.0000000000000000000, 0.0000000000000000000, 0.0000000000000000000, 0.0000000000000000000, 0.0000000000000000000, 0.0000000000000000000 ) ;
#214 = LINE ( 'NONE', #242, #205 ) ;
#215 = MECHANICAL_DESIGN_GEOMETRIC_PRESENTATION_REPRESENTATION (  '', ( #244 ), #179 ) ;
#216 = CARTESIAN_POINT ( 'NONE',  ( -0.06249999999999997918, 0.0000000000000000000, 3.000000000000000444 ) ) ;
#217 = EDGE_LOOP ( 'NONE', ( #117, #90, #98, #169 ) ) ;
#218 = VECTOR ( 'NONE', #48, 39.37007874015748143 ) ;
#219 = AXIS2_PLACEMENT_3D ( 'NONE', #21, #236, #104 ) ;
#220 = DIRECTION ( 'NONE',  ( 0.5000000000000009992, 0.0000000000000000000, 0.8660254037844380415 ) ) ;
#221 = SURFACE_STYLE_USAGE ( .BOTH. , #25 ) ;
#222 = CIRCLE ( 'NONE', #129, 0.003999999999999999216 ) ;
#223 = VERTEX_POINT ( 'NONE', #148 ) ;
#224 = DIRECTION ( 'NONE',  ( 1.000000000000000000, 0.0000000000000000000, 0.0000000000000000000 ) ) ;
#225 = PRODUCT_DEFINITION_SHAPE ( 'NONE', 'NONE',  #233 ) ;
#226 = DIRECTION ( 'NONE',  ( -1.000000000000000000, 0.0000000000000000000, 0.0000000000000000000 ) ) ;
#227 = UNCERTAINTY_MEASURE_WITH_UNIT (LENGTH_MEASURE( 1.000000000000000082E-05 ), #183, 'distance_accuracy_value', 'NONE');
#228 = VERTEX_POINT ( 'NONE', #56 ) ;
#229 = AXIS2_PLACEMENT_3D ( 'NONE', #139, #36, #241 ) ;
#230 = CIRCLE ( 'NONE', #185, 0.06249999999999997918 ) ;
#231 = CARTESIAN_POINT ( 'NONE',  ( 0.0000000000000000000, 0.0000000000000000000, 3.000000000000000444 ) ) ;
#232 = DIMENSIONAL_EXPONENTS ( 1.000000000000000000, 0.0000000000000000000, 0.0000000000000000000, 0.0000000000000000000, 0.0000000000000000000, 0.0000000000000000000, 0.0000000000000000000 ) ;
#233 = PRODUCT_DEFINITION ( 'UNKNOWN', '', #210, #32 ) ;
#234 = CARTESIAN_POINT ( 'NONE',  ( 0.0000000000000000000, 0.0000000000000000000, 0.0000000000000000000 ) ) ;
#235 = DIRECTION ( 'NONE',  ( -1.000000000000000000, 0.0000000000000000000, 0.0000000000000000000 ) ) ;
#236 = DIRECTION ( 'NONE',  ( 0.0000000000000000000, 0.0000000000000000000, -1.000000000000000000 ) ) ;
#237 = CIRCLE ( 'NONE', #46, 0.003999999999999999216 ) ;
#238 = ORIENTED_EDGE ( 'NONE', *, *, #91, .F. ) ;
#239 = VECTOR ( 'NONE', #67, 39.37007874015748143 ) ;
#240 =( LENGTH_UNIT ( ) NAMED_UNIT ( * ) SI_UNIT ( $, .METRE. ) );
#241 = DIRECTION ( 'NONE',  ( 1.000000000000000000, 0.0000000000000000000, -0.0000000000000000000 ) ) ;
#242 = CARTESIAN_POINT ( 'NONE',  ( -0.003999999999999999216, 4.898587196589411612E-19, 0.0000000000000000000 ) ) ;
#243 = CARTESIAN_POINT ( 'NONE',  ( 0.06249999999999997918, 7.654042494670954463E-18, 0.1013249722427790322 ) ) ;
#244 = STYLED_ITEM ( 'NONE', ( #166 ), #110 ) ;
#245 = DIRECTION ( 'NONE',  ( 1.000000000000000000, 0.0000000000000000000, 0.0000000000000000000 ) ) ;
#246 = SHAPE_DEFINITION_REPRESENTATION ( #225, #110 ) ;
#247 = ADVANCED_FACE ( 'NONE', ( #209 ), #51, .T. ) ;
#248 = DIRECTION ( 'NONE',  ( -0.0000000000000000000, -0.0000000000000000000, -1.000000000000000000 ) ) ;
#249 = ORIENTED_EDGE ( 'NONE', *, *, #123, .T. ) ;
ENDSEC;
END-ISO-10303-21;
