ISO-10303-21;
HEADER;
FILE_DESCRIPTION (( 'STEP AP214' ),
    '1' );
FILE_NAME ('Micro_SBMM-030-415X.STEP',
    '2021-09-02T17:08:11',
    ( '' ),
    ( '' ),
    'SwSTEP 2.0',
    'SolidWorks 2020',
    '' );
FILE_SCHEMA (( 'AUTOMOTIVE_DESIGN' ));
ENDSEC;

DATA;
#1 = EDGE_LOOP ( 'NONE', ( #40, #194, #243, #70 ) ) ;
#2 = FILL_AREA_STYLE_COLOUR ( '', #31 ) ;
#3 = ORIENTED_EDGE ( 'NONE', *, *, #67, .T. ) ;
#4 = DIRECTION ( 'NONE',  ( 1.000000000000000000, 0.0000000000000000000, 0.0000000000000000000 ) ) ;
#5 = DIRECTION ( 'NONE',  ( -0.0000000000000000000, -0.0000000000000000000, -1.000000000000000000 ) ) ;
#6 = CIRCLE ( 'NONE', #282, 0.03936999999999993283 ) ;
#7 = LINE ( 'NONE', #170, #336 ) ;
#8 = EDGE_CURVE ( 'NONE', #180, #24, #329, .T. ) ;
#9 = FACE_OUTER_BOUND ( 'NONE', #215, .T. ) ;
#10 = ADVANCED_FACE ( 'NONE', ( #345 ), #60, .T. ) ;
#11 = DIRECTION ( 'NONE',  ( -0.0000000000000000000, -0.0000000000000000000, -1.000000000000000000 ) ) ;
#12 = PRODUCT_DEFINITION_FORMATION_WITH_SPECIFIED_SOURCE ( 'ANY', '', #111, .NOT_KNOWN. ) ;
#13 = PRODUCT_DEFINITION ( 'UNKNOWN', '', #12, #177 ) ;
#14 = APPLICATION_PROTOCOL_DEFINITION ( 'draft international standard', 'automotive_design', 1998, #334 ) ;
#15 = ORIENTED_EDGE ( 'NONE', *, *, #117, .T. ) ;
#16 = CYLINDRICAL_SURFACE ( 'NONE', #25, 0.03936999999999996058 ) ;
#17 = ORIENTED_EDGE ( 'NONE', *, *, #113, .F. ) ;
#18 = DIRECTION ( 'NONE',  ( 1.000000000000000000, 0.0000000000000000000, -0.0000000000000000000 ) ) ;
#19 = ORIENTED_EDGE ( 'NONE', *, *, #8, .T. ) ;
#20 = CARTESIAN_POINT ( 'NONE',  ( 0.0000000000000000000, 0.0000000000000000000, 0.05905500000000000332 ) ) ;
#21 = VERTEX_POINT ( 'NONE', #142 ) ;
#22 = EDGE_LOOP ( 'NONE', ( #84, #128, #290, #236, #126 ) ) ;
#23 = EDGE_CURVE ( 'NONE', #28, #43, #78, .T. ) ;
#24 = VERTEX_POINT ( 'NONE', #292 ) ;
#25 = AXIS2_PLACEMENT_3D ( 'NONE', #207, #162, #69 ) ;
#26 =( NAMED_UNIT ( * ) SI_UNIT ( $, .STERADIAN. ) SOLID_ANGLE_UNIT ( ) );
#27 = APPLICATION_PROTOCOL_DEFINITION ( 'draft international standard', 'automotive_design', 1998, #341 ) ;
#28 = VERTEX_POINT ( 'NONE', #240 ) ;
#29 = CIRCLE ( 'NONE', #342, 0.1181100000000000344 ) ;
#30 = DIRECTION ( 'NONE',  ( -0.09053553870087646671, 1.108740576791096813E-17, 0.9958932253169222593 ) ) ;
#31 = COLOUR_RGB ( '',0.7921568627450980005, 0.8196078431372548767, 0.9333333333333333481 ) ;
#32 = DIRECTION ( 'NONE',  ( -1.000000000000000000, 0.0000000000000000000, 0.0000000000000000000 ) ) ;
#33 = DIRECTION ( 'NONE',  ( 1.000000000000000000, 0.0000000000000000000, 0.0000000000000000000 ) ) ;
#34 = ADVANCED_FACE ( 'NONE', ( #265 ), #266, .T. ) ;
#35 = CARTESIAN_POINT ( 'NONE',  ( 0.0000000000000000000, 0.0000000000000000000, 2.952755999999999936 ) ) ;
#36 = AXIS2_PLACEMENT_3D ( 'NONE', #20, #45, #158 ) ;
#37 = CARTESIAN_POINT ( 'NONE',  ( -0.1181100000000000344, 0.0000000000000000000, 2.937755999999999368 ) ) ;
#38 = CARTESIAN_POINT ( 'NONE',  ( 4.821434448243127714E-18, -0.03936999999999998140, 0.1030719981370833843 ) ) ;
#39 = EDGE_CURVE ( 'NONE', #309, #21, #321, .T. ) ;
#40 = ORIENTED_EDGE ( 'NONE', *, *, #335, .F. ) ;
#41 = CIRCLE ( 'NONE', #196, 0.03936999999999998140 ) ;
#42 = FACE_OUTER_BOUND ( 'NONE', #106, .T. ) ;
#43 = VERTEX_POINT ( 'NONE', #110 ) ;
#44 = ORIENTED_EDGE ( 'NONE', *, *, #311, .F. ) ;
#45 = DIRECTION ( 'NONE',  ( 1.000000000000000000, 0.0000000000000000000, 0.0000000000000000000 ) ) ;
#46 = EDGE_CURVE ( 'NONE', #21, #112, #247, .T. ) ;
#47 = ORIENTED_EDGE ( 'NONE', *, *, #46, .F. ) ;
#48 = DIRECTION ( 'NONE',  ( 0.0000000000000000000, 0.0000000000000000000, -1.000000000000000000 ) ) ;
#49 = ORIENTED_EDGE ( 'NONE', *, *, #113, .T. ) ;
#50 = MANIFOLD_SOLID_BREP ( 'Cut-Revolve3', #313 ) ;
#51 = FILL_AREA_STYLE ('',( #169 ) ) ;
#52 =( NAMED_UNIT ( * ) PLANE_ANGLE_UNIT ( ) SI_UNIT ( $, .RADIAN. ) );
#53 = AXIS2_PLACEMENT_3D ( 'NONE', #297, #4, #275 ) ;
#54 = AXIS2_PLACEMENT_3D ( 'NONE', #94, #73, #18 ) ;
#55 = SURFACE_STYLE_USAGE ( .BOTH. , #270 ) ;
#56 = DIRECTION ( 'NONE',  ( 0.0000000000000000000, 0.0000000000000000000, -1.000000000000000000 ) ) ;
#57 = EDGE_CURVE ( 'NONE', #241, #180, #252, .T. ) ;
#58 =( NAMED_UNIT ( * ) PLANE_ANGLE_UNIT ( ) SI_UNIT ( $, .RADIAN. ) );
#59 = CARTESIAN_POINT ( 'NONE',  ( 0.0000000000000000000, 0.0000000000000000000, 0.1030719981370833843 ) ) ;
#60 = CONICAL_SURFACE ( 'NONE', #206, 0.1031099999999991745, 0.7853981633974500554 ) ;
#61 = DIRECTION ( 'NONE',  ( -0.0000000000000000000, -0.0000000000000000000, -1.000000000000000000 ) ) ;
#62 = CARTESIAN_POINT ( 'NONE',  ( -0.1031099999999991745, 0.0000000000000000000, 2.952755999999999936 ) ) ;
#63 = DIRECTION ( 'NONE',  ( -1.000000000000000000, 0.0000000000000000000, 0.0000000000000000000 ) ) ;
#64 =( GEOMETRIC_REPRESENTATION_CONTEXT ( 3 ) GLOBAL_UNCERTAINTY_ASSIGNED_CONTEXT ( ( #68 ) ) GLOBAL_UNIT_ASSIGNED_CONTEXT ( ( #294, #52, #26 ) ) REPRESENTATION_CONTEXT ( 'NONE', 'WORKASPACE' ) );
#65 = VECTOR ( 'NONE', #254, 39.37007874015748143 ) ;
#66 = CARTESIAN_POINT ( 'NONE',  ( 0.0000000000000000000, 0.0000000000000000000, 0.1030719981370833843 ) ) ;
#67 = EDGE_CURVE ( 'NONE', #212, #241, #150, .T. ) ;
#68 = UNCERTAINTY_MEASURE_WITH_UNIT (LENGTH_MEASURE( 1.000000000000000082E-05 ), #294, 'distance_accuracy_value', 'NONE');
#69 = DIRECTION ( 'NONE',  ( -1.000000000000000000, 0.0000000000000000000, 0.0000000000000000000 ) ) ;
#70 = ORIENTED_EDGE ( 'NONE', *, *, #343, .F. ) ;
#71 = DIRECTION ( 'NONE',  ( -0.0000000000000000000, -0.0000000000000000000, -1.000000000000000000 ) ) ;
#72 = ORIENTED_EDGE ( 'NONE', *, *, #190, .F. ) ;
#73 = DIRECTION ( 'NONE',  ( 0.0000000000000000000, 0.0000000000000000000, 1.000000000000000000 ) ) ;
#74 = ORIENTED_EDGE ( 'NONE', *, *, #57, .T. ) ;
#75 = DIRECTION ( 'NONE',  ( 0.0000000000000000000, 0.0000000000000000000, 1.000000000000000000 ) ) ;
#76 = ORIENTED_EDGE ( 'NONE', *, *, #95, .F. ) ;
#77 = CIRCLE ( 'NONE', #325, 0.1031099999999991745 ) ;
#78 = LINE ( 'NONE', #320, #114 ) ;
#79 = LENGTH_MEASURE_WITH_UNIT ( LENGTH_MEASURE( 0.02539999999999999897 ), #214 );
#80 = DIRECTION ( 'NONE',  ( -1.000000000000000000, 0.0000000000000000000, 0.0000000000000000000 ) ) ;
#81 = AXIS2_PLACEMENT_3D ( 'NONE', #115, #187, #219 ) ;
#82 = EDGE_CURVE ( 'NONE', #212, #237, #200, .T. ) ;
#83 = PRODUCT_CONTEXT ( 'NONE', #334, 'mechanical' ) ;
#84 = ORIENTED_EDGE ( 'NONE', *, *, #335, .T. ) ;
#85 = DIRECTION ( 'NONE',  ( 1.000000000000000000, 0.0000000000000000000, 0.0000000000000000000 ) ) ;
#86 = CARTESIAN_POINT ( 'NONE',  ( -0.1299209999999998144, 1.591073367920230651E-17, 1.586614299999997479 ) ) ;
#87 = DIRECTION ( 'NONE',  ( -0.0000000000000000000, -0.0000000000000000000, -1.000000000000000000 ) ) ;
#88 = FACE_OUTER_BOUND ( 'NONE', #312, .T. ) ;
#89 = CYLINDRICAL_SURFACE ( 'NONE', #145, 0.1181100000000000344 ) ;
#90 = CARTESIAN_POINT ( 'NONE',  ( 0.0000000000000000000, 0.0000000000000000000, 0.5905510000000000481 ) ) ;
#91 = DIRECTION ( 'NONE',  ( 0.0000000000000000000, 0.0000000000000000000, -1.000000000000000000 ) ) ;
#92 = COLOUR_RGB ( '',0.7921568627450980005, 0.8196078431372548767, 0.9333333333333333481 ) ;
#93 = CONICAL_SURFACE ( 'NONE', #121, 0.1299209999999998144, 0.09065967900408430924 ) ;
#94 = CARTESIAN_POINT ( 'NONE',  ( 0.0000000000000000000, 0.0000000000000000000, 2.952755999999999936 ) ) ;
#95 = EDGE_CURVE ( 'NONE', #99, #21, #7, .T. ) ;
#96 = FACE_OUTER_BOUND ( 'NONE', #22, .T. ) ;
#97 = EDGE_LOOP ( 'NONE', ( #305, #17, #231, #72 ) ) ;
#98 = LINE ( 'NONE', #285, #289 ) ;
#99 = VERTEX_POINT ( 'NONE', #37 ) ;
#100 = AXIS2_PLACEMENT_3D ( 'NONE', #267, #242, #291 ) ;
#101 = EDGE_CURVE ( 'NONE', #309, #241, #327, .T. ) ;
#102 =( CONVERSION_BASED_UNIT ( 'INCH', #105 ) LENGTH_UNIT ( ) NAMED_UNIT ( #244 ) );
#103 = ORIENTED_EDGE ( 'NONE', *, *, #39, .F. ) ;
#104 = ADVANCED_FACE ( 'NONE', ( #9 ), #89, .T. ) ;
#105 = LENGTH_MEASURE_WITH_UNIT ( LENGTH_MEASURE( 0.02539999999999999897 ), #127 );
#106 = EDGE_LOOP ( 'NONE', ( #286, #3, #74, #135 ) ) ;
#107 = ORIENTED_EDGE ( 'NONE', *, *, #46, .T. ) ;
#108 = AXIS2_PLACEMENT_3D ( 'NONE', #296, #192, #164 ) ;
#109 =( GEOMETRIC_REPRESENTATION_CONTEXT ( 3 ) GLOBAL_UNCERTAINTY_ASSIGNED_CONTEXT ( ( #304 ) ) GLOBAL_UNIT_ASSIGNED_CONTEXT ( ( #102, #210, #155 ) ) REPRESENTATION_CONTEXT ( 'NONE', 'WORKASPACE' ) );
#110 = CARTESIAN_POINT ( 'NONE',  ( 0.1181100000000000344, 1.446430334472939084E-17, 2.937755999999999368 ) ) ;
#111 = PRODUCT ( 'Micro_SBMM-030-415X', 'Micro_SBMM-030-415X', '', ( #83 ) ) ;
#112 = VERTEX_POINT ( 'NONE', #122 ) ;
#113 = EDGE_CURVE ( 'NONE', #208, #28, #77, .T. ) ;
#114 = VECTOR ( 'NONE', #168, 39.37007874015748854 ) ;
#115 = CARTESIAN_POINT ( 'NONE',  ( 0.0000000000000000000, 0.0000000000000000000, 0.1030719981370833843 ) ) ;
#116 = ORIENTED_EDGE ( 'NONE', *, *, #298, .T. ) ;
#117 = EDGE_CURVE ( 'NONE', #179, #309, #173, .T. ) ;
#118 = CARTESIAN_POINT ( 'NONE',  ( 0.0000000000000000000, 0.0000000000000000000, 0.05905500000000000332 ) ) ;
#119 = CONICAL_SURFACE ( 'NONE', #216, 0.1299209999999998144, 0.09065967900408430924 ) ;
#120 = CARTESIAN_POINT ( 'NONE',  ( -0.03936999999999998140, 0.0000000000000000000, 0.1030719981370833843 ) ) ;
#121 = AXIS2_PLACEMENT_3D ( 'NONE', #197, #171, #33 ) ;
#122 = CARTESIAN_POINT ( 'NONE',  ( 0.1181100000000000344, 1.446430334472939084E-17, 1.456693000000000016 ) ) ;
#123 = DIRECTION ( 'NONE',  ( -1.000000000000000000, 0.0000000000000000000, 0.0000000000000000000 ) ) ;
#124 = DIRECTION ( 'NONE',  ( -0.7071067811865486830, 0.0000000000000000000, -0.7071067811865462405 ) ) ;
#125 = CYLINDRICAL_SURFACE ( 'NONE', #151, 0.1181100000000000344 ) ;
#126 = ORIENTED_EDGE ( 'NONE', *, *, #101, .F. ) ;
#127 =( LENGTH_UNIT ( ) NAMED_UNIT ( * ) SI_UNIT ( $, .METRE. ) );
#128 = ORIENTED_EDGE ( 'NONE', *, *, #318, .T. ) ;
#129 = LINE ( 'NONE', #134, #65 ) ;
#130 = ORIENTED_EDGE ( 'NONE', *, *, #343, .T. ) ;
#131 = AXIS2_PLACEMENT_3D ( 'NONE', #59, #224, #172 ) ;
#132 = EDGE_CURVE ( 'NONE', #24, #212, #41, .T. ) ;
#133 = PRESENTATION_LAYER_ASSIGNMENT (  '', '', ( #213 ) ) ;
#134 = CARTESIAN_POINT ( 'NONE',  ( 0.1181100000000000344, 1.446430334472939084E-17, 2.952755999999999936 ) ) ;
#135 = ORIENTED_EDGE ( 'NONE', *, *, #136, .T. ) ;
#136 = EDGE_CURVE ( 'NONE', #180, #237, #232, .T. ) ;
#137 = ORIENTED_EDGE ( 'NONE', *, *, #190, .T. ) ;
#138 = SHAPE_DEFINITION_REPRESENTATION ( #147, #287 ) ;
#139 =( LENGTH_UNIT ( ) NAMED_UNIT ( * ) SI_UNIT ( $, .METRE. ) );
#140 = CIRCLE ( 'NONE', #293, 0.1181100000000000344 ) ;
#141 = AXIS2_PLACEMENT_3D ( 'NONE', #259, #75, #182 ) ;
#142 = CARTESIAN_POINT ( 'NONE',  ( -0.1181100000000000344, 0.0000000000000000000, 1.456693000000000016 ) ) ;
#143 = ORIENTED_EDGE ( 'NONE', *, *, #318, .F. ) ;
#144 = ORIENTED_EDGE ( 'NONE', *, *, #67, .F. ) ;
#145 = AXIS2_PLACEMENT_3D ( 'NONE', #35, #5, #123 ) ;
#146 = PRESENTATION_STYLE_ASSIGNMENT (( #55 ) ) ;
#147 = PRODUCT_DEFINITION_SHAPE ( 'NONE', 'NONE',  #13 ) ;
#148 = FACE_OUTER_BOUND ( 'NONE', #160, .T. ) ;
#149 = CARTESIAN_POINT ( 'NONE',  ( 0.0000000000000000000, 3.616075836182346941E-18, 8.537024980200822558E-18 ) ) ;
#150 = CIRCLE ( 'NONE', #281, 0.03936999999999998140 ) ;
#151 = AXIS2_PLACEMENT_3D ( 'NONE', #159, #229, #204 ) ;
#152 = DIRECTION ( 'NONE',  ( 1.000000000000000000, 0.0000000000000000000, 0.0000000000000000000 ) ) ;
#153 = CARTESIAN_POINT ( 'NONE',  ( 0.0000000000000000000, 0.0000000000000000000, 0.1030719981370833843 ) ) ;
#154 = DIRECTION ( 'NONE',  ( -1.224646799147353207E-16, 1.000000000000000000, 0.0000000000000000000 ) ) ;
#155 =( NAMED_UNIT ( * ) SI_UNIT ( $, .STERADIAN. ) SOLID_ANGLE_UNIT ( ) );
#156 = ORIENTED_EDGE ( 'NONE', *, *, #339, .F. ) ;
#157 = PRODUCT_RELATED_PRODUCT_CATEGORY ( 'part', '', ( #111 ) ) ;
#158 = DIRECTION ( 'NONE',  ( 0.0000000000000000000, 1.000000000000000000, 0.0000000000000000000 ) ) ;
#159 = CARTESIAN_POINT ( 'NONE',  ( 0.0000000000000000000, 0.0000000000000000000, 2.952755999999999936 ) ) ;
#160 = EDGE_LOOP ( 'NONE', ( #103, #163, #130, #47 ) ) ;
#161 = SPHERICAL_SURFACE ( 'NONE', #36, 0.05905499999999999639 ) ;
#162 = DIRECTION ( 'NONE',  ( -0.0000000000000000000, -0.0000000000000000000, -1.000000000000000000 ) ) ;
#163 = ORIENTED_EDGE ( 'NONE', *, *, #117, .F. ) ;
#164 = DIRECTION ( 'NONE',  ( 1.000000000000000000, 0.0000000000000000000, 0.0000000000000000000 ) ) ;
#165 = PRESENTATION_LAYER_ASSIGNMENT (  '', '', ( #276 ) ) ;
#166 = ADVANCED_FACE ( 'NONE', ( #328 ), #119, .T. ) ;
#167 = CARTESIAN_POINT ( 'NONE',  ( 0.0000000000000000000, 0.0000000000000000000, 0.0000000000000000000 ) ) ;
#168 = DIRECTION ( 'NONE',  ( 0.7071067811865486830, 8.659560562354947649E-17, -0.7071067811865462405 ) ) ;
#169 = FILL_AREA_STYLE_COLOUR ( '', #92 ) ;
#170 = CARTESIAN_POINT ( 'NONE',  ( -0.1181100000000000344, 0.0000000000000000000, 2.952755999999999936 ) ) ;
#171 = DIRECTION ( 'NONE',  ( 0.0000000000000000000, 0.0000000000000000000, 1.000000000000000000 ) ) ;
#172 = DIRECTION ( 'NONE',  ( -1.000000000000000000, 0.0000000000000000000, 0.0000000000000000000 ) ) ;
#173 = CIRCLE ( 'NONE', #184, 0.03936999999999993283 ) ;
#174 = DIRECTION ( 'NONE',  ( 0.0000000000000000000, 0.0000000000000000000, 1.000000000000000000 ) ) ;
#175 = DIRECTION ( 'NONE',  ( 0.0000000000000000000, 0.0000000000000000000, 1.000000000000000000 ) ) ;
#176 = PLANE ( 'NONE',  #54 ) ;
#177 = PRODUCT_DEFINITION_CONTEXT ( 'detailed design', #341, 'design' ) ;
#178 = AXIS2_PLACEMENT_3D ( 'NONE', #246, #87, #63 ) ;
#179 = VERTEX_POINT ( 'NONE', #223 ) ;
#180 = VERTEX_POINT ( 'NONE', #249 ) ;
#181 = ORIENTED_EDGE ( 'NONE', *, *, #201, .T. ) ;
#182 = DIRECTION ( 'NONE',  ( 1.000000000000000000, 0.0000000000000000000, 0.0000000000000000000 ) ) ;
#183 = ORIENTED_EDGE ( 'NONE', *, *, #23, .T. ) ;
#184 = AXIS2_PLACEMENT_3D ( 'NONE', #90, #221, #32 ) ;
#185 = AXIS2_PLACEMENT_3D ( 'NONE', #288, #48, #310 ) ;
#186 =( NAMED_UNIT ( * ) SI_UNIT ( $, .STERADIAN. ) SOLID_ANGLE_UNIT ( ) );
#187 = DIRECTION ( 'NONE',  ( -0.0000000000000000000, -0.0000000000000000000, -1.000000000000000000 ) ) ;
#188 = PRESENTATION_STYLE_ASSIGNMENT (( #314 ) ) ;
#189 = ORIENTED_EDGE ( 'NONE', *, *, #298, .F. ) ;
#190 = EDGE_CURVE ( 'NONE', #43, #99, #29, .T. ) ;
#191 = EDGE_LOOP ( 'NONE', ( #49, #308 ) ) ;
#192 = DIRECTION ( 'NONE',  ( 0.0000000000000000000, 0.0000000000000000000, 1.000000000000000000 ) ) ;
#193 = ADVANCED_FACE ( 'NONE', ( #279 ), #324, .T. ) ;
#194 = ORIENTED_EDGE ( 'NONE', *, *, #39, .T. ) ;
#195 = SPHERICAL_SURFACE ( 'NONE', #53, 0.05905499999999999639 ) ;
#196 = AXIS2_PLACEMENT_3D ( 'NONE', #153, #245, #226 ) ;
#197 = CARTESIAN_POINT ( 'NONE',  ( 0.0000000000000000000, 0.0000000000000000000, 1.586614299999997479 ) ) ;
#198 = DIRECTION ( 'NONE',  ( 1.000000000000000000, 0.0000000000000000000, 0.0000000000000000000 ) ) ;
#199 = CARTESIAN_POINT ( 'NONE',  ( 0.0000000000000000000, 0.0000000000000000000, 2.937755999999999368 ) ) ;
#200 = CIRCLE ( 'NONE', #299, 0.05905499999999999639 ) ;
#201 = EDGE_CURVE ( 'NONE', #112, #21, #140, .T. ) ;
#202 = DIRECTION ( 'NONE',  ( 1.000000000000000000, 0.0000000000000000000, 0.0000000000000000000 ) ) ;
#203 = LINE ( 'NONE', #330, #239 ) ;
#204 = DIRECTION ( 'NONE',  ( -1.000000000000000000, 0.0000000000000000000, 0.0000000000000000000 ) ) ;
#205 = ORIENTED_EDGE ( 'NONE', *, *, #82, .T. ) ;
#206 = AXIS2_PLACEMENT_3D ( 'NONE', #268, #56, #80 ) ;
#207 = CARTESIAN_POINT ( 'NONE',  ( 0.0000000000000000000, 0.0000000000000000000, 0.0000000000000000000 ) ) ;
#208 = VERTEX_POINT ( 'NONE', #62 ) ;
#209 = MECHANICAL_DESIGN_GEOMETRIC_PRESENTATION_REPRESENTATION (  '', ( #213 ), #277 ) ;
#210 =( NAMED_UNIT ( * ) PLANE_ANGLE_UNIT ( ) SI_UNIT ( $, .RADIAN. ) );
#211 = CARTESIAN_POINT ( 'NONE',  ( -0.1031099999999991745, 0.0000000000000000000, 2.952755999999999936 ) ) ;
#212 = VERTEX_POINT ( 'NONE', #38 ) ;
#213 = STYLED_ITEM ( 'NONE', ( #188 ), #287 ) ;
#214 =( LENGTH_UNIT ( ) NAMED_UNIT ( * ) SI_UNIT ( $, .METRE. ) );
#215 = EDGE_LOOP ( 'NONE', ( #283, #116, #181, #76 ) ) ;
#216 = AXIS2_PLACEMENT_3D ( 'NONE', #322, #175, #152 ) ;
#217 = ADVANCED_FACE ( 'NONE', ( #88 ), #195, .T. ) ;
#218 = DIRECTION ( 'NONE',  ( 0.0000000000000000000, 0.0000000000000000000, 1.000000000000000000 ) ) ;
#219 = DIRECTION ( 'NONE',  ( -1.000000000000000000, 0.0000000000000000000, 0.0000000000000000000 ) ) ;
#220 = ADVANCED_FACE ( 'NONE', ( #148 ), #93, .T. ) ;
#221 = DIRECTION ( 'NONE',  ( -0.0000000000000000000, -0.0000000000000000000, -1.000000000000000000 ) ) ;
#222 = DIMENSIONAL_EXPONENTS ( 1.000000000000000000, 0.0000000000000000000, 0.0000000000000000000, 0.0000000000000000000, 0.0000000000000000000, 0.0000000000000000000, 0.0000000000000000000 ) ;
#223 = CARTESIAN_POINT ( 'NONE',  ( 0.03936999999999993283, 0.0000000000000000000, 0.5905510000000000481 ) ) ;
#224 = DIRECTION ( 'NONE',  ( -0.0000000000000000000, -0.0000000000000000000, -1.000000000000000000 ) ) ;
#225 = CARTESIAN_POINT ( 'NONE',  ( 0.0000000000000000000, 0.0000000000000000000, 2.952755999999999936 ) ) ;
#226 = DIRECTION ( 'NONE',  ( -1.000000000000000000, 0.0000000000000000000, 0.0000000000000000000 ) ) ;
#227 = MECHANICAL_DESIGN_GEOMETRIC_PRESENTATION_REPRESENTATION (  '', ( #276 ), #64 ) ;
#228 = VECTOR ( 'NONE', #124, 39.37007874015748854 ) ;
#229 = DIRECTION ( 'NONE',  ( -0.0000000000000000000, -0.0000000000000000000, -1.000000000000000000 ) ) ;
#230 = FACE_OUTER_BOUND ( 'NONE', #191, .T. ) ;
#231 = ORIENTED_EDGE ( 'NONE', *, *, #339, .T. ) ;
#232 = CIRCLE ( 'NONE', #271, 0.05905499999999998945 ) ;
#233 = LINE ( 'NONE', #211, #228 ) ;
#234 = CIRCLE ( 'NONE', #141, 0.1031099999999991745 ) ;
#235 = CARTESIAN_POINT ( 'NONE',  ( -0.03936999999999993283, 9.642868896486255427E-18, 0.5905510000000000481 ) ) ;
#236 = ORIENTED_EDGE ( 'NONE', *, *, #57, .F. ) ;
#237 = VERTEX_POINT ( 'NONE', #149 ) ;
#238 = SURFACE_SIDE_STYLE ('',( #295 ) ) ;
#239 = VECTOR ( 'NONE', #338, 39.37007874015748143 ) ;
#240 = CARTESIAN_POINT ( 'NONE',  ( 0.1031099999999991745, 1.354581824536882559E-17, 2.952755999999999936 ) ) ;
#241 = VERTEX_POINT ( 'NONE', #120 ) ;
#242 = DIRECTION ( 'NONE',  ( 0.0000000000000000000, 0.0000000000000000000, -1.000000000000000000 ) ) ;
#243 = ORIENTED_EDGE ( 'NONE', *, *, #201, .F. ) ;
#244 = DIMENSIONAL_EXPONENTS ( 1.000000000000000000, 0.0000000000000000000, 0.0000000000000000000, 0.0000000000000000000, 0.0000000000000000000, 0.0000000000000000000, 0.0000000000000000000 ) ;
#245 = DIRECTION ( 'NONE',  ( -0.0000000000000000000, -0.0000000000000000000, -1.000000000000000000 ) ) ;
#246 = CARTESIAN_POINT ( 'NONE',  ( 0.0000000000000000000, 0.0000000000000000000, 0.0000000000000000000 ) ) ;
#247 = CIRCLE ( 'NONE', #108, 0.1181100000000000344 ) ;
#248 = AXIS2_PLACEMENT_3D ( 'NONE', #167, #218, #85 ) ;
#249 = CARTESIAN_POINT ( 'NONE',  ( 0.0000000000000000000, 0.03936999999999998140, 0.1030719981370833843 ) ) ;
#250 = CARTESIAN_POINT ( 'NONE',  ( -0.03936999999999996058, 0.0000000000000000000, 0.0000000000000000000 ) ) ;
#251 = CARTESIAN_POINT ( 'NONE',  ( 0.0000000000000000000, 0.0000000000000000000, 0.05905500000000000332 ) ) ;
#252 = CIRCLE ( 'NONE', #131, 0.03936999999999998140 ) ;
#253 = ORIENTED_EDGE ( 'NONE', *, *, #132, .T. ) ;
#254 = DIRECTION ( 'NONE',  ( -0.0000000000000000000, -0.0000000000000000000, -1.000000000000000000 ) ) ;
#255 = EDGE_LOOP ( 'NONE', ( #189, #137, #340, #107 ) ) ;
#256 = FACE_OUTER_BOUND ( 'NONE', #255, .T. ) ;
#257 = ADVANCED_FACE ( 'NONE', ( #42 ), #161, .T. ) ;
#258 = VECTOR ( 'NONE', #30, 39.37007874015748143 ) ;
#259 = CARTESIAN_POINT ( 'NONE',  ( 0.0000000000000000000, 0.0000000000000000000, 2.952755999999999936 ) ) ;
#260 = ORIENTED_EDGE ( 'NONE', *, *, #136, .F. ) ;
#261 = CARTESIAN_POINT ( 'NONE',  ( 0.0000000000000000000, 0.0000000000000000000, 0.5905510000000000481 ) ) ;
#262 = ORIENTED_EDGE ( 'NONE', *, *, #101, .T. ) ;
#263 = SURFACE_STYLE_FILL_AREA ( #51 ) ;
#264 =( CONVERSION_BASED_UNIT ( 'INCH', #79 ) LENGTH_UNIT ( ) NAMED_UNIT ( #269 ) );
#265 = FACE_OUTER_BOUND ( 'NONE', #97, .T. ) ;
#266 = CONICAL_SURFACE ( 'NONE', #100, 0.1031099999999991745, 0.7853981633974500554 ) ;
#267 = CARTESIAN_POINT ( 'NONE',  ( 0.0000000000000000000, 0.0000000000000000000, 2.952755999999999936 ) ) ;
#268 = CARTESIAN_POINT ( 'NONE',  ( 0.0000000000000000000, 0.0000000000000000000, 2.952755999999999936 ) ) ;
#269 = DIMENSIONAL_EXPONENTS ( 1.000000000000000000, 0.0000000000000000000, 0.0000000000000000000, 0.0000000000000000000, 0.0000000000000000000, 0.0000000000000000000, 0.0000000000000000000 ) ;
#270 = SURFACE_SIDE_STYLE ('',( #263 ) ) ;
#271 = AXIS2_PLACEMENT_3D ( 'NONE', #251, #278, #273 ) ;
#272 = DIRECTION ( 'NONE',  ( -0.0000000000000000000, -0.0000000000000000000, -1.000000000000000000 ) ) ;
#273 = DIRECTION ( 'NONE',  ( 0.0000000000000000000, 0.0000000000000000000, 1.000000000000000000 ) ) ;
#274 = EDGE_CURVE ( 'NONE', #28, #208, #234, .T. ) ;
#275 = DIRECTION ( 'NONE',  ( 0.0000000000000000000, 1.000000000000000000, 0.0000000000000000000 ) ) ;
#276 = STYLED_ITEM ( 'NONE', ( #146 ), #50 ) ;
#277 =( GEOMETRIC_REPRESENTATION_CONTEXT ( 3 ) GLOBAL_UNCERTAINTY_ASSIGNED_CONTEXT ( ( #280 ) ) GLOBAL_UNIT_ASSIGNED_CONTEXT ( ( #264, #58, #186 ) ) REPRESENTATION_CONTEXT ( 'NONE', 'WORKASPACE' ) );
#278 = DIRECTION ( 'NONE',  ( -1.000000000000000000, 0.0000000000000000000, 0.0000000000000000000 ) ) ;
#279 = FACE_OUTER_BOUND ( 'NONE', #333, .T. ) ;
#280 = UNCERTAINTY_MEASURE_WITH_UNIT (LENGTH_MEASURE( 1.000000000000000082E-05 ), #264, 'distance_accuracy_value', 'NONE');
#281 = AXIS2_PLACEMENT_3D ( 'NONE', #66, #61, #300 ) ;
#282 = AXIS2_PLACEMENT_3D ( 'NONE', #261, #71, #307 ) ;
#283 = ORIENTED_EDGE ( 'NONE', *, *, #311, .T. ) ;
#284 = ORIENTED_EDGE ( 'NONE', *, *, #274, .F. ) ;
#285 = CARTESIAN_POINT ( 'NONE',  ( 0.03936999999999996058, 4.821434448243124632E-18, 0.0000000000000000000 ) ) ;
#286 = ORIENTED_EDGE ( 'NONE', *, *, #82, .F. ) ;
#287 = ADVANCED_BREP_SHAPE_REPRESENTATION ( 'Micro_SBMM-030-415X', ( #50, #248 ), #109 ) ;
#288 = CARTESIAN_POINT ( 'NONE',  ( 0.0000000000000000000, 0.0000000000000000000, 2.937755999999999368 ) ) ;
#289 = VECTOR ( 'NONE', #331, 39.37007874015748143 ) ;
#290 = ORIENTED_EDGE ( 'NONE', *, *, #8, .F. ) ;
#291 = DIRECTION ( 'NONE',  ( -1.000000000000000000, 0.0000000000000000000, 0.0000000000000000000 ) ) ;
#292 = CARTESIAN_POINT ( 'NONE',  ( 0.03936999999999998140, 4.821434448243127714E-18, 0.1030719981370833843 ) ) ;
#293 = AXIS2_PLACEMENT_3D ( 'NONE', #301, #303, #202 ) ;
#294 =( CONVERSION_BASED_UNIT ( 'INCH', #317 ) LENGTH_UNIT ( ) NAMED_UNIT ( #222 ) );
#295 = SURFACE_STYLE_FILL_AREA ( #316 ) ;
#296 = CARTESIAN_POINT ( 'NONE',  ( 0.0000000000000000000, 0.0000000000000000000, 1.456693000000000016 ) ) ;
#297 = CARTESIAN_POINT ( 'NONE',  ( 0.0000000000000000000, 0.0000000000000000000, 0.05905500000000000332 ) ) ;
#298 = EDGE_CURVE ( 'NONE', #43, #112, #129, .T. ) ;
#299 = AXIS2_PLACEMENT_3D ( 'NONE', #118, #326, #154 ) ;
#300 = DIRECTION ( 'NONE',  ( -1.000000000000000000, 0.0000000000000000000, 0.0000000000000000000 ) ) ;
#301 = CARTESIAN_POINT ( 'NONE',  ( 0.0000000000000000000, 0.0000000000000000000, 1.456693000000000016 ) ) ;
#302 = DIRECTION ( 'NONE',  ( 1.000000000000000000, 0.0000000000000000000, 0.0000000000000000000 ) ) ;
#303 = DIRECTION ( 'NONE',  ( 0.0000000000000000000, 0.0000000000000000000, 1.000000000000000000 ) ) ;
#304 = UNCERTAINTY_MEASURE_WITH_UNIT (LENGTH_MEASURE( 1.000000000000000082E-05 ), #102, 'distance_accuracy_value', 'NONE');
#305 = ORIENTED_EDGE ( 'NONE', *, *, #23, .F. ) ;
#306 = CIRCLE ( 'NONE', #185, 0.1181100000000000344 ) ;
#307 = DIRECTION ( 'NONE',  ( -1.000000000000000000, 0.0000000000000000000, 0.0000000000000000000 ) ) ;
#308 = ORIENTED_EDGE ( 'NONE', *, *, #274, .T. ) ;
#309 = VERTEX_POINT ( 'NONE', #235 ) ;
#310 = DIRECTION ( 'NONE',  ( 1.000000000000000000, 0.0000000000000000000, 0.0000000000000000000 ) ) ;
#311 = EDGE_CURVE ( 'NONE', #99, #43, #306, .T. ) ;
#312 = EDGE_LOOP ( 'NONE', ( #19, #253, #205, #260 ) ) ;
#313 = CLOSED_SHELL ( 'NONE', ( #323, #217, #166, #10, #104, #332, #337, #34, #220, #257, #193 ) ) ;
#314 = SURFACE_STYLE_USAGE ( .BOTH. , #238 ) ;
#315 = ORIENTED_EDGE ( 'NONE', *, *, #132, .F. ) ;
#316 = FILL_AREA_STYLE ('',( #2 ) ) ;
#317 = LENGTH_MEASURE_WITH_UNIT ( LENGTH_MEASURE( 0.02539999999999999897 ), #139 );
#318 = EDGE_CURVE ( 'NONE', #179, #24, #98, .T. ) ;
#319 = VECTOR ( 'NONE', #11, 39.37007874015748143 ) ;
#320 = CARTESIAN_POINT ( 'NONE',  ( 0.1031099999999991745, 1.262733314600825725E-17, 2.952755999999999936 ) ) ;
#321 = LINE ( 'NONE', #86, #258 ) ;
#322 = CARTESIAN_POINT ( 'NONE',  ( 0.0000000000000000000, 0.0000000000000000000, 1.586614299999997479 ) ) ;
#323 = ADVANCED_FACE ( 'NONE', ( #96 ), #16, .T. ) ;
#324 = CYLINDRICAL_SURFACE ( 'NONE', #178, 0.03936999999999996058 ) ;
#325 = AXIS2_PLACEMENT_3D ( 'NONE', #225, #174, #302 ) ;
#326 = DIRECTION ( 'NONE',  ( 1.000000000000000000, 1.224646799147353207E-16, -0.0000000000000000000 ) ) ;
#327 = LINE ( 'NONE', #250, #319 ) ;
#328 = FACE_OUTER_BOUND ( 'NONE', #1, .T. ) ;
#329 = CIRCLE ( 'NONE', #81, 0.03936999999999998140 ) ;
#330 = CARTESIAN_POINT ( 'NONE',  ( 0.1299209999999998144, 0.0000000000000000000, 1.586614299999997479 ) ) ;
#331 = DIRECTION ( 'NONE',  ( -0.0000000000000000000, -0.0000000000000000000, -1.000000000000000000 ) ) ;
#332 = ADVANCED_FACE ( 'NONE', ( #256 ), #125, .T. ) ;
#333 = EDGE_LOOP ( 'NONE', ( #143, #15, #262, #144, #315 ) ) ;
#334 = APPLICATION_CONTEXT ( 'automotive_design' ) ;
#335 = EDGE_CURVE ( 'NONE', #309, #179, #6, .T. ) ;
#336 = VECTOR ( 'NONE', #272, 39.37007874015748143 ) ;
#337 = ADVANCED_FACE ( 'NONE', ( #230 ), #176, .T. ) ;
#338 = DIRECTION ( 'NONE',  ( 0.09053553870087646671, 0.0000000000000000000, 0.9958932253169222593 ) ) ;
#339 = EDGE_CURVE ( 'NONE', #208, #99, #233, .T. ) ;
#340 = ORIENTED_EDGE ( 'NONE', *, *, #95, .T. ) ;
#341 = APPLICATION_CONTEXT ( 'automotive_design' ) ;
#342 = AXIS2_PLACEMENT_3D ( 'NONE', #199, #91, #198 ) ;
#343 = EDGE_CURVE ( 'NONE', #179, #112, #203, .T. ) ;
#344 = EDGE_LOOP ( 'NONE', ( #284, #183, #44, #156 ) ) ;
#345 = FACE_OUTER_BOUND ( 'NONE', #344, .T. ) ;
ENDSEC;
END-ISO-10303-21;
