ISO-10303-21;
HEADER;
FILE_DESCRIPTION (( 'STEP AP214' ),
    '1' );
FILE_NAME ('05517.STEP',
    '2023-06-22T16:11:17',
    ( '' ),
    ( '' ),
    'SwSTEP 2.0',
    'SolidWorks 2023',
    '' );
FILE_SCHEMA (( 'AUTOMOTIVE_DESIGN' ));
ENDSEC;

DATA;
#1 = MECHANICAL_DESIGN_GEOMETRIC_PRESENTATION_REPRESENTATION (  '', ( #130 ), #280 ) ;
#2 = AXIS2_PLACEMENT_3D ( 'NONE', #158, #24, #276 ) ;
#3 = STYLED_ITEM ( 'NONE', ( #21 ), #233 ) ;
#4 = APPLICATION_PROTOCOL_DEFINITION ( 'draft international standard', 'automotive_design', 1998, #256 ) ;
#5 = UNCERTAINTY_MEASURE_WITH_UNIT (LENGTH_MEASURE( 1.000000000000000082E-05 ), #193, 'distance_accuracy_value', 'NONE');
#6 = FACE_OUTER_BOUND ( 'NONE', #60, .T. ) ;
#7 = DIRECTION ( 'NONE',  ( -1.000000000000000000, 0.000000000000000000, 0.000000000000000000 ) ) ;
#8 = STYLED_ITEM ( 'NONE', ( #290 ), #184 ) ;
#9 =( NAMED_UNIT ( * ) SI_UNIT ( $, .STERADIAN. ) SOLID_ANGLE_UNIT ( ) );
#10 = AXIS2_PLACEMENT_3D ( 'NONE', #246, #44, #72 ) ;
#11 = SURFACE_SIDE_STYLE ('',( #299 ) ) ;
#12 = PLANE ( 'NONE',  #289 ) ;
#13 =( CONVERSION_BASED_UNIT ( 'INCH', #119 ) LENGTH_UNIT ( ) NAMED_UNIT ( #173 ) );
#14 =( NAMED_UNIT ( * ) PLANE_ANGLE_UNIT ( ) SI_UNIT ( $, .RADIAN. ) );
#15 =( NAMED_UNIT ( * ) PLANE_ANGLE_UNIT ( ) SI_UNIT ( $, .RADIAN. ) );
#16 = MECHANICAL_DESIGN_GEOMETRIC_PRESENTATION_REPRESENTATION (  '', ( #34 ), #78 ) ;
#17 = CYLINDRICAL_SURFACE ( 'NONE', #104, 0.2500000000000000555 ) ;
#18 = FILL_AREA_STYLE ('',( #70 ) ) ;
#19 = ORIENTED_EDGE ( 'NONE', *, *, #255, .F. ) ;
#20 = UNCERTAINTY_MEASURE_WITH_UNIT (LENGTH_MEASURE( 1.000000000000000082E-05 ), #13, 'distance_accuracy_value', 'NONE');
#21 = PRESENTATION_STYLE_ASSIGNMENT (( #46 ) ) ;
#22 = ORIENTED_EDGE ( 'NONE', *, *, #89, .T. ) ;
#23 = FILL_AREA_STYLE ('',( #80 ) ) ;
#24 = DIRECTION ( 'NONE',  ( -6.123233995736763571E-17, 1.000000000000000000, -0.000000000000000000 ) ) ;
#25 = STYLED_ITEM ( 'NONE', ( #54 ), #38 ) ;
#26 = DIRECTION ( 'NONE',  ( -0.000000000000000000, -1.000000000000000000, -0.000000000000000000 ) ) ;
#27 = LENGTH_MEASURE_WITH_UNIT ( LENGTH_MEASURE( 0.02539999999999999897 ), #123 );
#28 = SURFACE_SIDE_STYLE ('',( #201 ) ) ;
#29 = VECTOR ( 'NONE', #300, 39.37007874015748143 ) ;
#30 = FACE_OUTER_BOUND ( 'NONE', #102, .T. ) ;
#31 = VECTOR ( 'NONE', #71, 39.37007874015748143 ) ;
#32 =( LENGTH_UNIT ( ) NAMED_UNIT ( * ) SI_UNIT ( $, .METRE. ) );
#33 = FILL_AREA_STYLE ('',( #211 ) ) ;
#34 = STYLED_ITEM ( 'NONE', ( #229 ), #146 ) ;
#35 = ORIENTED_EDGE ( 'NONE', *, *, #226, .F. ) ;
#36 = DIMENSIONAL_EXPONENTS ( 1.000000000000000000, 0.000000000000000000, 0.000000000000000000, 0.000000000000000000, 0.000000000000000000, 0.000000000000000000, 0.000000000000000000 ) ;
#37 = CARTESIAN_POINT ( 'NONE',  ( -1.224646799147352714E-16, 4.000000000000000000, 0.000000000000000000 ) ) ;
#38 = ADVANCED_FACE ( 'NONE', ( #6 ), #133, .T. ) ;
#39 = CARTESIAN_POINT ( 'NONE',  ( 4.686749320818301603E-34, 2.000000000000000000, 0.000000000000000000 ) ) ;
#40 = DIRECTION ( 'NONE',  ( -0.000000000000000000, -1.000000000000000000, -0.000000000000000000 ) ) ;
#41 =( LENGTH_UNIT ( ) NAMED_UNIT ( * ) SI_UNIT ( $, .METRE. ) );
#42 = FILL_AREA_STYLE_COLOUR ( '', #294 ) ;
#43 = LENGTH_MEASURE_WITH_UNIT ( LENGTH_MEASURE( 0.02539999999999999897 ), #271 );
#44 = DIRECTION ( 'NONE',  ( -6.123233995736763571E-17, 1.000000000000000000, -0.000000000000000000 ) ) ;
#45 = UNCERTAINTY_MEASURE_WITH_UNIT (LENGTH_MEASURE( 1.000000000000000082E-05 ), #308, 'distance_accuracy_value', 'NONE');
#46 = SURFACE_STYLE_USAGE ( .BOTH. , #91 ) ;
#47 = CARTESIAN_POINT ( 'NONE',  ( 3.061616997868383018E-17, 0.000000000000000000, 0.2500000000000000000 ) ) ;
#48 = CARTESIAN_POINT ( 'NONE',  ( 1.516480271171051896E-32, 2.000000000000000000, 0.000000000000000000 ) ) ;
#49 = CARTESIAN_POINT ( 'NONE',  ( 0.000000000000000000, 2.000000000000000000, -0.2500000000000000000 ) ) ;
#50 = DIRECTION ( 'NONE',  ( -6.123233995736763571E-17, 1.000000000000000000, -0.000000000000000000 ) ) ;
#51 = ORIENTED_EDGE ( 'NONE', *, *, #76, .T. ) ;
#52 = ADVANCED_FACE ( 'NONE', ( #30 ), #288, .T. ) ;
#53 = DIRECTION ( 'NONE',  ( 1.000000000000000000, 0.000000000000000000, 0.000000000000000000 ) ) ;
#54 = PRESENTATION_STYLE_ASSIGNMENT (( #74 ) ) ;
#55 = CIRCLE ( 'NONE', #180, 0.2500000000000000000 ) ;
#56 = STYLED_ITEM ( 'NONE', ( #61 ), #155 ) ;
#57 = ADVANCED_FACE ( 'NONE', ( #95 ), #275, .T. ) ;
#58 = DIRECTION ( 'NONE',  ( 1.000000000000000000, 6.123233995736763571E-17, 0.000000000000000000 ) ) ;
#59 = DIRECTION ( 'NONE',  ( -1.000000000000000000, -6.123233995736763571E-17, 0.000000000000000000 ) ) ;
#60 = EDGE_LOOP ( 'NONE', ( #51, #264, #19, #291 ) ) ;
#61 = PRESENTATION_STYLE_ASSIGNMENT (( #176 ) ) ;
#62 =( NAMED_UNIT ( * ) PLANE_ANGLE_UNIT ( ) SI_UNIT ( $, .RADIAN. ) );
#63 = CARTESIAN_POINT ( 'NONE',  ( 0.000000000000000000, 0.000000000000000000, 0.000000000000000000 ) ) ;
#64 =( NAMED_UNIT ( * ) SI_UNIT ( $, .STERADIAN. ) SOLID_ANGLE_UNIT ( ) );
#65 = AXIS2_PLACEMENT_3D ( 'NONE', #142, #26, #114 ) ;
#66 = DIRECTION ( 'NONE',  ( -0.000000000000000000, -1.000000000000000000, -0.000000000000000000 ) ) ;
#67 = DIRECTION ( 'NONE',  ( -0.000000000000000000, -1.000000000000000000, -0.000000000000000000 ) ) ;
#68 = DIRECTION ( 'NONE',  ( -6.123233995736763571E-17, 1.000000000000000000, -0.000000000000000000 ) ) ;
#69 = DIRECTION ( 'NONE',  ( -0.000000000000000000, -1.000000000000000000, -0.000000000000000000 ) ) ;
#70 = FILL_AREA_STYLE_COLOUR ( '', #236 ) ;
#71 = DIRECTION ( 'NONE',  ( -0.000000000000000000, -1.000000000000000000, -0.000000000000000000 ) ) ;
#72 = DIRECTION ( 'NONE',  ( -1.000000000000000000, 0.000000000000000000, 0.000000000000000000 ) ) ;
#73 = FILL_AREA_STYLE_COLOUR ( '', #293 ) ;
#74 = SURFACE_STYLE_USAGE ( .BOTH. , #11 ) ;
#75 =( GEOMETRIC_REPRESENTATION_CONTEXT ( 3 ) GLOBAL_UNCERTAINTY_ASSIGNED_CONTEXT ( ( #5 ) ) GLOBAL_UNIT_ASSIGNED_CONTEXT ( ( #193, #14, #177 ) ) REPRESENTATION_CONTEXT ( 'NONE', 'WORKASPACE' ) );
#76 = EDGE_CURVE ( 'NONE', #143, #274, #216, .T. ) ;
#77 = VECTOR ( 'NONE', #50, 39.37007874015748143 ) ;
#78 =( GEOMETRIC_REPRESENTATION_CONTEXT ( 3 ) GLOBAL_UNCERTAINTY_ASSIGNED_CONTEXT ( ( #20 ) ) GLOBAL_UNIT_ASSIGNED_CONTEXT ( ( #13, #62, #278 ) ) REPRESENTATION_CONTEXT ( 'NONE', 'WORKASPACE' ) );
#79 = DIRECTION ( 'NONE',  ( -0.000000000000000000, -1.000000000000000000, -0.000000000000000000 ) ) ;
#80 = FILL_AREA_STYLE_COLOUR ( '', #302 ) ;
#81 = SURFACE_STYLE_USAGE ( .BOTH. , #194 ) ;
#82 =( LENGTH_UNIT ( ) NAMED_UNIT ( * ) SI_UNIT ( $, .METRE. ) );
#83 = DIMENSIONAL_EXPONENTS ( 1.000000000000000000, 0.000000000000000000, 0.000000000000000000, 0.000000000000000000, 0.000000000000000000, 0.000000000000000000, 0.000000000000000000 ) ;
#84 = EDGE_LOOP ( 'NONE', ( #129, #224, #240, #35 ) ) ;
#85 = AXIS2_PLACEMENT_3D ( 'NONE', #165, #252, #100 ) ;
#86 = VERTEX_POINT ( 'NONE', #248 ) ;
#87 = ORIENTED_EDGE ( 'NONE', *, *, #265, .T. ) ;
#88 = SURFACE_STYLE_FILL_AREA ( #113 ) ;
#89 = EDGE_CURVE ( 'NONE', #222, #86, #254, .T. ) ;
#90 = AXIS2_PLACEMENT_3D ( 'NONE', #204, #69, #161 ) ;
#91 = SURFACE_SIDE_STYLE ('',( #181 ) ) ;
#92 = AXIS2_PLACEMENT_3D ( 'NONE', #139, #116, #58 ) ;
#93 =( NAMED_UNIT ( * ) PLANE_ANGLE_UNIT ( ) SI_UNIT ( $, .RADIAN. ) );
#94 = ORIENTED_EDGE ( 'NONE', *, *, #89, .F. ) ;
#95 = FACE_OUTER_BOUND ( 'NONE', #84, .T. ) ;
#96 = PRESENTATION_LAYER_ASSIGNMENT (  '', '', ( #3 ) ) ;
#97 = COLOUR_RGB ( '',1.000000000000000000, 0.000000000000000000, 0.000000000000000000 ) ;
#98 = UNCERTAINTY_MEASURE_WITH_UNIT (LENGTH_MEASURE( 1.000000000000000082E-05 ), #263, 'distance_accuracy_value', 'NONE');
#99 = EDGE_CURVE ( 'NONE', #274, #195, #284, .T. ) ;
#100 = DIRECTION ( 'NONE',  ( 0.000000000000000000, -0.000000000000000000, 1.000000000000000000 ) ) ;
#101 = APPLICATION_CONTEXT ( 'automotive_design' ) ;
#102 = EDGE_LOOP ( 'NONE', ( #227, #163, #87, #218 ) ) ;
#103 = PRODUCT_DEFINITION_SHAPE ( 'NONE', 'NONE',  #186 ) ;
#104 = AXIS2_PLACEMENT_3D ( 'NONE', #241, #153, #199 ) ;
#105 = ORIENTED_EDGE ( 'NONE', *, *, #286, .F. ) ;
#106 = VERTEX_POINT ( 'NONE', #309 ) ;
#107 = SURFACE_STYLE_FILL_AREA ( #18 ) ;
#108 = AXIS2_PLACEMENT_3D ( 'NONE', #48, #140, #7 ) ;
#109 = FILL_AREA_STYLE ('',( #42 ) ) ;
#110 = ORIENTED_EDGE ( 'NONE', *, *, #257, .T. ) ;
#111 = DIRECTION ( 'NONE',  ( 0.000000000000000000, 0.000000000000000000, -1.000000000000000000 ) ) ;
#112 = DIRECTION ( 'NONE',  ( -1.000000000000000000, 0.000000000000000000, 0.000000000000000000 ) ) ;
#113 = FILL_AREA_STYLE ('',( #73 ) ) ;
#114 = DIRECTION ( 'NONE',  ( 0.000000000000000000, 0.000000000000000000, -1.000000000000000000 ) ) ;
#115 = CIRCLE ( 'NONE', #65, 0.2500000000000000000 ) ;
#116 = DIRECTION ( 'NONE',  ( 6.123233995736763571E-17, -1.000000000000000000, 0.000000000000000000 ) ) ;
#117 = ORIENTED_EDGE ( 'NONE', *, *, #255, .T. ) ;
#118 = PRESENTATION_STYLE_ASSIGNMENT (( #121 ) ) ;
#119 = LENGTH_MEASURE_WITH_UNIT ( LENGTH_MEASURE( 0.02539999999999999897 ), #154 );
#120 = CARTESIAN_POINT ( 'NONE',  ( 3.061616997868383018E-17, 2.000000000000000000, 0.2500000000000000000 ) ) ;
#121 = SURFACE_STYLE_USAGE ( .BOTH. , #28 ) ;
#122 = UNCERTAINTY_MEASURE_WITH_UNIT (LENGTH_MEASURE( 1.000000000000000082E-05 ), #134, 'distance_accuracy_value', 'NONE');
#123 =( LENGTH_UNIT ( ) NAMED_UNIT ( * ) SI_UNIT ( $, .METRE. ) );
#124 = VECTOR ( 'NONE', #145, 39.37007874015748143 ) ;
#125 = CIRCLE ( 'NONE', #157, 0.2500000000000001110 ) ;
#126 = SURFACE_STYLE_FILL_AREA ( #33 ) ;
#127 =( GEOMETRIC_REPRESENTATION_CONTEXT ( 3 ) GLOBAL_UNCERTAINTY_ASSIGNED_CONTEXT ( ( #122 ) ) GLOBAL_UNIT_ASSIGNED_CONTEXT ( ( #134, #206, #285 ) ) REPRESENTATION_CONTEXT ( 'NONE', 'WORKASPACE' ) );
#128 = ORIENTED_EDGE ( 'NONE', *, *, #141, .T. ) ;
#129 = ORIENTED_EDGE ( 'NONE', *, *, #237, .F. ) ;
#130 = STYLED_ITEM ( 'NONE', ( #118 ), #52 ) ;
#131 = PRESENTATION_LAYER_ASSIGNMENT (  '', '', ( #25 ) ) ;
#132 = AXIS2_PLACEMENT_3D ( 'NONE', #251, #283, #53 ) ;
#133 = CYLINDRICAL_SURFACE ( 'NONE', #144, 0.2500000000000000000 ) ;
#134 =( CONVERSION_BASED_UNIT ( 'INCH', #43 ) LENGTH_UNIT ( ) NAMED_UNIT ( #83 ) );
#135 =( LENGTH_UNIT ( ) NAMED_UNIT ( * ) SI_UNIT ( $, .METRE. ) );
#136 = DIRECTION ( 'NONE',  ( 0.000000000000000000, -1.000000000000000000, -0.000000000000000000 ) ) ;
#137 = EDGE_LOOP ( 'NONE', ( #94, #242 ) ) ;
#138 = LINE ( 'NONE', #178, #29 ) ;
#139 = CARTESIAN_POINT ( 'NONE',  ( 0.2500000000000000000, 4.000000000000000000, 0.000000000000000000 ) ) ;
#140 = DIRECTION ( 'NONE',  ( -6.123233995736763571E-17, 1.000000000000000000, -0.000000000000000000 ) ) ;
#141 = EDGE_CURVE ( 'NONE', #195, #277, #230, .T. ) ;
#142 = CARTESIAN_POINT ( 'NONE',  ( 0.000000000000000000, 0.000000000000000000, 0.000000000000000000 ) ) ;
#143 = VERTEX_POINT ( 'NONE', #49 ) ;
#144 = AXIS2_PLACEMENT_3D ( 'NONE', #63, #67, #292 ) ;
#145 = DIRECTION ( 'NONE',  ( -0.000000000000000000, -1.000000000000000000, -0.000000000000000000 ) ) ;
#146 = MANIFOLD_SOLID_BREP ( 'Revolve - Cutting Edge', #151 ) ;
#147 = CARTESIAN_POINT ( 'NONE',  ( 3.061616997868383018E-17, 0.000000000000000000, 0.2500000000000000000 ) ) ;
#148 = PRODUCT_CONTEXT ( 'NONE', #101, 'mechanical' ) ;
#149 = PRESENTATION_LAYER_ASSIGNMENT (  '', '', ( #34 ) ) ;
#150 =( NAMED_UNIT ( * ) PLANE_ANGLE_UNIT ( ) SI_UNIT ( $, .RADIAN. ) );
#151 = CLOSED_SHELL ( 'NONE', ( #38, #155, #52, #184 ) ) ;
#152 = CIRCLE ( 'NONE', #238, 0.2500000000000000000 ) ;
#153 = DIRECTION ( 'NONE',  ( -6.123233995736763571E-17, 1.000000000000000000, -0.000000000000000000 ) ) ;
#154 =( LENGTH_UNIT ( ) NAMED_UNIT ( * ) SI_UNIT ( $, .METRE. ) );
#155 = ADVANCED_FACE ( 'NONE', ( #225 ), #268, .T. ) ;
#156 = CARTESIAN_POINT ( 'NONE',  ( -0.2500000000000000000, 2.000000000000000000, 0.000000000000000000 ) ) ;
#157 = AXIS2_PLACEMENT_3D ( 'NONE', #37, #220, #267 ) ;
#158 = CARTESIAN_POINT ( 'NONE',  ( -1.224646799147352714E-16, 4.000000000000000000, 0.000000000000000000 ) ) ;
#159 = CARTESIAN_POINT ( 'NONE',  ( 0.000000000000000000, 0.000000000000000000, 0.000000000000000000 ) ) ;
#160 = LENGTH_MEASURE_WITH_UNIT ( LENGTH_MEASURE( 0.02539999999999999897 ), #41 );
#161 = DIRECTION ( 'NONE',  ( 0.000000000000000000, 0.000000000000000000, -1.000000000000000000 ) ) ;
#162 = CARTESIAN_POINT ( 'NONE',  ( -0.2500000000000002220, 4.000000000000000000, 0.000000000000000000 ) ) ;
#163 = ORIENTED_EDGE ( 'NONE', *, *, #170, .T. ) ;
#164 =( GEOMETRIC_REPRESENTATION_CONTEXT ( 3 ) GLOBAL_UNCERTAINTY_ASSIGNED_CONTEXT ( ( #167 ) ) GLOBAL_UNIT_ASSIGNED_CONTEXT ( ( #306, #15, #64 ) ) REPRESENTATION_CONTEXT ( 'NONE', 'WORKASPACE' ) );
#165 = CARTESIAN_POINT ( 'NONE',  ( 0.000000000000000000, 2.000000000000000000, 0.000000000000000000 ) ) ;
#166 = MECHANICAL_DESIGN_GEOMETRIC_PRESENTATION_REPRESENTATION (  '', ( #56 ), #127 ) ;
#167 = UNCERTAINTY_MEASURE_WITH_UNIT (LENGTH_MEASURE( 1.000000000000000082E-05 ), #306, 'distance_accuracy_value', 'NONE');
#168 =( GEOMETRIC_REPRESENTATION_CONTEXT ( 3 ) GLOBAL_UNCERTAINTY_ASSIGNED_CONTEXT ( ( #305 ) ) GLOBAL_UNIT_ASSIGNED_CONTEXT ( ( #298, #282, #205 ) ) REPRESENTATION_CONTEXT ( 'NONE', 'WORKASPACE' ) );
#169 = CIRCLE ( 'NONE', #2, 0.2500000000000001110 ) ;
#170 = EDGE_CURVE ( 'NONE', #274, #143, #152, .T. ) ;
#171 = LENGTH_MEASURE_WITH_UNIT ( LENGTH_MEASURE( 0.02539999999999999897 ), #32 );
#172 =( GEOMETRIC_REPRESENTATION_CONTEXT ( 3 ) GLOBAL_UNCERTAINTY_ASSIGNED_CONTEXT ( ( #98 ) ) GLOBAL_UNIT_ASSIGNED_CONTEXT ( ( #263, #150, #9 ) ) REPRESENTATION_CONTEXT ( 'NONE', 'WORKASPACE' ) );
#173 = DIMENSIONAL_EXPONENTS ( 1.000000000000000000, 0.000000000000000000, 0.000000000000000000, 0.000000000000000000, 0.000000000000000000, 0.000000000000000000, 0.000000000000000000 ) ;
#174 = DIRECTION ( 'NONE',  ( -6.123233995736763571E-17, 1.000000000000000000, 0.000000000000000000 ) ) ;
#175 = EDGE_LOOP ( 'NONE', ( #117, #128 ) ) ;
#176 = SURFACE_STYLE_USAGE ( .BOTH. , #297 ) ;
#177 =( NAMED_UNIT ( * ) SI_UNIT ( $, .STERADIAN. ) SOLID_ANGLE_UNIT ( ) );
#178 = CARTESIAN_POINT ( 'NONE',  ( 0.2499999999999999167, 4.000000000000000000, 3.061616997868383634E-17 ) ) ;
#179 = PRESENTATION_LAYER_ASSIGNMENT (  '', '', ( #130 ) ) ;
#180 = AXIS2_PLACEMENT_3D ( 'NONE', #198, #68, #112 ) ;
#181 = SURFACE_STYLE_FILL_AREA ( #109 ) ;
#182 = CARTESIAN_POINT ( 'NONE',  ( 0.000000000000000000, 0.000000000000000000, 0.000000000000000000 ) ) ;
#183 = SURFACE_SIDE_STYLE ('',( #88 ) ) ;
#184 = ADVANCED_FACE ( 'NONE', ( #213 ), #235, .T. ) ;
#185 = CARTESIAN_POINT ( 'NONE',  ( 0.000000000000000000, 0.000000000000000000, -0.2500000000000000000 ) ) ;
#186 = PRODUCT_DEFINITION ( 'UNKNOWN', '', #234, #232 ) ;
#187 = ADVANCED_FACE ( 'NONE', ( #273 ), #12, .F. ) ;
#188 = AXIS2_PLACEMENT_3D ( 'NONE', #253, #40, #111 ) ;
#189 = FILL_AREA_STYLE_COLOUR ( '', #258 ) ;
#190 = ORIENTED_EDGE ( 'NONE', *, *, #226, .T. ) ;
#191 = PRODUCT_RELATED_PRODUCT_CATEGORY ( 'part', '', ( #243 ) ) ;
#192 = FILL_AREA_STYLE ('',( #189 ) ) ;
#193 =( CONVERSION_BASED_UNIT ( 'INCH', #215 ) LENGTH_UNIT ( ) NAMED_UNIT ( #36 ) );
#194 = SURFACE_SIDE_STYLE ('',( #126 ) ) ;
#195 = VERTEX_POINT ( 'NONE', #47 ) ;
#196 = FACE_OUTER_BOUND ( 'NONE', #307, .T. ) ;
#197 = ORIENTED_EDGE ( 'NONE', *, *, #76, .F. ) ;
#198 = CARTESIAN_POINT ( 'NONE',  ( 1.516480271171051896E-32, 2.000000000000000000, 0.000000000000000000 ) ) ;
#199 = DIRECTION ( 'NONE',  ( -1.000000000000000000, 0.000000000000000000, 0.000000000000000000 ) ) ;
#200 = ORIENTED_EDGE ( 'NONE', *, *, #170, .F. ) ;
#201 = SURFACE_STYLE_FILL_AREA ( #23 ) ;
#202 = LINE ( 'NONE', #185, #31 ) ;
#203 = CARTESIAN_POINT ( 'NONE',  ( 0.000000000000000000, 0.000000000000000000, -0.2500000000000000000 ) ) ;
#204 = CARTESIAN_POINT ( 'NONE',  ( 0.000000000000000000, 2.000000000000000000, 0.000000000000000000 ) ) ;
#205 =( NAMED_UNIT ( * ) SI_UNIT ( $, .STERADIAN. ) SOLID_ANGLE_UNIT ( ) );
#206 =( NAMED_UNIT ( * ) PLANE_ANGLE_UNIT ( ) SI_UNIT ( $, .RADIAN. ) );
#207 = SHAPE_DEFINITION_REPRESENTATION ( #103, #296 ) ;
#208 = APPLICATION_PROTOCOL_DEFINITION ( 'draft international standard', 'automotive_design', 1998, #101 ) ;
#209 = CLOSED_SHELL ( 'NONE', ( #219, #187, #57, #212 ) ) ;
#210 = MECHANICAL_DESIGN_GEOMETRIC_PRESENTATION_REPRESENTATION (  '', ( #8 ), #172 ) ;
#211 = FILL_AREA_STYLE_COLOUR ( '', #97 ) ;
#212 = ADVANCED_FACE ( 'NONE', ( #269 ), #221, .F. ) ;
#213 = FACE_OUTER_BOUND ( 'NONE', #175, .T. ) ;
#214 = DIMENSIONAL_EXPONENTS ( 1.000000000000000000, 0.000000000000000000, 0.000000000000000000, 0.000000000000000000, 0.000000000000000000, 0.000000000000000000, 0.000000000000000000 ) ;
#215 = LENGTH_MEASURE_WITH_UNIT ( LENGTH_MEASURE( 0.02539999999999999897 ), #82 );
#216 = CIRCLE ( 'NONE', #90, 0.2500000000000000000 ) ;
#217 = CARTESIAN_POINT ( 'NONE',  ( 0.000000000000000000, 2.000000000000000000, 0.000000000000000000 ) ) ;
#218 = ORIENTED_EDGE ( 'NONE', *, *, #141, .F. ) ;
#219 = ADVANCED_FACE ( 'NONE', ( #196 ), #17, .T. ) ;
#220 = DIRECTION ( 'NONE',  ( -6.123233995736763571E-17, 1.000000000000000000, -0.000000000000000000 ) ) ;
#221 = PLANE ( 'NONE',  #92 ) ;
#222 = VERTEX_POINT ( 'NONE', #156 ) ;
#223 = PRESENTATION_LAYER_ASSIGNMENT (  '', '', ( #8 ) ) ;
#224 = ORIENTED_EDGE ( 'NONE', *, *, #244, .T. ) ;
#225 = FACE_OUTER_BOUND ( 'NONE', #270, .T. ) ;
#226 = EDGE_CURVE ( 'NONE', #249, #106, #125, .T. ) ;
#227 = ORIENTED_EDGE ( 'NONE', *, *, #99, .F. ) ;
#228 = DIRECTION ( 'NONE',  ( 0.000000000000000000, 0.000000000000000000, -1.000000000000000000 ) ) ;
#229 = PRESENTATION_STYLE_ASSIGNMENT (( #304 ) ) ;
#230 = CIRCLE ( 'NONE', #188, 0.2500000000000000000 ) ;
#231 = LINE ( 'NONE', #162, #77 ) ;
#232 = PRODUCT_DEFINITION_CONTEXT ( 'detailed design', #256, 'design' ) ;
#233 = MANIFOLD_SOLID_BREP ( 'Revolve - Tool Body (Straight Shanked)', #209 ) ;
#234 = PRODUCT_DEFINITION_FORMATION_WITH_SPECIFIED_SOURCE ( 'ANY', '', #243, .NOT_KNOWN. ) ;
#235 = PLANE ( 'NONE',  #266 ) ;
#236 = COLOUR_RGB ( '',1.000000000000000000, 0.000000000000000000, 0.000000000000000000 ) ;
#237 = EDGE_CURVE ( 'NONE', #86, #249, #138, .T. ) ;
#238 = AXIS2_PLACEMENT_3D ( 'NONE', #217, #79, #261 ) ;
#239 = LENGTH_MEASURE_WITH_UNIT ( LENGTH_MEASURE( 0.02539999999999999897 ), #135 );
#240 = ORIENTED_EDGE ( 'NONE', *, *, #286, .T. ) ;
#241 = CARTESIAN_POINT ( 'NONE',  ( -1.224646799147352714E-16, 4.000000000000000000, 0.000000000000000000 ) ) ;
#242 = ORIENTED_EDGE ( 'NONE', *, *, #244, .F. ) ;
#243 = PRODUCT ( '05517', '05517', '', ( #148 ) ) ;
#244 = EDGE_CURVE ( 'NONE', #86, #222, #55, .T. ) ;
#245 = ORIENTED_EDGE ( 'NONE', *, *, #257, .F. ) ;
#246 = CARTESIAN_POINT ( 'NONE',  ( -1.224646799147352714E-16, 4.000000000000000000, 0.000000000000000000 ) ) ;
#247 = CARTESIAN_POINT ( 'NONE',  ( 0.2500000000000000555, 4.000000000000000000, 3.061616997868384251E-17 ) ) ;
#248 = CARTESIAN_POINT ( 'NONE',  ( 0.2500000000000000555, 2.000000000000000000, 3.061616997868384251E-17 ) ) ;
#249 = VERTEX_POINT ( 'NONE', #247 ) ;
#250 = MECHANICAL_DESIGN_GEOMETRIC_PRESENTATION_REPRESENTATION (  '', ( #25 ), #75 ) ;
#251 = CARTESIAN_POINT ( 'NONE',  ( 0.000000000000000000, 0.000000000000000000, 0.000000000000000000 ) ) ;
#252 = DIRECTION ( 'NONE',  ( 0.000000000000000000, 1.000000000000000000, 0.000000000000000000 ) ) ;
#253 = CARTESIAN_POINT ( 'NONE',  ( 0.000000000000000000, 0.000000000000000000, 0.000000000000000000 ) ) ;
#254 = CIRCLE ( 'NONE', #108, 0.2500000000000000000 ) ;
#255 = EDGE_CURVE ( 'NONE', #277, #195, #115, .T. ) ;
#256 = APPLICATION_CONTEXT ( 'automotive_design' ) ;
#257 = EDGE_CURVE ( 'NONE', #106, #249, #169, .T. ) ;
#258 = COLOUR_RGB ( '',1.000000000000000000, 0.000000000000000000, 0.000000000000000000 ) ;
#259 = PRESENTATION_LAYER_ASSIGNMENT (  '', '', ( #56 ) ) ;
#260 = DIMENSIONAL_EXPONENTS ( 1.000000000000000000, 0.000000000000000000, 0.000000000000000000, 0.000000000000000000, 0.000000000000000000, 0.000000000000000000, 0.000000000000000000 ) ;
#261 = DIRECTION ( 'NONE',  ( 0.000000000000000000, 0.000000000000000000, -1.000000000000000000 ) ) ;
#262 = DIMENSIONAL_EXPONENTS ( 1.000000000000000000, 0.000000000000000000, 0.000000000000000000, 0.000000000000000000, 0.000000000000000000, 0.000000000000000000, 0.000000000000000000 ) ;
#263 =( CONVERSION_BASED_UNIT ( 'INCH', #171 ) LENGTH_UNIT ( ) NAMED_UNIT ( #287 ) );
#264 = ORIENTED_EDGE ( 'NONE', *, *, #99, .T. ) ;
#265 = EDGE_CURVE ( 'NONE', #143, #277, #202, .T. ) ;
#266 = AXIS2_PLACEMENT_3D ( 'NONE', #159, #136, #301 ) ;
#267 = DIRECTION ( 'NONE',  ( -1.000000000000000000, 0.000000000000000000, 0.000000000000000000 ) ) ;
#268 = PLANE ( 'NONE',  #85 ) ;
#269 = FACE_OUTER_BOUND ( 'NONE', #303, .T. ) ;
#270 = EDGE_LOOP ( 'NONE', ( #197, #200 ) ) ;
#271 =( LENGTH_UNIT ( ) NAMED_UNIT ( * ) SI_UNIT ( $, .METRE. ) );
#272 = AXIS2_PLACEMENT_3D ( 'NONE', #182, #66, #228 ) ;
#273 = FACE_OUTER_BOUND ( 'NONE', #137, .T. ) ;
#274 = VERTEX_POINT ( 'NONE', #120 ) ;
#275 = CYLINDRICAL_SURFACE ( 'NONE', #10, 0.2500000000000000555 ) ;
#276 = DIRECTION ( 'NONE',  ( -1.000000000000000000, 0.000000000000000000, 0.000000000000000000 ) ) ;
#277 = VERTEX_POINT ( 'NONE', #203 ) ;
#278 =( NAMED_UNIT ( * ) SI_UNIT ( $, .STERADIAN. ) SOLID_ANGLE_UNIT ( ) );
#279 =( NAMED_UNIT ( * ) SI_UNIT ( $, .STERADIAN. ) SOLID_ANGLE_UNIT ( ) );
#280 =( GEOMETRIC_REPRESENTATION_CONTEXT ( 3 ) GLOBAL_UNCERTAINTY_ASSIGNED_CONTEXT ( ( #45 ) ) GLOBAL_UNIT_ASSIGNED_CONTEXT ( ( #308, #93, #279 ) ) REPRESENTATION_CONTEXT ( 'NONE', 'WORKASPACE' ) );
#281 = MECHANICAL_DESIGN_GEOMETRIC_PRESENTATION_REPRESENTATION (  '', ( #3 ), #164 ) ;
#282 =( NAMED_UNIT ( * ) PLANE_ANGLE_UNIT ( ) SI_UNIT ( $, .RADIAN. ) );
#283 = DIRECTION ( 'NONE',  ( 0.000000000000000000, 0.000000000000000000, 1.000000000000000000 ) ) ;
#284 = LINE ( 'NONE', #147, #124 ) ;
#285 =( NAMED_UNIT ( * ) SI_UNIT ( $, .STERADIAN. ) SOLID_ANGLE_UNIT ( ) );
#286 = EDGE_CURVE ( 'NONE', #222, #106, #231, .T. ) ;
#287 = DIMENSIONAL_EXPONENTS ( 1.000000000000000000, 0.000000000000000000, 0.000000000000000000, 0.000000000000000000, 0.000000000000000000, 0.000000000000000000, 0.000000000000000000 ) ;
#288 = CYLINDRICAL_SURFACE ( 'NONE', #272, 0.2500000000000000000 ) ;
#289 = AXIS2_PLACEMENT_3D ( 'NONE', #39, #174, #59 ) ;
#290 = PRESENTATION_STYLE_ASSIGNMENT (( #81 ) ) ;
#291 = ORIENTED_EDGE ( 'NONE', *, *, #265, .F. ) ;
#292 = DIRECTION ( 'NONE',  ( 0.000000000000000000, 0.000000000000000000, -1.000000000000000000 ) ) ;
#293 = COLOUR_RGB ( '',0.7921568627450980005, 0.8196078431372548767, 0.9333333333333333481 ) ;
#294 = COLOUR_RGB ( '',0.7921568627450980005, 0.8196078431372548767, 0.9333333333333333481 ) ;
#295 = ORIENTED_EDGE ( 'NONE', *, *, #237, .T. ) ;
#296 = ADVANCED_BREP_SHAPE_REPRESENTATION ( '05517', ( #146, #233, #132 ), #168 ) ;
#297 = SURFACE_SIDE_STYLE ('',( #107 ) ) ;
#298 =( CONVERSION_BASED_UNIT ( 'INCH', #239 ) LENGTH_UNIT ( ) NAMED_UNIT ( #262 ) );
#299 = SURFACE_STYLE_FILL_AREA ( #192 ) ;
#300 = DIRECTION ( 'NONE',  ( -6.123233995736763571E-17, 1.000000000000000000, -0.000000000000000000 ) ) ;
#301 = DIRECTION ( 'NONE',  ( 0.000000000000000000, 0.000000000000000000, -1.000000000000000000 ) ) ;
#302 = COLOUR_RGB ( '',1.000000000000000000, 0.000000000000000000, 0.000000000000000000 ) ;
#303 = EDGE_LOOP ( 'NONE', ( #110, #190 ) ) ;
#304 = SURFACE_STYLE_USAGE ( .BOTH. , #183 ) ;
#305 = UNCERTAINTY_MEASURE_WITH_UNIT (LENGTH_MEASURE( 1.000000000000000082E-05 ), #298, 'distance_accuracy_value', 'NONE');
#306 =( CONVERSION_BASED_UNIT ( 'INCH', #160 ) LENGTH_UNIT ( ) NAMED_UNIT ( #214 ) );
#307 = EDGE_LOOP ( 'NONE', ( #22, #295, #245, #105 ) ) ;
#308 =( CONVERSION_BASED_UNIT ( 'INCH', #27 ) LENGTH_UNIT ( ) NAMED_UNIT ( #260 ) );
#309 = CARTESIAN_POINT ( 'NONE',  ( -0.2500000000000002776, 4.000000000000000000, 0.000000000000000000 ) ) ;
ENDSEC;
END-ISO-10303-21;
