ISO-10303-21;
HEADER;
FILE_DESCRIPTION (( 'STEP AP214' ),
    '1' );
FILE_NAME ('48486.STEP',
    '2023-06-22T21:41:50',
    ( '' ),
    ( '' ),
    'SwSTEP 2.0',
    'SolidWorks 2023',
    '' );
FILE_SCHEMA (( 'AUTOMOTIVE_DESIGN' ));
ENDSEC;

DATA;
#1 = LENGTH_MEASURE_WITH_UNIT ( LENGTH_MEASURE( 0.02539999999999999897 ), #247 );
#2 = ORIENTED_EDGE ( 'NONE', *, *, #103, .T. ) ;
#3 = CIRCLE ( 'NONE', #39, 0.3125000000000000000 ) ;
#4 = PRODUCT_DEFINITION_FORMATION_WITH_SPECIFIED_SOURCE ( 'ANY', '', #238, .NOT_KNOWN. ) ;
#5 = FILL_AREA_STYLE_COLOUR ( '', #203 ) ;
#6 = PRESENTATION_STYLE_ASSIGNMENT (( #79 ) ) ;
#7 = AXIS2_PLACEMENT_3D ( 'NONE', #244, #201, #43 ) ;
#8 = PRODUCT_RELATED_PRODUCT_CATEGORY ( 'part', '', ( #238 ) ) ;
#9 = CARTESIAN_POINT ( 'NONE',  ( 0.000000000000000000, 0.000000000000000000, 0.000000000000000000 ) ) ;
#10 = PRESENTATION_LAYER_ASSIGNMENT (  '', '', ( #207 ) ) ;
#11 = CARTESIAN_POINT ( 'NONE',  ( 3.827021247335478926E-17, 0.000000000000000000, 0.3125000000000000000 ) ) ;
#12 = DIRECTION ( 'NONE',  ( -0.000000000000000000, -1.000000000000000000, -0.000000000000000000 ) ) ;
#13 = CARTESIAN_POINT ( 'NONE',  ( -0.3124999999999998335, 3.000000000000000444, 0.000000000000000000 ) ) ;
#14 = AXIS2_PLACEMENT_3D ( 'NONE', #135, #196, #215 ) ;
#15 = LINE ( 'NONE', #100, #91 ) ;
#16 =( CONVERSION_BASED_UNIT ( 'INCH', #1 ) LENGTH_UNIT ( ) NAMED_UNIT ( #19 ) );
#17 = SURFACE_STYLE_USAGE ( .BOTH. , #249 ) ;
#18 = UNCERTAINTY_MEASURE_WITH_UNIT (LENGTH_MEASURE( 1.000000000000000082E-05 ), #81, 'distance_accuracy_value', 'NONE');
#19 = DIMENSIONAL_EXPONENTS ( 1.000000000000000000, 0.000000000000000000, 0.000000000000000000, 0.000000000000000000, 0.000000000000000000, 0.000000000000000000, 0.000000000000000000 ) ;
#20 = ORIENTED_EDGE ( 'NONE', *, *, #182, .T. ) ;
#21 = CLOSED_SHELL ( 'NONE', ( #281, #211, #29, #87 ) ) ;
#22 = CARTESIAN_POINT ( 'NONE',  ( 0.000000000000000000, 0.7499999999999998890, -0.3125000000000000000 ) ) ;
#23 =( GEOMETRIC_REPRESENTATION_CONTEXT ( 3 ) GLOBAL_UNCERTAINTY_ASSIGNED_CONTEXT ( ( #303 ) ) GLOBAL_UNIT_ASSIGNED_CONTEXT ( ( #125, #190, #262 ) ) REPRESENTATION_CONTEXT ( 'NONE', 'WORKASPACE' ) );
#24 = VERTEX_POINT ( 'NONE', #52 ) ;
#25 = SURFACE_STYLE_USAGE ( .BOTH. , #187 ) ;
#26 = CARTESIAN_POINT ( 'NONE',  ( 4.628888218092148898E-34, 0.7499999999999998890, 0.000000000000000000 ) ) ;
#27 = ORIENTED_EDGE ( 'NONE', *, *, #126, .T. ) ;
#28 = MANIFOLD_SOLID_BREP ( 'Revolve - Cutting Edge', #146 ) ;
#29 = ADVANCED_FACE ( 'NONE', ( #218 ), #133, .T. ) ;
#30 =( LENGTH_UNIT ( ) NAMED_UNIT ( * ) SI_UNIT ( $, .METRE. ) );
#31 = MECHANICAL_DESIGN_GEOMETRIC_PRESENTATION_REPRESENTATION (  '', ( #270 ), #114 ) ;
#32 = AXIS2_PLACEMENT_3D ( 'NONE', #212, #194, #288 ) ;
#33 = CARTESIAN_POINT ( 'NONE',  ( 0.000000000000000000, 0.000000000000000000, 0.000000000000000000 ) ) ;
#34 = PRESENTATION_LAYER_ASSIGNMENT (  '', '', ( #179 ) ) ;
#35 = PLANE ( 'NONE',  #252 ) ;
#36 = DIRECTION ( 'NONE',  ( 5.442874662877122626E-17, 1.000000000000000000, -0.000000000000000000 ) ) ;
#37 = VERTEX_POINT ( 'NONE', #11 ) ;
#38 = CARTESIAN_POINT ( 'NONE',  ( 1.224646799147352714E-16, 3.000000000000000444, 0.000000000000000000 ) ) ;
#39 = AXIS2_PLACEMENT_3D ( 'NONE', #278, #101, #40 ) ;
#40 = DIRECTION ( 'NONE',  ( 0.000000000000000000, 0.000000000000000000, -1.000000000000000000 ) ) ;
#41 = DIMENSIONAL_EXPONENTS ( 1.000000000000000000, 0.000000000000000000, 0.000000000000000000, 0.000000000000000000, 0.000000000000000000, 0.000000000000000000, 0.000000000000000000 ) ;
#42 = EDGE_CURVE ( 'NONE', #37, #148, #152, .T. ) ;
#43 = DIRECTION ( 'NONE',  ( 0.000000000000000000, 0.000000000000000000, -1.000000000000000000 ) ) ;
#44 = DIMENSIONAL_EXPONENTS ( 1.000000000000000000, 0.000000000000000000, 0.000000000000000000, 0.000000000000000000, 0.000000000000000000, 0.000000000000000000, 0.000000000000000000 ) ;
#45 = ORIENTED_EDGE ( 'NONE', *, *, #42, .F. ) ;
#46 = FACE_OUTER_BOUND ( 'NONE', #128, .T. ) ;
#47 = CARTESIAN_POINT ( 'NONE',  ( 0.000000000000000000, 0.7499999999999998890, 0.000000000000000000 ) ) ;
#48 = ORIENTED_EDGE ( 'NONE', *, *, #42, .T. ) ;
#49 = LENGTH_MEASURE_WITH_UNIT ( LENGTH_MEASURE( 0.02539999999999999897 ), #204 );
#50 = FILL_AREA_STYLE ('',( #72 ) ) ;
#51 = EDGE_LOOP ( 'NONE', ( #94, #104 ) ) ;
#52 = CARTESIAN_POINT ( 'NONE',  ( -0.3124999999999997224, 3.000000000000000444, 0.000000000000000000 ) ) ;
#53 = EDGE_CURVE ( 'NONE', #24, #231, #243, .T. ) ;
#54 = SHAPE_DEFINITION_REPRESENTATION ( #150, #108 ) ;
#55 = UNCERTAINTY_MEASURE_WITH_UNIT (LENGTH_MEASURE( 1.000000000000000082E-05 ), #200, 'distance_accuracy_value', 'NONE');
#56 = DIRECTION ( 'NONE',  ( 0.000000000000000000, 0.000000000000000000, 1.000000000000000000 ) ) ;
#57 = COLOUR_RGB ( '',1.000000000000000000, 0.000000000000000000, 0.000000000000000000 ) ;
#58 = DIRECTION ( 'NONE',  ( -0.000000000000000000, -1.000000000000000000, -0.000000000000000000 ) ) ;
#59 =( CONVERSION_BASED_UNIT ( 'INCH', #102 ) LENGTH_UNIT ( ) NAMED_UNIT ( #67 ) );
#60 = DIRECTION ( 'NONE',  ( 0.000000000000000000, 0.000000000000000000, -1.000000000000000000 ) ) ;
#61 = MECHANICAL_DESIGN_GEOMETRIC_PRESENTATION_REPRESENTATION (  '', ( #185 ), #240 ) ;
#62 = MECHANICAL_DESIGN_GEOMETRIC_PRESENTATION_REPRESENTATION (  '', ( #139 ), #284 ) ;
#63 = ADVANCED_FACE ( 'NONE', ( #180 ), #162, .T. ) ;
#64 = SURFACE_STYLE_FILL_AREA ( #260 ) ;
#65 = FILL_AREA_STYLE ('',( #172 ) ) ;
#66 = LENGTH_MEASURE_WITH_UNIT ( LENGTH_MEASURE( 0.02539999999999999897 ), #275 );
#67 = DIMENSIONAL_EXPONENTS ( 1.000000000000000000, 0.000000000000000000, 0.000000000000000000, 0.000000000000000000, 0.000000000000000000, 0.000000000000000000, 0.000000000000000000 ) ;
#68 = UNCERTAINTY_MEASURE_WITH_UNIT (LENGTH_MEASURE( 1.000000000000000082E-05 ), #113, 'distance_accuracy_value', 'NONE');
#69 = AXIS2_PLACEMENT_3D ( 'NONE', #166, #75, #305 ) ;
#70 =( LENGTH_UNIT ( ) NAMED_UNIT ( * ) SI_UNIT ( $, .METRE. ) );
#71 = APPLICATION_CONTEXT ( 'automotive_design' ) ;
#72 = FILL_AREA_STYLE_COLOUR ( '', #259 ) ;
#73 = ORIENTED_EDGE ( 'NONE', *, *, #297, .T. ) ;
#74 = AXIS2_PLACEMENT_3D ( 'NONE', #261, #77, #138 ) ;
#75 = DIRECTION ( 'NONE',  ( 0.000000000000000000, -1.000000000000000000, -0.000000000000000000 ) ) ;
#76 = ORIENTED_EDGE ( 'NONE', *, *, #233, .T. ) ;
#77 = DIRECTION ( 'NONE',  ( 5.442874662877122626E-17, 1.000000000000000000, -0.000000000000000000 ) ) ;
#78 = ORIENTED_EDGE ( 'NONE', *, *, #306, .T. ) ;
#79 = SURFACE_STYLE_USAGE ( .BOTH. , #295 ) ;
#80 =( NAMED_UNIT ( * ) SI_UNIT ( $, .STERADIAN. ) SOLID_ANGLE_UNIT ( ) );
#81 =( CONVERSION_BASED_UNIT ( 'INCH', #157 ) LENGTH_UNIT ( ) NAMED_UNIT ( #272 ) );
#82 = LENGTH_MEASURE_WITH_UNIT ( LENGTH_MEASURE( 0.02539999999999999897 ), #70 );
#83 = PRODUCT_CONTEXT ( 'NONE', #71, 'mechanical' ) ;
#84 = COLOUR_RGB ( '',1.000000000000000000, 0.000000000000000000, 0.000000000000000000 ) ;
#85 = SURFACE_STYLE_FILL_AREA ( #242 ) ;
#86 = DIRECTION ( 'NONE',  ( -1.000000000000000000, 0.000000000000000000, 0.000000000000000000 ) ) ;
#87 = ADVANCED_FACE ( 'NONE', ( #221 ), #35, .F. ) ;
#88 = SURFACE_SIDE_STYLE ('',( #85 ) ) ;
#89 = PRESENTATION_LAYER_ASSIGNMENT (  '', '', ( #185 ) ) ;
#90 = DIRECTION ( 'NONE',  ( -1.000000000000000000, 0.000000000000000000, 0.000000000000000000 ) ) ;
#91 = VECTOR ( 'NONE', #280, 39.37007874015748143 ) ;
#92 =( NAMED_UNIT ( * ) SI_UNIT ( $, .STERADIAN. ) SOLID_ANGLE_UNIT ( ) );
#93 = SURFACE_STYLE_USAGE ( .BOTH. , #88 ) ;
#94 = ORIENTED_EDGE ( 'NONE', *, *, #112, .F. ) ;
#95 = EDGE_LOOP ( 'NONE', ( #205, #227, #144, #229 ) ) ;
#96 = CIRCLE ( 'NONE', #264, 0.3125000000000000000 ) ;
#97 =( NAMED_UNIT ( * ) PLANE_ANGLE_UNIT ( ) SI_UNIT ( $, .RADIAN. ) );
#98 = DIMENSIONAL_EXPONENTS ( 1.000000000000000000, 0.000000000000000000, 0.000000000000000000, 0.000000000000000000, 0.000000000000000000, 0.000000000000000000, 0.000000000000000000 ) ;
#99 = EDGE_LOOP ( 'NONE', ( #192, #27, #276, #45 ) ) ;
#100 = CARTESIAN_POINT ( 'NONE',  ( 0.3125000000000000555, 3.000000000000000444, 3.827021247335477694E-17 ) ) ;
#101 = DIRECTION ( 'NONE',  ( -0.000000000000000000, -1.000000000000000000, -0.000000000000000000 ) ) ;
#102 = LENGTH_MEASURE_WITH_UNIT ( LENGTH_MEASURE( 0.02539999999999999897 ), #181 );
#103 = EDGE_CURVE ( 'NONE', #250, #24, #226, .T. ) ;
#104 = ORIENTED_EDGE ( 'NONE', *, *, #297, .F. ) ;
#105 =( NAMED_UNIT ( * ) PLANE_ANGLE_UNIT ( ) SI_UNIT ( $, .RADIAN. ) );
#106 = PLANE ( 'NONE',  #198 ) ;
#107 = UNCERTAINTY_MEASURE_WITH_UNIT (LENGTH_MEASURE( 1.000000000000000082E-05 ), #16, 'distance_accuracy_value', 'NONE');
#108 = ADVANCED_BREP_SHAPE_REPRESENTATION ( '48486', ( #28, #137, #209 ), #23 ) ;
#109 = MECHANICAL_DESIGN_GEOMETRIC_PRESENTATION_REPRESENTATION (  '', ( #207 ), #147 ) ;
#110 = FILL_AREA_STYLE ('',( #5 ) ) ;
#111 = MECHANICAL_DESIGN_GEOMETRIC_PRESENTATION_REPRESENTATION (  '', ( #131 ), #217 ) ;
#112 = EDGE_CURVE ( 'NONE', #250, #130, #299, .T. ) ;
#113 =( CONVERSION_BASED_UNIT ( 'INCH', #66 ) LENGTH_UNIT ( ) NAMED_UNIT ( #41 ) );
#114 =( GEOMETRIC_REPRESENTATION_CONTEXT ( 3 ) GLOBAL_UNCERTAINTY_ASSIGNED_CONTEXT ( ( #290 ) ) GLOBAL_UNIT_ASSIGNED_CONTEXT ( ( #59, #97, #92 ) ) REPRESENTATION_CONTEXT ( 'NONE', 'WORKASPACE' ) );
#115 = CIRCLE ( 'NONE', #142, 0.3125000000000000000 ) ;
#116 = PLANE ( 'NONE',  #153 ) ;
#117 = DIRECTION ( 'NONE',  ( 0.000000000000000000, 0.000000000000000000, -1.000000000000000000 ) ) ;
#118 =( NAMED_UNIT ( * ) SI_UNIT ( $, .STERADIAN. ) SOLID_ANGLE_UNIT ( ) );
#119 = PRESENTATION_STYLE_ASSIGNMENT (( #151 ) ) ;
#120 = CARTESIAN_POINT ( 'NONE',  ( -1.516480271171051896E-32, 0.7499999999999998890, 0.000000000000000000 ) ) ;
#121 = CARTESIAN_POINT ( 'NONE',  ( 0.000000000000000000, 0.000000000000000000, -0.3125000000000000000 ) ) ;
#122 = EDGE_LOOP ( 'NONE', ( #186, #282 ) ) ;
#123 = MECHANICAL_DESIGN_GEOMETRIC_PRESENTATION_REPRESENTATION (  '', ( #179 ), #191 ) ;
#124 =( NAMED_UNIT ( * ) PLANE_ANGLE_UNIT ( ) SI_UNIT ( $, .RADIAN. ) );
#125 =( CONVERSION_BASED_UNIT ( 'INCH', #309 ) LENGTH_UNIT ( ) NAMED_UNIT ( #98 ) );
#126 = EDGE_CURVE ( 'NONE', #208, #149, #96, .T. ) ;
#127 = PRESENTATION_STYLE_ASSIGNMENT (( #25 ) ) ;
#128 = EDGE_LOOP ( 'NONE', ( #78, #48 ) ) ;
#129 = CARTESIAN_POINT ( 'NONE',  ( -0.3125000000000000000, 0.7499999999999998890, 0.000000000000000000 ) ) ;
#130 = VERTEX_POINT ( 'NONE', #225 ) ;
#131 = STYLED_ITEM ( 'NONE', ( #202 ), #195 ) ;
#132 = DIRECTION ( 'NONE',  ( 5.442874662877122010E-17, 1.000000000000000000, -0.000000000000000000 ) ) ;
#133 = CYLINDRICAL_SURFACE ( 'NONE', #14, 0.3124999999999999445 ) ;
#134 = CARTESIAN_POINT ( 'NONE',  ( 3.827021247335478926E-17, 0.000000000000000000, 0.3125000000000000000 ) ) ;
#135 = CARTESIAN_POINT ( 'NONE',  ( 1.224646799147352714E-16, 3.000000000000000444, 0.000000000000000000 ) ) ;
#136 =( LENGTH_UNIT ( ) NAMED_UNIT ( * ) SI_UNIT ( $, .METRE. ) );
#137 = MANIFOLD_SOLID_BREP ( 'Revolve - Tool Body (Straight Shanked)', #21 ) ;
#138 = DIRECTION ( 'NONE',  ( -1.000000000000000000, 0.000000000000000000, 0.000000000000000000 ) ) ;
#139 = STYLED_ITEM ( 'NONE', ( #127 ), #296 ) ;
#140 = DIRECTION ( 'NONE',  ( 0.000000000000000000, 0.000000000000000000, -1.000000000000000000 ) ) ;
#141 = DIRECTION ( 'NONE',  ( 1.000000000000000000, -5.442874662877122010E-17, 0.000000000000000000 ) ) ;
#142 = AXIS2_PLACEMENT_3D ( 'NONE', #33, #267, #60 ) ;
#143 = CARTESIAN_POINT ( 'NONE',  ( 0.3125000000000000000, 3.000000000000000444, 0.000000000000000000 ) ) ;
#144 = ORIENTED_EDGE ( 'NONE', *, *, #53, .F. ) ;
#145 = FILL_AREA_STYLE ('',( #168 ) ) ;
#146 = CLOSED_SHELL ( 'NONE', ( #195, #296, #63, #175 ) ) ;
#147 =( GEOMETRIC_REPRESENTATION_CONTEXT ( 3 ) GLOBAL_UNCERTAINTY_ASSIGNED_CONTEXT ( ( #107 ) ) GLOBAL_UNIT_ASSIGNED_CONTEXT ( ( #16, #124, #118 ) ) REPRESENTATION_CONTEXT ( 'NONE', 'WORKASPACE' ) );
#148 = VERTEX_POINT ( 'NONE', #121 ) ;
#149 = VERTEX_POINT ( 'NONE', #22 ) ;
#150 = PRODUCT_DEFINITION_SHAPE ( 'NONE', 'NONE',  #255 ) ;
#151 = SURFACE_STYLE_USAGE ( .BOTH. , #307 ) ;
#152 = CIRCLE ( 'NONE', #277, 0.3125000000000000000 ) ;
#153 = AXIS2_PLACEMENT_3D ( 'NONE', #220, #266, #158 ) ;
#154 = DIRECTION ( 'NONE',  ( 0.000000000000000000, 0.000000000000000000, -1.000000000000000000 ) ) ;
#155 = LINE ( 'NONE', #134, #279 ) ;
#156 =( NAMED_UNIT ( * ) SI_UNIT ( $, .STERADIAN. ) SOLID_ANGLE_UNIT ( ) );
#157 = LENGTH_MEASURE_WITH_UNIT ( LENGTH_MEASURE( 0.02539999999999999897 ), #136 );
#158 = DIRECTION ( 'NONE',  ( 0.000000000000000000, -0.000000000000000000, 1.000000000000000000 ) ) ;
#159 = CARTESIAN_POINT ( 'NONE',  ( 0.000000000000000000, 0.000000000000000000, 0.000000000000000000 ) ) ;
#160 = AXIS2_PLACEMENT_3D ( 'NONE', #287, #257, #154 ) ;
#161 = LINE ( 'NONE', #268, #265 ) ;
#162 = CYLINDRICAL_SURFACE ( 'NONE', #7, 0.3125000000000000000 ) ;
#163 = SURFACE_STYLE_FILL_AREA ( #65 ) ;
#164 = PRESENTATION_LAYER_ASSIGNMENT (  '', '', ( #270 ) ) ;
#165 =( NAMED_UNIT ( * ) PLANE_ANGLE_UNIT ( ) SI_UNIT ( $, .RADIAN. ) );
#166 = CARTESIAN_POINT ( 'NONE',  ( 0.000000000000000000, 0.000000000000000000, 0.000000000000000000 ) ) ;
#167 = ORIENTED_EDGE ( 'NONE', *, *, #286, .F. ) ;
#168 = FILL_AREA_STYLE_COLOUR ( '', #199 ) ;
#169 = SURFACE_SIDE_STYLE ('',( #222 ) ) ;
#170 = COLOUR_RGB ( '',0.7921568627450980005, 0.8196078431372548767, 0.9333333333333333481 ) ;
#171 = CIRCLE ( 'NONE', #32, 0.3124999999999998890 ) ;
#172 = FILL_AREA_STYLE_COLOUR ( '', #84 ) ;
#173 =( CONVERSION_BASED_UNIT ( 'INCH', #82 ) LENGTH_UNIT ( ) NAMED_UNIT ( #300 ) );
#174 =( NAMED_UNIT ( * ) PLANE_ANGLE_UNIT ( ) SI_UNIT ( $, .RADIAN. ) );
#175 = ADVANCED_FACE ( 'NONE', ( #46 ), #189, .T. ) ;
#176 = CARTESIAN_POINT ( 'NONE',  ( 3.827021247335478926E-17, 0.7499999999999998890, 0.3125000000000000000 ) ) ;
#177 = AXIS2_PLACEMENT_3D ( 'NONE', #120, #183, #298 ) ;
#178 = FILL_AREA_STYLE_COLOUR ( '', #170 ) ;
#179 = STYLED_ITEM ( 'NONE', ( #6 ), #28 ) ;
#180 = FACE_OUTER_BOUND ( 'NONE', #99, .T. ) ;
#181 =( LENGTH_UNIT ( ) NAMED_UNIT ( * ) SI_UNIT ( $, .METRE. ) );
#182 = EDGE_CURVE ( 'NONE', #149, #208, #3, .T. ) ;
#183 = DIRECTION ( 'NONE',  ( 5.442874662877122626E-17, 1.000000000000000000, -0.000000000000000000 ) ) ;
#184 = EDGE_LOOP ( 'NONE', ( #245, #76 ) ) ;
#185 = STYLED_ITEM ( 'NONE', ( #273 ), #63 ) ;
#186 = ORIENTED_EDGE ( 'NONE', *, *, #182, .F. ) ;
#187 = SURFACE_SIDE_STYLE ('',( #308 ) ) ;
#188 = ORIENTED_EDGE ( 'NONE', *, *, #233, .F. ) ;
#189 = PLANE ( 'NONE',  #69 ) ;
#190 =( NAMED_UNIT ( * ) PLANE_ANGLE_UNIT ( ) SI_UNIT ( $, .RADIAN. ) );
#191 =( GEOMETRIC_REPRESENTATION_CONTEXT ( 3 ) GLOBAL_UNCERTAINTY_ASSIGNED_CONTEXT ( ( #18 ) ) GLOBAL_UNIT_ASSIGNED_CONTEXT ( ( #81, #174, #156 ) ) REPRESENTATION_CONTEXT ( 'NONE', 'WORKASPACE' ) );
#192 = ORIENTED_EDGE ( 'NONE', *, *, #236, .F. ) ;
#193 = EDGE_LOOP ( 'NONE', ( #223, #73, #2, #188 ) ) ;
#194 = DIRECTION ( 'NONE',  ( 5.442874662877122626E-17, 1.000000000000000000, -0.000000000000000000 ) ) ;
#195 = ADVANCED_FACE ( 'NONE', ( #224 ), #274, .T. ) ;
#196 = DIRECTION ( 'NONE',  ( 5.442874662877122626E-17, 1.000000000000000000, -0.000000000000000000 ) ) ;
#197 = VECTOR ( 'NONE', #271, 39.37007874015748143 ) ;
#198 = AXIS2_PLACEMENT_3D ( 'NONE', #26, #132, #210 ) ;
#199 = COLOUR_RGB ( '',1.000000000000000000, 0.000000000000000000, 0.000000000000000000 ) ;
#200 =( CONVERSION_BASED_UNIT ( 'INCH', #49 ) LENGTH_UNIT ( ) NAMED_UNIT ( #44 ) );
#201 = DIRECTION ( 'NONE',  ( -0.000000000000000000, -1.000000000000000000, -0.000000000000000000 ) ) ;
#202 = PRESENTATION_STYLE_ASSIGNMENT (( #17 ) ) ;
#203 = COLOUR_RGB ( '',0.7921568627450980005, 0.8196078431372548767, 0.9333333333333333481 ) ;
#204 =( LENGTH_UNIT ( ) NAMED_UNIT ( * ) SI_UNIT ( $, .METRE. ) );
#205 = ORIENTED_EDGE ( 'NONE', *, *, #112, .T. ) ;
#206 = FACE_OUTER_BOUND ( 'NONE', #95, .T. ) ;
#207 = STYLED_ITEM ( 'NONE', ( #228 ), #175 ) ;
#208 = VERTEX_POINT ( 'NONE', #176 ) ;
#209 = AXIS2_PLACEMENT_3D ( 'NONE', #9, #56, #258 ) ;
#210 = DIRECTION ( 'NONE',  ( -1.000000000000000000, 5.442874662877122010E-17, 0.000000000000000000 ) ) ;
#211 = ADVANCED_FACE ( 'NONE', ( #232 ), #106, .F. ) ;
#212 = CARTESIAN_POINT ( 'NONE',  ( 1.224646799147352714E-16, 3.000000000000000444, 0.000000000000000000 ) ) ;
#213 = SURFACE_STYLE_FILL_AREA ( #110 ) ;
#214 = DIRECTION ( 'NONE',  ( -0.000000000000000000, -1.000000000000000000, -0.000000000000000000 ) ) ;
#215 = DIRECTION ( 'NONE',  ( -1.000000000000000000, 0.000000000000000000, 0.000000000000000000 ) ) ;
#216 = AXIS2_PLACEMENT_3D ( 'NONE', #38, #246, #90 ) ;
#217 =( GEOMETRIC_REPRESENTATION_CONTEXT ( 3 ) GLOBAL_UNCERTAINTY_ASSIGNED_CONTEXT ( ( #239 ) ) GLOBAL_UNIT_ASSIGNED_CONTEXT ( ( #173, #105, #230 ) ) REPRESENTATION_CONTEXT ( 'NONE', 'WORKASPACE' ) );
#218 = FACE_OUTER_BOUND ( 'NONE', #193, .T. ) ;
#219 = PRODUCT_DEFINITION_CONTEXT ( 'detailed design', #294, 'design' ) ;
#220 = CARTESIAN_POINT ( 'NONE',  ( 0.000000000000000000, 0.7499999999999998890, 0.000000000000000000 ) ) ;
#221 = FACE_OUTER_BOUND ( 'NONE', #184, .T. ) ;
#222 = SURFACE_STYLE_FILL_AREA ( #50 ) ;
#223 = ORIENTED_EDGE ( 'NONE', *, *, #291, .F. ) ;
#224 = FACE_OUTER_BOUND ( 'NONE', #285, .T. ) ;
#225 = CARTESIAN_POINT ( 'NONE',  ( 0.3125000000000000000, 0.7499999999999998890, 3.827021247335477694E-17 ) ) ;
#226 = LINE ( 'NONE', #13, #197 ) ;
#227 = ORIENTED_EDGE ( 'NONE', *, *, #291, .T. ) ;
#228 = PRESENTATION_STYLE_ASSIGNMENT (( #283 ) ) ;
#229 = ORIENTED_EDGE ( 'NONE', *, *, #103, .F. ) ;
#230 =( NAMED_UNIT ( * ) SI_UNIT ( $, .STERADIAN. ) SOLID_ANGLE_UNIT ( ) );
#231 = VERTEX_POINT ( 'NONE', #237 ) ;
#232 = FACE_OUTER_BOUND ( 'NONE', #51, .T. ) ;
#233 = EDGE_CURVE ( 'NONE', #231, #24, #171, .T. ) ;
#234 = PRESENTATION_LAYER_ASSIGNMENT (  '', '', ( #131 ) ) ;
#235 = CIRCLE ( 'NONE', #253, 0.3125000000000000000 ) ;
#236 = EDGE_CURVE ( 'NONE', #208, #37, #155, .T. ) ;
#237 = CARTESIAN_POINT ( 'NONE',  ( 0.3125000000000000000, 3.000000000000000444, 3.827021247335477694E-17 ) ) ;
#238 = PRODUCT ( '48486', '48486', '', ( #83 ) ) ;
#239 = UNCERTAINTY_MEASURE_WITH_UNIT (LENGTH_MEASURE( 1.000000000000000082E-05 ), #173, 'distance_accuracy_value', 'NONE');
#240 =( GEOMETRIC_REPRESENTATION_CONTEXT ( 3 ) GLOBAL_UNCERTAINTY_ASSIGNED_CONTEXT ( ( #68 ) ) GLOBAL_UNIT_ASSIGNED_CONTEXT ( ( #113, #165, #248 ) ) REPRESENTATION_CONTEXT ( 'NONE', 'WORKASPACE' ) );
#241 = CARTESIAN_POINT ( 'NONE',  ( -1.516480271171051896E-32, 0.7499999999999998890, 0.000000000000000000 ) ) ;
#242 = FILL_AREA_STYLE ('',( #302 ) ) ;
#243 = CIRCLE ( 'NONE', #216, 0.3124999999999998890 ) ;
#244 = CARTESIAN_POINT ( 'NONE',  ( 0.000000000000000000, 0.000000000000000000, 0.000000000000000000 ) ) ;
#245 = ORIENTED_EDGE ( 'NONE', *, *, #53, .T. ) ;
#246 = DIRECTION ( 'NONE',  ( 5.442874662877122626E-17, 1.000000000000000000, -0.000000000000000000 ) ) ;
#247 =( LENGTH_UNIT ( ) NAMED_UNIT ( * ) SI_UNIT ( $, .METRE. ) );
#248 =( NAMED_UNIT ( * ) SI_UNIT ( $, .STERADIAN. ) SOLID_ANGLE_UNIT ( ) );
#249 = SURFACE_SIDE_STYLE ('',( #163 ) ) ;
#250 = VERTEX_POINT ( 'NONE', #129 ) ;
#251 = CYLINDRICAL_SURFACE ( 'NONE', #74, 0.3124999999999999445 ) ;
#252 = AXIS2_PLACEMENT_3D ( 'NONE', #143, #301, #141 ) ;
#253 = AXIS2_PLACEMENT_3D ( 'NONE', #241, #36, #86 ) ;
#254 = ORIENTED_EDGE ( 'NONE', *, *, #236, .T. ) ;
#255 = PRODUCT_DEFINITION ( 'UNKNOWN', '', #4, #219 ) ;
#256 = ORIENTED_EDGE ( 'NONE', *, *, #306, .F. ) ;
#257 = DIRECTION ( 'NONE',  ( -0.000000000000000000, -1.000000000000000000, -0.000000000000000000 ) ) ;
#258 = DIRECTION ( 'NONE',  ( 1.000000000000000000, 0.000000000000000000, 0.000000000000000000 ) ) ;
#259 = COLOUR_RGB ( '',1.000000000000000000, 0.000000000000000000, 0.000000000000000000 ) ;
#260 = FILL_AREA_STYLE ('',( #178 ) ) ;
#261 = CARTESIAN_POINT ( 'NONE',  ( 1.224646799147352714E-16, 3.000000000000000444, 0.000000000000000000 ) ) ;
#262 =( NAMED_UNIT ( * ) SI_UNIT ( $, .STERADIAN. ) SOLID_ANGLE_UNIT ( ) );
#263 = APPLICATION_PROTOCOL_DEFINITION ( 'draft international standard', 'automotive_design', 1998, #294 ) ;
#264 = AXIS2_PLACEMENT_3D ( 'NONE', #47, #58, #117 ) ;
#265 = VECTOR ( 'NONE', #12, 39.37007874015748143 ) ;
#266 = DIRECTION ( 'NONE',  ( 0.000000000000000000, 1.000000000000000000, 0.000000000000000000 ) ) ;
#267 = DIRECTION ( 'NONE',  ( -0.000000000000000000, -1.000000000000000000, -0.000000000000000000 ) ) ;
#268 = CARTESIAN_POINT ( 'NONE',  ( 0.000000000000000000, 0.000000000000000000, -0.3125000000000000000 ) ) ;
#269 = DIRECTION ( 'NONE',  ( -0.000000000000000000, -1.000000000000000000, -0.000000000000000000 ) ) ;
#270 = STYLED_ITEM ( 'NONE', ( #119 ), #137 ) ;
#271 = DIRECTION ( 'NONE',  ( 5.442874662877122010E-17, 1.000000000000000000, -0.000000000000000000 ) ) ;
#272 = DIMENSIONAL_EXPONENTS ( 1.000000000000000000, 0.000000000000000000, 0.000000000000000000, 0.000000000000000000, 0.000000000000000000, 0.000000000000000000, 0.000000000000000000 ) ;
#273 = PRESENTATION_STYLE_ASSIGNMENT (( #93 ) ) ;
#274 = CYLINDRICAL_SURFACE ( 'NONE', #160, 0.3125000000000000000 ) ;
#275 =( LENGTH_UNIT ( ) NAMED_UNIT ( * ) SI_UNIT ( $, .METRE. ) );
#276 = ORIENTED_EDGE ( 'NONE', *, *, #286, .T. ) ;
#277 = AXIS2_PLACEMENT_3D ( 'NONE', #159, #269, #140 ) ;
#278 = CARTESIAN_POINT ( 'NONE',  ( 0.000000000000000000, 0.7499999999999998890, 0.000000000000000000 ) ) ;
#279 = VECTOR ( 'NONE', #214, 39.37007874015748143 ) ;
#280 = DIRECTION ( 'NONE',  ( 5.442874662877122010E-17, 1.000000000000000000, -0.000000000000000000 ) ) ;
#281 = ADVANCED_FACE ( 'NONE', ( #206 ), #251, .T. ) ;
#282 = ORIENTED_EDGE ( 'NONE', *, *, #126, .F. ) ;
#283 = SURFACE_STYLE_USAGE ( .BOTH. , #169 ) ;
#284 =( GEOMETRIC_REPRESENTATION_CONTEXT ( 3 ) GLOBAL_UNCERTAINTY_ASSIGNED_CONTEXT ( ( #55 ) ) GLOBAL_UNIT_ASSIGNED_CONTEXT ( ( #200, #292, #80 ) ) REPRESENTATION_CONTEXT ( 'NONE', 'WORKASPACE' ) );
#285 = EDGE_LOOP ( 'NONE', ( #20, #254, #256, #167 ) ) ;
#286 = EDGE_CURVE ( 'NONE', #149, #148, #161, .T. ) ;
#287 = CARTESIAN_POINT ( 'NONE',  ( 0.000000000000000000, 0.000000000000000000, 0.000000000000000000 ) ) ;
#288 = DIRECTION ( 'NONE',  ( -1.000000000000000000, 0.000000000000000000, 0.000000000000000000 ) ) ;
#289 = PRESENTATION_LAYER_ASSIGNMENT (  '', '', ( #139 ) ) ;
#290 = UNCERTAINTY_MEASURE_WITH_UNIT (LENGTH_MEASURE( 1.000000000000000082E-05 ), #59, 'distance_accuracy_value', 'NONE');
#291 = EDGE_CURVE ( 'NONE', #130, #231, #15, .T. ) ;
#292 =( NAMED_UNIT ( * ) PLANE_ANGLE_UNIT ( ) SI_UNIT ( $, .RADIAN. ) );
#293 = APPLICATION_PROTOCOL_DEFINITION ( 'draft international standard', 'automotive_design', 1998, #71 ) ;
#294 = APPLICATION_CONTEXT ( 'automotive_design' ) ;
#295 = SURFACE_SIDE_STYLE ('',( #213 ) ) ;
#296 = ADVANCED_FACE ( 'NONE', ( #304 ), #116, .T. ) ;
#297 = EDGE_CURVE ( 'NONE', #130, #250, #235, .T. ) ;
#298 = DIRECTION ( 'NONE',  ( -1.000000000000000000, 0.000000000000000000, 0.000000000000000000 ) ) ;
#299 = CIRCLE ( 'NONE', #177, 0.3125000000000000000 ) ;
#300 = DIMENSIONAL_EXPONENTS ( 1.000000000000000000, 0.000000000000000000, 0.000000000000000000, 0.000000000000000000, 0.000000000000000000, 0.000000000000000000, 0.000000000000000000 ) ;
#301 = DIRECTION ( 'NONE',  ( -5.442874662877122010E-17, -1.000000000000000000, 0.000000000000000000 ) ) ;
#302 = FILL_AREA_STYLE_COLOUR ( '', #57 ) ;
#303 = UNCERTAINTY_MEASURE_WITH_UNIT (LENGTH_MEASURE( 1.000000000000000082E-05 ), #125, 'distance_accuracy_value', 'NONE');
#304 = FACE_OUTER_BOUND ( 'NONE', #122, .T. ) ;
#305 = DIRECTION ( 'NONE',  ( 0.000000000000000000, 0.000000000000000000, -1.000000000000000000 ) ) ;
#306 = EDGE_CURVE ( 'NONE', #148, #37, #115, .T. ) ;
#307 = SURFACE_SIDE_STYLE ('',( #64 ) ) ;
#308 = SURFACE_STYLE_FILL_AREA ( #145 ) ;
#309 = LENGTH_MEASURE_WITH_UNIT ( LENGTH_MEASURE( 0.02539999999999999897 ), #30 );
ENDSEC;
END-ISO-10303-21;
