ISO-10303-21;
HEADER;
FILE_DESCRIPTION (( 'STEP AP214' ),
    '1' );
FILE_NAME ('Micro_GEM-140-4X.STEP',
    '2021-09-01T19:46:05',
    ( '' ),
    ( '' ),
    'SwSTEP 2.0',
    'SolidWorks 2020',
    '' );
FILE_SCHEMA (( 'AUTOMOTIVE_DESIGN' ));
ENDSEC;

DATA;
#1 = LINE ( 'NONE', #95, #12 ) ;
#2 = LINE ( 'NONE', #102, #233 ) ;
#3 = CYLINDRICAL_SURFACE ( 'NONE', #73, 0.09375000000000001388 ) ;
#4 = DIRECTION ( 'NONE',  ( 0.7071067811865463515, 8.659560562354916834E-17, -0.7071067811865486830 ) ) ;
#5 = CARTESIAN_POINT ( 'NONE',  ( 0.0000000000000000000, 0.0000000000000000000, 2.000000000000000000 ) ) ;
#6 = DIRECTION ( 'NONE',  ( -1.000000000000000000, 0.0000000000000000000, 0.0000000000000000000 ) ) ;
#7 = ORIENTED_EDGE ( 'NONE', *, *, #91, .T. ) ;
#8 = DIRECTION ( 'NONE',  ( -1.000000000000000000, 0.0000000000000000000, 0.0000000000000000000 ) ) ;
#9 = VERTEX_POINT ( 'NONE', #28 ) ;
#10 = CARTESIAN_POINT ( 'NONE',  ( -0.09375000000000001388, 0.0000000000000000000, 1.984999999999999654 ) ) ;
#11 = ORIENTED_EDGE ( 'NONE', *, *, #160, .F. ) ;
#12 = VECTOR ( 'NONE', #236, 39.37007874015748143 ) ;
#13 = PRODUCT_DEFINITION ( 'UNKNOWN', '', #156, #75 ) ;
#14 = AXIS2_PLACEMENT_3D ( 'NONE', #251, #46, #20 ) ;
#15 = CARTESIAN_POINT ( 'NONE',  ( -0.09375000000000001388, 0.0000000000000000000, 2.000000000000000000 ) ) ;
#16 = DIRECTION ( 'NONE',  ( -1.224646799147353207E-16, -0.0000000000000000000, -1.000000000000000000 ) ) ;
#17 = COLOUR_RGB ( '',0.7921568627450980005, 0.8196078431372548767, 0.9333333333333333481 ) ;
#18 = EDGE_CURVE ( 'NONE', #265, #83, #261, .T. ) ;
#19 = CONICAL_SURFACE ( 'NONE', #292, 0.07022970000000000601, 0.1745329251994338915 ) ;
#20 = DIRECTION ( 'NONE',  ( -1.000000000000000000, 0.0000000000000000000, 1.224646799147353207E-16 ) ) ;
#21 = LINE ( 'NONE', #173, #272 ) ;
#22 = ORIENTED_EDGE ( 'NONE', *, *, #101, .F. ) ;
#23 = APPLICATION_CONTEXT ( 'automotive_design' ) ;
#24 = CARTESIAN_POINT ( 'NONE',  ( -0.07022969999999995050, 1.004086073650716183E-17, 0.5000000000000000000 ) ) ;
#25 = STYLED_ITEM ( 'NONE', ( #97 ), #44 ) ;
#26 = CIRCLE ( 'NONE', #14, 0.07022970000000000601 ) ;
#27 = CARTESIAN_POINT ( 'NONE',  ( 6.123233995736766036E-17, 0.0000000000000000000, 0.5000000000000000000 ) ) ;
#28 = CARTESIAN_POINT ( 'NONE',  ( -0.07022970000000000601, 0.0000000000000000000, 1.720131546201577623E-17 ) ) ;
#29 = APPLICATION_PROTOCOL_DEFINITION ( 'draft international standard', 'automotive_design', 1998, #23 ) ;
#30 = ORIENTED_EDGE ( 'NONE', *, *, #229, .F. ) ;
#31 = VECTOR ( 'NONE', #216, 39.37007874015748143 ) ;
#32 = VERTEX_POINT ( 'NONE', #174 ) ;
#33 = DIRECTION ( 'NONE',  ( 0.0000000000000000000, 0.0000000000000000000, -1.000000000000000000 ) ) ;
#34 = VERTEX_POINT ( 'NONE', #49 ) ;
#35 = SURFACE_STYLE_USAGE ( .BOTH. , #183 ) ;
#36 = ORIENTED_EDGE ( 'NONE', *, *, #37, .F. ) ;
#37 = EDGE_CURVE ( 'NONE', #9, #136, #72, .T. ) ;
#38 = AXIS2_PLACEMENT_3D ( 'NONE', #250, #279, #194 ) ;
#39 = ADVANCED_FACE ( 'NONE', ( #297 ), #238, .T. ) ;
#40 = VECTOR ( 'NONE', #293, 39.37007874015748143 ) ;
#41 = DIRECTION ( 'NONE',  ( 1.000000000000000000, 0.0000000000000000000, 0.0000000000000000000 ) ) ;
#42 = DIRECTION ( 'NONE',  ( -1.000000000000000000, 0.0000000000000000000, 0.0000000000000000000 ) ) ;
#43 = MECHANICAL_DESIGN_GEOMETRIC_PRESENTATION_REPRESENTATION (  '', ( #96 ), #134 ) ;
#44 = MANIFOLD_SOLID_BREP ( 'Cut-Revolve1', #201 ) ;
#45 = CARTESIAN_POINT ( 'NONE',  ( 0.0000000000000000000, 0.0000000000000000000, 2.000000000000000000 ) ) ;
#46 = DIRECTION ( 'NONE',  ( -1.224646799147353207E-16, -0.0000000000000000000, -1.000000000000000000 ) ) ;
#47 = FACE_OUTER_BOUND ( 'NONE', #202, .T. ) ;
#48 = UNCERTAINTY_MEASURE_WITH_UNIT (LENGTH_MEASURE( 1.000000000000000082E-05 ), #203, 'distance_accuracy_value', 'NONE');
#49 = CARTESIAN_POINT ( 'NONE',  ( 0.07022970000000007540, 0.0000000000000000000, 0.5000000000000000000 ) ) ;
#50 = ORIENTED_EDGE ( 'NONE', *, *, #144, .T. ) ;
#51 = FACE_OUTER_BOUND ( 'NONE', #56, .T. ) ;
#52 = SURFACE_STYLE_FILL_AREA ( #242 ) ;
#53 = ORIENTED_EDGE ( 'NONE', *, *, #281, .T. ) ;
#54 = DIMENSIONAL_EXPONENTS ( 1.000000000000000000, 0.0000000000000000000, 0.0000000000000000000, 0.0000000000000000000, 0.0000000000000000000, 0.0000000000000000000, 0.0000000000000000000 ) ;
#55 = AXIS2_PLACEMENT_3D ( 'NONE', #212, #211, #254 ) ;
#56 = EDGE_LOOP ( 'NONE', ( #204, #180 ) ) ;
#57 = PRESENTATION_STYLE_ASSIGNMENT (( #35 ) ) ;
#58 = EDGE_CURVE ( 'NONE', #32, #99, #209, .T. ) ;
#59 = ORIENTED_EDGE ( 'NONE', *, *, #58, .F. ) ;
#60 = FILL_AREA_STYLE ('',( #288 ) ) ;
#61 = AXIS2_PLACEMENT_3D ( 'NONE', #78, #258, #219 ) ;
#62 = AXIS2_PLACEMENT_3D ( 'NONE', #45, #98, #146 ) ;
#63 = EDGE_CURVE ( 'NONE', #99, #83, #2, .T. ) ;
#64 = PRODUCT_CONTEXT ( 'NONE', #23, 'mechanical' ) ;
#65 = DIRECTION ( 'NONE',  ( -1.224646799147353207E-16, -0.0000000000000000000, -1.000000000000000000 ) ) ;
#66 = CIRCLE ( 'NONE', #239, 0.07022970000000000601 ) ;
#67 = ADVANCED_FACE ( 'NONE', ( #285 ), #81, .T. ) ;
#68 = CYLINDRICAL_SURFACE ( 'NONE', #55, 0.07022970000000000601 ) ;
#69 = DIRECTION ( 'NONE',  ( -1.000000000000000000, 0.0000000000000000000, 0.0000000000000000000 ) ) ;
#70 = FACE_OUTER_BOUND ( 'NONE', #287, .T. ) ;
#71 = EDGE_CURVE ( 'NONE', #265, #224, #142, .T. ) ;
#72 = CIRCLE ( 'NONE', #296, 0.07022970000000000601 ) ;
#73 = AXIS2_PLACEMENT_3D ( 'NONE', #245, #286, #158 ) ;
#74 = DIRECTION ( 'NONE',  ( 1.224646799147353207E-16, 0.0000000000000000000, 1.000000000000000000 ) ) ;
#75 = PRODUCT_DEFINITION_CONTEXT ( 'detailed design', #230, 'design' ) ;
#76 = ORIENTED_EDGE ( 'NONE', *, *, #228, .F. ) ;
#77 = DIRECTION ( 'NONE',  ( -0.0000000000000000000, -0.0000000000000000000, -1.000000000000000000 ) ) ;
#78 = CARTESIAN_POINT ( 'NONE',  ( 0.0000000000000000000, 0.0000000000000000000, 2.000000000000000000 ) ) ;
#79 = ORIENTED_EDGE ( 'NONE', *, *, #91, .F. ) ;
#80 = FACE_OUTER_BOUND ( 'NONE', #282, .T. ) ;
#81 = CYLINDRICAL_SURFACE ( 'NONE', #150, 0.07022970000000000601 ) ;
#82 = ORIENTED_EDGE ( 'NONE', *, *, #141, .F. ) ;
#83 = VERTEX_POINT ( 'NONE', #114 ) ;
#84 = SURFACE_STYLE_FILL_AREA ( #60 ) ;
#85 = ORIENTED_EDGE ( 'NONE', *, *, #71, .F. ) ;
#86 = LENGTH_MEASURE_WITH_UNIT ( LENGTH_MEASURE( 0.02539999999999999897 ), #175 );
#87 = PRODUCT ( 'Micro_GEM-140-4X', 'Micro_GEM-140-4X', '', ( #64 ) ) ;
#88 = SHAPE_DEFINITION_REPRESENTATION ( #113, #186 ) ;
#89 = EDGE_CURVE ( 'NONE', #136, #9, #26, .T. ) ;
#90 = CIRCLE ( 'NONE', #277, 0.09375000000000001388 ) ;
#91 = EDGE_CURVE ( 'NONE', #179, #9, #276, .T. ) ;
#92 = AXIS2_PLACEMENT_3D ( 'NONE', #243, #259, #6 ) ;
#93 = CARTESIAN_POINT ( 'NONE',  ( 0.07022970000000000601, 8.600657731007888113E-18, -8.600657731007888113E-18 ) ) ;
#94 = DIRECTION ( 'NONE',  ( 0.0000000000000000000, 0.0000000000000000000, -1.000000000000000000 ) ) ;
#95 = CARTESIAN_POINT ( 'NONE',  ( 0.07022970000000007540, 0.0000000000000000000, 0.5000000000000000000 ) ) ;
#96 = STYLED_ITEM ( 'NONE', ( #57 ), #186 ) ;
#97 = PRESENTATION_STYLE_ASSIGNMENT (( #129 ) ) ;
#98 = DIRECTION ( 'NONE',  ( 0.0000000000000000000, 0.0000000000000000000, 1.000000000000000000 ) ) ;
#99 = VERTEX_POINT ( 'NONE', #231 ) ;
#100 = LINE ( 'NONE', #192, #270 ) ;
#101 = EDGE_CURVE ( 'NONE', #137, #224, #125, .T. ) ;
#102 = CARTESIAN_POINT ( 'NONE',  ( 0.07874999999999980627, 9.644093543285380530E-18, 2.000000000000000000 ) ) ;
#103 = AXIS2_PLACEMENT_3D ( 'NONE', #5, #222, #220 ) ;
#104 = EDGE_LOOP ( 'NONE', ( #157, #225, #36, #79 ) ) ;
#105 = CARTESIAN_POINT ( 'NONE',  ( 7.756793420066120836E-17, 0.0000000000000000000, 0.6333902497819535737 ) ) ;
#106 = FILL_AREA_STYLE_COLOUR ( '', #17 ) ;
#107 = ORIENTED_EDGE ( 'NONE', *, *, #281, .F. ) ;
#108 = DIRECTION ( 'NONE',  ( -1.224646799147353207E-16, -0.0000000000000000000, -1.000000000000000000 ) ) ;
#109 = ORIENTED_EDGE ( 'NONE', *, *, #120, .F. ) ;
#110 =( GEOMETRIC_REPRESENTATION_CONTEXT ( 3 ) GLOBAL_UNCERTAINTY_ASSIGNED_CONTEXT ( ( #280 ) ) GLOBAL_UNIT_ASSIGNED_CONTEXT ( ( #221, #193, #237 ) ) REPRESENTATION_CONTEXT ( 'NONE', 'WORKASPACE' ) );
#111 = CIRCLE ( 'NONE', #116, 0.07022970000000000601 ) ;
#112 = ORIENTED_EDGE ( 'NONE', *, *, #89, .F. ) ;
#113 = PRODUCT_DEFINITION_SHAPE ( 'NONE', 'NONE',  #13 ) ;
#114 = CARTESIAN_POINT ( 'NONE',  ( 0.09375000000000001388, 1.148106374200643863E-17, 1.984999999999999654 ) ) ;
#115 = ADVANCED_FACE ( 'NONE', ( #234 ), #19, .T. ) ;
#116 = AXIS2_PLACEMENT_3D ( 'NONE', #168, #294, #124 ) ;
#117 = AXIS2_PLACEMENT_3D ( 'NONE', #278, #213, #275 ) ;
#118 = CARTESIAN_POINT ( 'NONE',  ( 0.0000000000000000000, 0.0000000000000000000, 1.984999999999999654 ) ) ;
#119 = CARTESIAN_POINT ( 'NONE',  ( 0.09375000000000009714, 1.148106374200644787E-17, 0.6333902497819535737 ) ) ;
#120 = EDGE_CURVE ( 'NONE', #83, #265, #163, .T. ) ;
#121 = DIRECTION ( 'NONE',  ( 1.000000000000000000, 0.0000000000000000000, 0.0000000000000000000 ) ) ;
#122 = UNCERTAINTY_MEASURE_WITH_UNIT (LENGTH_MEASURE( 1.000000000000000082E-05 ), #195, 'distance_accuracy_value', 'NONE');
#123 = ORIENTED_EDGE ( 'NONE', *, *, #37, .T. ) ;
#124 = DIRECTION ( 'NONE',  ( -1.000000000000000000, 0.0000000000000000000, 0.0000000000000000000 ) ) ;
#125 = CIRCLE ( 'NONE', #38, 0.09375000000000001388 ) ;
#126 = ORIENTED_EDGE ( 'NONE', *, *, #63, .F. ) ;
#127 = DIRECTION ( 'NONE',  ( -0.0000000000000000000, -0.0000000000000000000, -1.000000000000000000 ) ) ;
#128 = ADVANCED_FACE ( 'NONE', ( #70 ), #240, .T. ) ;
#129 = SURFACE_STYLE_USAGE ( .BOTH. , #147 ) ;
#130 =( NAMED_UNIT ( * ) SI_UNIT ( $, .STERADIAN. ) SOLID_ANGLE_UNIT ( ) );
#131 = ADVANCED_FACE ( 'NONE', ( #47 ), #218, .F. ) ;
#132 = LENGTH_MEASURE_WITH_UNIT ( LENGTH_MEASURE( 0.02539999999999999897 ), #256 );
#133 = PLANE ( 'NONE',  #103 ) ;
#134 =( GEOMETRIC_REPRESENTATION_CONTEXT ( 3 ) GLOBAL_UNCERTAINTY_ASSIGNED_CONTEXT ( ( #122 ) ) GLOBAL_UNIT_ASSIGNED_CONTEXT ( ( #195, #269, #139 ) ) REPRESENTATION_CONTEXT ( 'NONE', 'WORKASPACE' ) );
#135 = CARTESIAN_POINT ( 'NONE',  ( 1.053276796084074714E-33, 0.0000000000000000000, 8.600657731007888113E-18 ) ) ;
#136 = VERTEX_POINT ( 'NONE', #143 ) ;
#137 = VERTEX_POINT ( 'NONE', #119 ) ;
#138 = ORIENTED_EDGE ( 'NONE', *, *, #232, .F. ) ;
#139 =( NAMED_UNIT ( * ) SI_UNIT ( $, .STERADIAN. ) SOLID_ANGLE_UNIT ( ) );
#140 = DIMENSIONAL_EXPONENTS ( 1.000000000000000000, 0.0000000000000000000, 0.0000000000000000000, 0.0000000000000000000, 0.0000000000000000000, 0.0000000000000000000, 0.0000000000000000000 ) ;
#141 = EDGE_CURVE ( 'NONE', #34, #136, #145, .T. ) ;
#142 = LINE ( 'NONE', #15, #191 ) ;
#143 = CARTESIAN_POINT ( 'NONE',  ( 0.07022970000000000601, 8.600657731007888113E-18, 0.0000000000000000000 ) ) ;
#144 = EDGE_CURVE ( 'NONE', #34, #137, #1, .T. ) ;
#145 = LINE ( 'NONE', #93, #31 ) ;
#146 = DIRECTION ( 'NONE',  ( 1.000000000000000000, 0.0000000000000000000, 0.0000000000000000000 ) ) ;
#147 = SURFACE_SIDE_STYLE ('',( #52 ) ) ;
#148 = FACE_OUTER_BOUND ( 'NONE', #268, .T. ) ;
#149 = DIRECTION ( 'NONE',  ( -0.7071067811865463515, 0.0000000000000000000, -0.7071067811865486830 ) ) ;
#150 = AXIS2_PLACEMENT_3D ( 'NONE', #262, #65, #165 ) ;
#151 = EDGE_LOOP ( 'NONE', ( #76, #159, #53, #182 ) ) ;
#152 = ORIENTED_EDGE ( 'NONE', *, *, #89, .T. ) ;
#153 =( NAMED_UNIT ( * ) PLANE_ANGLE_UNIT ( ) SI_UNIT ( $, .RADIAN. ) );
#154 = EDGE_LOOP ( 'NONE', ( #82, #214, #7, #112 ) ) ;
#155 = ORIENTED_EDGE ( 'NONE', *, *, #198, .F. ) ;
#156 = PRODUCT_DEFINITION_FORMATION_WITH_SPECIFIED_SOURCE ( 'ANY', '', #87, .NOT_KNOWN. ) ;
#157 = ORIENTED_EDGE ( 'NONE', *, *, #228, .T. ) ;
#158 = DIRECTION ( 'NONE',  ( -1.000000000000000000, 0.0000000000000000000, 0.0000000000000000000 ) ) ;
#159 = ORIENTED_EDGE ( 'NONE', *, *, #160, .T. ) ;
#160 = EDGE_CURVE ( 'NONE', #179, #224, #100, .T. ) ;
#161 = DIRECTION ( 'NONE',  ( 1.000000000000000000, 0.0000000000000000000, 0.0000000000000000000 ) ) ;
#162 = DIMENSIONAL_EXPONENTS ( 1.000000000000000000, 0.0000000000000000000, 0.0000000000000000000, 0.0000000000000000000, 0.0000000000000000000, 0.0000000000000000000, 0.0000000000000000000 ) ;
#163 = CIRCLE ( 'NONE', #215, 0.09375000000000001388 ) ;
#164 = APPLICATION_PROTOCOL_DEFINITION ( 'draft international standard', 'automotive_design', 1998, #230 ) ;
#165 = DIRECTION ( 'NONE',  ( -1.000000000000000000, 0.0000000000000000000, 1.224646799147353207E-16 ) ) ;
#166 = CARTESIAN_POINT ( 'NONE',  ( 6.123233995736766036E-17, 0.0000000000000000000, 0.5000000000000000000 ) ) ;
#167 = ADVANCED_FACE ( 'NONE', ( #298 ), #68, .T. ) ;
#168 = CARTESIAN_POINT ( 'NONE',  ( 6.123233995736766036E-17, 0.0000000000000000000, 0.5000000000000000000 ) ) ;
#169 = AXIS2_PLACEMENT_3D ( 'NONE', #295, #127, #42 ) ;
#170 = DIRECTION ( 'NONE',  ( 1.000000000000000000, 0.0000000000000000000, 0.0000000000000000000 ) ) ;
#171 = LINE ( 'NONE', #255, #208 ) ;
#172 = ORIENTED_EDGE ( 'NONE', *, *, #232, .T. ) ;
#173 = CARTESIAN_POINT ( 'NONE',  ( -0.07874999999999980627, 0.0000000000000000000, 2.000000000000000000 ) ) ;
#174 = CARTESIAN_POINT ( 'NONE',  ( -0.07874999999999980627, 0.0000000000000000000, 2.000000000000000000 ) ) ;
#175 =( LENGTH_UNIT ( ) NAMED_UNIT ( * ) SI_UNIT ( $, .METRE. ) );
#176 = CIRCLE ( 'NONE', #62, 0.07874999999999980627 ) ;
#177 = ORIENTED_EDGE ( 'NONE', *, *, #18, .T. ) ;
#178 = CARTESIAN_POINT ( 'NONE',  ( 0.0000000000000000000, 0.0000000000000000000, 2.000000000000000000 ) ) ;
#179 = VERTEX_POINT ( 'NONE', #24 ) ;
#180 = ORIENTED_EDGE ( 'NONE', *, *, #229, .T. ) ;
#181 = ORIENTED_EDGE ( 'NONE', *, *, #120, .T. ) ;
#182 = ORIENTED_EDGE ( 'NONE', *, *, #144, .F. ) ;
#183 = SURFACE_SIDE_STYLE ('',( #84 ) ) ;
#184 = ORIENTED_EDGE ( 'NONE', *, *, #71, .T. ) ;
#185 = PRESENTATION_LAYER_ASSIGNMENT (  '', '', ( #96 ) ) ;
#186 = ADVANCED_BREP_SHAPE_REPRESENTATION ( 'Micro_GEM-140-4X', ( #44, #290 ), #267 ) ;
#187 = ADVANCED_FACE ( 'NONE', ( #148 ), #207, .T. ) ;
#188 = CONICAL_SURFACE ( 'NONE', #210, 0.07874999999999980627, 0.7853981633974466137 ) ;
#189 = CARTESIAN_POINT ( 'NONE',  ( 6.123233995736766036E-17, 0.0000000000000000000, 0.5000000000000000000 ) ) ;
#190 = CARTESIAN_POINT ( 'NONE',  ( -0.09374999999999991673, 0.0000000000000000000, 0.6333902497819535737 ) ) ;
#191 = VECTOR ( 'NONE', #291, 39.37007874015748143 ) ;
#192 = CARTESIAN_POINT ( 'NONE',  ( -0.07022969999999995050, 8.600657731007888113E-18, 0.5000000000000000000 ) ) ;
#193 =( NAMED_UNIT ( * ) PLANE_ANGLE_UNIT ( ) SI_UNIT ( $, .RADIAN. ) );
#194 = DIRECTION ( 'NONE',  ( 1.000000000000000000, 0.0000000000000000000, 0.0000000000000000000 ) ) ;
#195 =( CONVERSION_BASED_UNIT ( 'INCH', #86 ) LENGTH_UNIT ( ) NAMED_UNIT ( #54 ) );
#196 = DIRECTION ( 'NONE',  ( -1.224646799147353207E-16, -0.0000000000000000000, -1.000000000000000000 ) ) ;
#197 = CARTESIAN_POINT ( 'NONE',  ( 0.0000000000000000000, 0.0000000000000000000, 0.0000000000000000000 ) ) ;
#198 = EDGE_CURVE ( 'NONE', #83, #137, #171, .T. ) ;
#199 = DIRECTION ( 'NONE',  ( 1.000000000000000000, 0.0000000000000000000, 0.0000000000000000000 ) ) ;
#200 = EDGE_LOOP ( 'NONE', ( #177, #244, #107, #85 ) ) ;
#201 = CLOSED_SHELL ( 'NONE', ( #167, #115, #252, #299, #128, #274, #39, #187, #67, #131 ) ) ;
#202 = EDGE_LOOP ( 'NONE', ( #123, #152 ) ) ;
#203 =( CONVERSION_BASED_UNIT ( 'INCH', #247 ) LENGTH_UNIT ( ) NAMED_UNIT ( #140 ) );
#204 = ORIENTED_EDGE ( 'NONE', *, *, #58, .T. ) ;
#205 = PRODUCT_RELATED_PRODUCT_CATEGORY ( 'part', '', ( #87 ) ) ;
#206 = MECHANICAL_DESIGN_GEOMETRIC_PRESENTATION_REPRESENTATION (  '', ( #25 ), #110 ) ;
#207 = CONICAL_SURFACE ( 'NONE', #249, 0.07022970000000000601, 0.1745329251994338915 ) ;
#208 = VECTOR ( 'NONE', #77, 39.37007874015748143 ) ;
#209 = CIRCLE ( 'NONE', #61, 0.07874999999999980627 ) ;
#210 = AXIS2_PLACEMENT_3D ( 'NONE', #178, #33, #8 ) ;
#211 = DIRECTION ( 'NONE',  ( -1.224646799147353207E-16, -0.0000000000000000000, -1.000000000000000000 ) ) ;
#212 = CARTESIAN_POINT ( 'NONE',  ( 0.0000000000000000000, 0.0000000000000000000, 0.0000000000000000000 ) ) ;
#213 = DIRECTION ( 'NONE',  ( 0.0000000000000000000, 0.0000000000000000000, 1.000000000000000000 ) ) ;
#214 = ORIENTED_EDGE ( 'NONE', *, *, #226, .T. ) ;
#215 = AXIS2_PLACEMENT_3D ( 'NONE', #118, #94, #121 ) ;
#216 = DIRECTION ( 'NONE',  ( -1.224646799147353207E-16, -0.0000000000000000000, -1.000000000000000000 ) ) ;
#217 = CARTESIAN_POINT ( 'NONE',  ( 0.0000000000000000000, 0.0000000000000000000, 1.984999999999999654 ) ) ;
#218 = PLANE ( 'NONE',  #117 ) ;
#219 = DIRECTION ( 'NONE',  ( 1.000000000000000000, 0.0000000000000000000, 0.0000000000000000000 ) ) ;
#220 = DIRECTION ( 'NONE',  ( 1.000000000000000000, 0.0000000000000000000, -0.0000000000000000000 ) ) ;
#221 =( CONVERSION_BASED_UNIT ( 'INCH', #132 ) LENGTH_UNIT ( ) NAMED_UNIT ( #162 ) );
#222 = DIRECTION ( 'NONE',  ( 0.0000000000000000000, 0.0000000000000000000, 1.000000000000000000 ) ) ;
#223 = DIRECTION ( 'NONE',  ( -1.000000000000000000, 0.0000000000000000000, 1.224646799147353207E-16 ) ) ;
#224 = VERTEX_POINT ( 'NONE', #190 ) ;
#225 = ORIENTED_EDGE ( 'NONE', *, *, #141, .T. ) ;
#226 = EDGE_CURVE ( 'NONE', #34, #179, #66, .T. ) ;
#227 = ORIENTED_EDGE ( 'NONE', *, *, #101, .T. ) ;
#228 = EDGE_CURVE ( 'NONE', #179, #34, #111, .T. ) ;
#229 = EDGE_CURVE ( 'NONE', #99, #32, #176, .T. ) ;
#230 = APPLICATION_CONTEXT ( 'automotive_design' ) ;
#231 = CARTESIAN_POINT ( 'NONE',  ( 0.07874999999999980627, 1.056257864264590573E-17, 2.000000000000000000 ) ) ;
#232 = EDGE_CURVE ( 'NONE', #32, #265, #21, .T. ) ;
#233 = VECTOR ( 'NONE', #4, 39.37007874015748143 ) ;
#234 = FACE_OUTER_BOUND ( 'NONE', #151, .T. ) ;
#235 = CARTESIAN_POINT ( 'NONE',  ( -0.07022970000000000601, 0.0000000000000000000, 8.600657731007888113E-18 ) ) ;
#236 = DIRECTION ( 'NONE',  ( 0.1736481776669313859, 0.0000000000000000000, 0.9848077530122077983 ) ) ;
#237 =( NAMED_UNIT ( * ) SI_UNIT ( $, .STERADIAN. ) SOLID_ANGLE_UNIT ( ) );
#238 = CONICAL_SURFACE ( 'NONE', #92, 0.07874999999999980627, 0.7853981633974466137 ) ;
#239 = AXIS2_PLACEMENT_3D ( 'NONE', #189, #16, #69 ) ;
#240 = CYLINDRICAL_SURFACE ( 'NONE', #169, 0.09375000000000001388 ) ;
#241 = DIRECTION ( 'NONE',  ( 1.000000000000000000, 0.0000000000000000000, 0.0000000000000000000 ) ) ;
#242 = FILL_AREA_STYLE ('',( #106 ) ) ;
#243 = CARTESIAN_POINT ( 'NONE',  ( 0.0000000000000000000, 0.0000000000000000000, 2.000000000000000000 ) ) ;
#244 = ORIENTED_EDGE ( 'NONE', *, *, #198, .T. ) ;
#245 = CARTESIAN_POINT ( 'NONE',  ( 0.0000000000000000000, 0.0000000000000000000, 2.000000000000000000 ) ) ;
#246 = EDGE_LOOP ( 'NONE', ( #126, #59, #172, #109 ) ) ;
#247 = LENGTH_MEASURE_WITH_UNIT ( LENGTH_MEASURE( 0.02539999999999999897 ), #260 );
#248 = ORIENTED_EDGE ( 'NONE', *, *, #63, .T. ) ;
#249 = AXIS2_PLACEMENT_3D ( 'NONE', #166, #74, #170 ) ;
#250 = CARTESIAN_POINT ( 'NONE',  ( 7.756793420066120836E-17, 0.0000000000000000000, 0.6333902497819535737 ) ) ;
#251 = CARTESIAN_POINT ( 'NONE',  ( 1.053276796084074714E-33, 0.0000000000000000000, 8.600657731007888113E-18 ) ) ;
#252 = ADVANCED_FACE ( 'NONE', ( #80 ), #188, .T. ) ;
#253 = AXIS2_PLACEMENT_3D ( 'NONE', #217, #264, #241 ) ;
#254 = DIRECTION ( 'NONE',  ( -1.000000000000000000, 0.0000000000000000000, 1.224646799147353207E-16 ) ) ;
#255 = CARTESIAN_POINT ( 'NONE',  ( 0.09375000000000001388, 1.148106374200643863E-17, 2.000000000000000000 ) ) ;
#256 =( LENGTH_UNIT ( ) NAMED_UNIT ( * ) SI_UNIT ( $, .METRE. ) );
#257 = DIRECTION ( 'NONE',  ( 1.224646799147353207E-16, 0.0000000000000000000, 1.000000000000000000 ) ) ;
#258 = DIRECTION ( 'NONE',  ( 0.0000000000000000000, 0.0000000000000000000, 1.000000000000000000 ) ) ;
#259 = DIRECTION ( 'NONE',  ( 0.0000000000000000000, 0.0000000000000000000, -1.000000000000000000 ) ) ;
#260 =( LENGTH_UNIT ( ) NAMED_UNIT ( * ) SI_UNIT ( $, .METRE. ) );
#261 = CIRCLE ( 'NONE', #253, 0.09375000000000001388 ) ;
#262 = CARTESIAN_POINT ( 'NONE',  ( 0.0000000000000000000, 0.0000000000000000000, 0.0000000000000000000 ) ) ;
#263 = ORIENTED_EDGE ( 'NONE', *, *, #18, .F. ) ;
#264 = DIRECTION ( 'NONE',  ( 0.0000000000000000000, 0.0000000000000000000, -1.000000000000000000 ) ) ;
#265 = VERTEX_POINT ( 'NONE', #10 ) ;
#266 = FACE_OUTER_BOUND ( 'NONE', #200, .T. ) ;
#267 =( GEOMETRIC_REPRESENTATION_CONTEXT ( 3 ) GLOBAL_UNCERTAINTY_ASSIGNED_CONTEXT ( ( #48 ) ) GLOBAL_UNIT_ASSIGNED_CONTEXT ( ( #203, #153, #130 ) ) REPRESENTATION_CONTEXT ( 'NONE', 'WORKASPACE' ) );
#268 = EDGE_LOOP ( 'NONE', ( #11, #289, #50, #227 ) ) ;
#269 =( NAMED_UNIT ( * ) PLANE_ANGLE_UNIT ( ) SI_UNIT ( $, .RADIAN. ) );
#270 = VECTOR ( 'NONE', #273, 39.37007874015747433 ) ;
#271 = DIRECTION ( 'NONE',  ( 0.0000000000000000000, 0.0000000000000000000, 1.000000000000000000 ) ) ;
#272 = VECTOR ( 'NONE', #149, 39.37007874015748143 ) ;
#273 = DIRECTION ( 'NONE',  ( -0.1736481776669311916, 2.126576849575783316E-17, 0.9848077530122080203 ) ) ;
#274 = ADVANCED_FACE ( 'NONE', ( #51 ), #133, .T. ) ;
#275 = DIRECTION ( 'NONE',  ( 1.000000000000000000, 0.0000000000000000000, -0.0000000000000000000 ) ) ;
#276 = LINE ( 'NONE', #235, #40 ) ;
#277 = AXIS2_PLACEMENT_3D ( 'NONE', #105, #108, #199 ) ;
#278 = CARTESIAN_POINT ( 'NONE',  ( 0.0000000000000000000, 0.0000000000000000000, 0.0000000000000000000 ) ) ;
#279 = DIRECTION ( 'NONE',  ( -1.224646799147353207E-16, -0.0000000000000000000, -1.000000000000000000 ) ) ;
#280 = UNCERTAINTY_MEASURE_WITH_UNIT (LENGTH_MEASURE( 1.000000000000000082E-05 ), #221, 'distance_accuracy_value', 'NONE');
#281 = EDGE_CURVE ( 'NONE', #224, #137, #90, .T. ) ;
#282 = EDGE_LOOP ( 'NONE', ( #30, #248, #263, #138 ) ) ;
#283 = PRESENTATION_LAYER_ASSIGNMENT (  '', '', ( #25 ) ) ;
#284 = COLOUR_RGB ( '',0.7921568627450980005, 0.8196078431372548767, 0.9333333333333333481 ) ;
#285 = FACE_OUTER_BOUND ( 'NONE', #154, .T. ) ;
#286 = DIRECTION ( 'NONE',  ( -0.0000000000000000000, -0.0000000000000000000, -1.000000000000000000 ) ) ;
#287 = EDGE_LOOP ( 'NONE', ( #155, #181, #184, #22 ) ) ;
#288 = FILL_AREA_STYLE_COLOUR ( '', #284 ) ;
#289 = ORIENTED_EDGE ( 'NONE', *, *, #226, .F. ) ;
#290 = AXIS2_PLACEMENT_3D ( 'NONE', #197, #271, #161 ) ;
#291 = DIRECTION ( 'NONE',  ( -0.0000000000000000000, -0.0000000000000000000, -1.000000000000000000 ) ) ;
#292 = AXIS2_PLACEMENT_3D ( 'NONE', #27, #257, #41 ) ;
#293 = DIRECTION ( 'NONE',  ( -1.224646799147353207E-16, -0.0000000000000000000, -1.000000000000000000 ) ) ;
#294 = DIRECTION ( 'NONE',  ( -1.224646799147353207E-16, -0.0000000000000000000, -1.000000000000000000 ) ) ;
#295 = CARTESIAN_POINT ( 'NONE',  ( 0.0000000000000000000, 0.0000000000000000000, 2.000000000000000000 ) ) ;
#296 = AXIS2_PLACEMENT_3D ( 'NONE', #135, #196, #223 ) ;
#297 = FACE_OUTER_BOUND ( 'NONE', #246, .T. ) ;
#298 = FACE_OUTER_BOUND ( 'NONE', #104, .T. ) ;
#299 = ADVANCED_FACE ( 'NONE', ( #266 ), #3, .T. ) ;
ENDSEC;
END-ISO-10303-21;
