ISO-10303-21;
HEADER;
FILE_DESCRIPTION (( 'STEP AP214' ),
    '1' );
FILE_NAME ('59796.STEP',
    '2023-07-24T15:40:44',
    ( '' ),
    ( '' ),
    'SwSTEP 2.0',
    'SolidWorks 2023',
    '' );
FILE_SCHEMA (( 'AUTOMOTIVE_DESIGN' ));
ENDSEC;

DATA;
#1 = SURFACE_STYLE_FILL_AREA ( #83 ) ;
#2 = DIRECTION ( 'NONE',  ( -1.000000000000000000, 0.000000000000000000, 0.000000000000000000 ) ) ;
#3 = ORIENTED_EDGE ( 'NONE', *, *, #53, .T. ) ;
#4 = FACE_OUTER_BOUND ( 'NONE', #167, .T. ) ;
#5 = ORIENTED_EDGE ( 'NONE', *, *, #11, .F. ) ;
#6 = DIRECTION ( 'NONE',  ( 0.000000000000000000, 0.000000000000000000, -1.000000000000000000 ) ) ;
#7 = ORIENTED_EDGE ( 'NONE', *, *, #269, .T. ) ;
#8 = DIRECTION ( 'NONE',  ( 1.000000000000000000, 0.000000000000000000, 0.000000000000000000 ) ) ;
#9 = STYLED_ITEM ( 'NONE', ( #44 ), #317 ) ;
#10 = EDGE_LOOP ( 'NONE', ( #229, #50, #109, #226 ) ) ;
#11 = EDGE_CURVE ( 'NONE', #90, #40, #157, .T. ) ;
#12 = AXIS2_PLACEMENT_3D ( 'NONE', #267, #19, #339 ) ;
#13 = ORIENTED_EDGE ( 'NONE', *, *, #170, .F. ) ;
#14 = EDGE_CURVE ( 'NONE', #188, #90, #239, .T. ) ;
#15 = DIRECTION ( 'NONE',  ( -0.000000000000000000, -1.000000000000000000, -0.000000000000000000 ) ) ;
#16 = DIRECTION ( 'NONE',  ( -0.000000000000000000, -1.000000000000000000, -0.000000000000000000 ) ) ;
#17 = VECTOR ( 'NONE', #247, 1000.000000000000000 ) ;
#18 = CIRCLE ( 'NONE', #313, 2.999999999999991562 ) ;
#19 = DIRECTION ( 'NONE',  ( -0.000000000000000000, -1.000000000000000000, -0.000000000000000000 ) ) ;
#20 = ADVANCED_FACE ( 'NONE', ( #171 ), #289, .T. ) ;
#21 = PRODUCT_DEFINITION_CONTEXT ( 'detailed design', #26, 'design' ) ;
#22 = SURFACE_SIDE_STYLE ('',( #134 ) ) ;
#23 =( GEOMETRIC_REPRESENTATION_CONTEXT ( 3 ) GLOBAL_UNCERTAINTY_ASSIGNED_CONTEXT ( ( #212 ) ) GLOBAL_UNIT_ASSIGNED_CONTEXT ( ( #230, #348, #321 ) ) REPRESENTATION_CONTEXT ( 'NONE', 'WORKASPACE' ) );
#24 = APPLICATION_PROTOCOL_DEFINITION ( 'draft international standard', 'automotive_design', 1998, #292 ) ;
#25 = ORIENTED_EDGE ( 'NONE', *, *, #215, .F. ) ;
#26 = APPLICATION_CONTEXT ( 'automotive_design' ) ;
#27 =( NAMED_UNIT ( * ) PLANE_ANGLE_UNIT ( ) SI_UNIT ( $, .RADIAN. ) );
#28 = PRODUCT_RELATED_PRODUCT_CATEGORY ( 'part', '', ( #149 ) ) ;
#29 = ORIENTED_EDGE ( 'NONE', *, *, #170, .T. ) ;
#30 = MECHANICAL_DESIGN_GEOMETRIC_PRESENTATION_REPRESENTATION (  '', ( #111 ), #182 ) ;
#31 = MECHANICAL_DESIGN_GEOMETRIC_PRESENTATION_REPRESENTATION (  '', ( #299 ), #122 ) ;
#32 = DIRECTION ( 'NONE',  ( -1.000000000000000000, 0.000000000000000000, 0.000000000000000000 ) ) ;
#33 = CARTESIAN_POINT ( 'NONE',  ( 3.673940397442058882E-16, 18.00000000000000355, 2.999999999999999112 ) ) ;
#34 =( NAMED_UNIT ( * ) PLANE_ANGLE_UNIT ( ) SI_UNIT ( $, .RADIAN. ) );
#35 = ORIENTED_EDGE ( 'NONE', *, *, #103, .T. ) ;
#36 = DIRECTION ( 'NONE',  ( -0.000000000000000000, -1.000000000000000000, -0.000000000000000000 ) ) ;
#37 = FILL_AREA_STYLE ('',( #138 ) ) ;
#38 =( GEOMETRIC_REPRESENTATION_CONTEXT ( 3 ) GLOBAL_UNCERTAINTY_ASSIGNED_CONTEXT ( ( #301 ) ) GLOBAL_UNIT_ASSIGNED_CONTEXT ( ( #137, #342, #89 ) ) REPRESENTATION_CONTEXT ( 'NONE', 'WORKASPACE' ) );
#39 = PRESENTATION_LAYER_ASSIGNMENT (  '', '', ( #299 ) ) ;
#40 = VERTEX_POINT ( 'NONE', #264 ) ;
#41 = ADVANCED_BREP_SHAPE_REPRESENTATION ( '59796', ( #225, #351, #106 ), #266 ) ;
#42 = TOROIDAL_SURFACE ( 'NONE', #298, 2.499999999999998668, 0.5000000000000002220 ) ;
#43 = PLANE ( 'NONE',  #197 ) ;
#44 = PRESENTATION_STYLE_ASSIGNMENT (( #95 ) ) ;
#45 = CARTESIAN_POINT ( 'NONE',  ( 2.999999999999999112, 18.00000000000000355, 3.673940397442046556E-16 ) ) ;
#46 = AXIS2_PLACEMENT_3D ( 'NONE', #251, #242, #303 ) ;
#47 = DIRECTION ( 'NONE',  ( 0.000000000000000000, 0.000000000000000000, -1.000000000000000000 ) ) ;
#48 = ORIENTED_EDGE ( 'NONE', *, *, #53, .F. ) ;
#49 = DIRECTION ( 'NONE',  ( 0.000000000000000000, 0.000000000000000000, -1.000000000000000000 ) ) ;
#50 = ORIENTED_EDGE ( 'NONE', *, *, #227, .T. ) ;
#51 = FACE_OUTER_BOUND ( 'NONE', #316, .T. ) ;
#52 = AXIS2_PLACEMENT_3D ( 'NONE', #354, #69, #272 ) ;
#53 = EDGE_CURVE ( 'NONE', #304, #216, #115, .T. ) ;
#54 = SURFACE_SIDE_STYLE ('',( #1 ) ) ;
#55 = CARTESIAN_POINT ( 'NONE',  ( -2.999999999999980460, 63.00000000000000000, 0.000000000000000000 ) ) ;
#56 = FILL_AREA_STYLE ('',( #337 ) ) ;
#57 = FILL_AREA_STYLE_COLOUR ( '', #98 ) ;
#58 =( LENGTH_UNIT ( ) NAMED_UNIT ( * ) SI_UNIT ( .MILLI., .METRE. ) );
#59 = VERTEX_POINT ( 'NONE', #273 ) ;
#60 = EDGE_CURVE ( 'NONE', #90, #188, #349, .T. ) ;
#61 = DIRECTION ( 'NONE',  ( -0.000000000000000000, -1.000000000000000000, -0.000000000000000000 ) ) ;
#62 = ORIENTED_EDGE ( 'NONE', *, *, #14, .T. ) ;
#63 = AXIS2_PLACEMENT_3D ( 'NONE', #223, #258, #344 ) ;
#64 = ADVANCED_FACE ( 'NONE', ( #236 ), #121, .F. ) ;
#65 = STYLED_ITEM ( 'NONE', ( #279 ), #225 ) ;
#66 = PRESENTATION_STYLE_ASSIGNMENT (( #116 ) ) ;
#67 = DIRECTION ( 'NONE',  ( -1.000000000000000000, -1.444848463910660280E-16, 0.000000000000000000 ) ) ;
#68 = SURFACE_STYLE_FILL_AREA ( #233 ) ;
#69 = DIRECTION ( 'NONE',  ( -1.444848463910660280E-16, 1.000000000000000000, -0.000000000000000000 ) ) ;
#70 = FACE_OUTER_BOUND ( 'NONE', #110, .T. ) ;
#71 = CARTESIAN_POINT ( 'NONE',  ( -2.999999999999970690, 18.00000000000000355, 0.000000000000000000 ) ) ;
#72 = COLOUR_RGB ( '',1.000000000000000000, 0.000000000000000000, 0.000000000000000000 ) ;
#73 = CARTESIAN_POINT ( 'NONE',  ( 0.000000000000000000, 0.5000000000000000000, 0.000000000000000000 ) ) ;
#74 =( NAMED_UNIT ( * ) SI_UNIT ( $, .STERADIAN. ) SOLID_ANGLE_UNIT ( ) );
#75 = SURFACE_STYLE_USAGE ( .BOTH. , #224 ) ;
#76 = ORIENTED_EDGE ( 'NONE', *, *, #343, .T. ) ;
#77 =( NAMED_UNIT ( * ) PLANE_ANGLE_UNIT ( ) SI_UNIT ( $, .RADIAN. ) );
#78 = DIRECTION ( 'NONE',  ( -0.000000000000000000, -1.000000000000000000, -0.000000000000000000 ) ) ;
#79 = CIRCLE ( 'NONE', #370, 2.999999999999999112 ) ;
#80 = DIRECTION ( 'NONE',  ( -1.000000000000000000, 0.000000000000000000, 0.000000000000000000 ) ) ;
#81 = DIRECTION ( 'NONE',  ( -1.444848463910660280E-16, 1.000000000000000000, -0.000000000000000000 ) ) ;
#82 = VERTEX_POINT ( 'NONE', #71 ) ;
#83 = FILL_AREA_STYLE ('',( #246 ) ) ;
#84 = LINE ( 'NONE', #55, #325 ) ;
#85 = ADVANCED_FACE ( 'NONE', ( #208 ), #118, .T. ) ;
#86 = ORIENTED_EDGE ( 'NONE', *, *, #103, .F. ) ;
#87 = PRESENTATION_LAYER_ASSIGNMENT (  '', '', ( #111 ) ) ;
#88 =( GEOMETRIC_REPRESENTATION_CONTEXT ( 3 ) GLOBAL_UNCERTAINTY_ASSIGNED_CONTEXT ( ( #96 ) ) GLOBAL_UNIT_ASSIGNED_CONTEXT ( ( #189, #27, #364 ) ) REPRESENTATION_CONTEXT ( 'NONE', 'WORKASPACE' ) );
#89 =( NAMED_UNIT ( * ) SI_UNIT ( $, .STERADIAN. ) SOLID_ANGLE_UNIT ( ) );
#90 = VERTEX_POINT ( 'NONE', #340 ) ;
#91 = ORIENTED_EDGE ( 'NONE', *, *, #215, .T. ) ;
#92 = EDGE_CURVE ( 'NONE', #341, #304, #249, .T. ) ;
#93 = PRESENTATION_LAYER_ASSIGNMENT (  '', '', ( #65 ) ) ;
#94 = PRESENTATION_LAYER_ASSIGNMENT (  '', '', ( #240 ) ) ;
#95 = SURFACE_STYLE_USAGE ( .BOTH. , #185 ) ;
#96 = UNCERTAINTY_MEASURE_WITH_UNIT (LENGTH_MEASURE( 1.000000000000000082E-05 ), #189, 'distance_accuracy_value', 'NONE');
#97 = AXIS2_PLACEMENT_3D ( 'NONE', #131, #78, #133 ) ;
#98 = COLOUR_RGB ( '',1.000000000000000000, 0.000000000000000000, 0.000000000000000000 ) ;
#99 = DIRECTION ( 'NONE',  ( -0.000000000000000000, -1.000000000000000000, -0.000000000000000000 ) ) ;
#100 = MECHANICAL_DESIGN_GEOMETRIC_PRESENTATION_REPRESENTATION (  '', ( #265 ), #38 ) ;
#101 = COLOUR_RGB ( '',1.000000000000000000, 0.000000000000000000, 0.000000000000000000 ) ;
#102 = CARTESIAN_POINT ( 'NONE',  ( 7.592810154713587074E-15, 63.00000000000000000, 0.000000000000000000 ) ) ;
#103 = EDGE_CURVE ( 'NONE', #188, #59, #196, .T. ) ;
#104 =( LENGTH_UNIT ( ) NAMED_UNIT ( * ) SI_UNIT ( .MILLI., .METRE. ) );
#105 = CARTESIAN_POINT ( 'NONE',  ( 2.999999999999996003, 63.00000000000000000, 3.673940397442045077E-16 ) ) ;
#106 = AXIS2_PLACEMENT_3D ( 'NONE', #346, #315, #8 ) ;
#107 = CARTESIAN_POINT ( 'NONE',  ( 1.409462824231155764E-14, 18.00000000000000355, 0.000000000000000000 ) ) ;
#108 = CYLINDRICAL_SURFACE ( 'NONE', #177, 2.999999999999988454 ) ;
#109 = ORIENTED_EDGE ( 'NONE', *, *, #60, .F. ) ;
#110 = EDGE_LOOP ( 'NONE', ( #86, #62, #285, #287 ) ) ;
#111 = STYLED_ITEM ( 'NONE', ( #66 ), #20 ) ;
#112 = AXIS2_PLACEMENT_3D ( 'NONE', #361, #278, #366 ) ;
#113 = EDGE_LOOP ( 'NONE', ( #13, #327 ) ) ;
#114 = SHAPE_DEFINITION_REPRESENTATION ( #345, #41 ) ;
#115 = CIRCLE ( 'NONE', #205, 2.999999999999991562 ) ;
#116 = SURFACE_STYLE_USAGE ( .BOTH. , #146 ) ;
#117 =( NAMED_UNIT ( * ) PLANE_ANGLE_UNIT ( ) SI_UNIT ( $, .RADIAN. ) );
#118 = CYLINDRICAL_SURFACE ( 'NONE', #52, 2.999999999999988454 ) ;
#119 = AXIS2_PLACEMENT_3D ( 'NONE', #217, #358, #124 ) ;
#120 = AXIS2_PLACEMENT_3D ( 'NONE', #199, #61, #248 ) ;
#121 = PLANE ( 'NONE',  #119 ) ;
#122 =( GEOMETRIC_REPRESENTATION_CONTEXT ( 3 ) GLOBAL_UNCERTAINTY_ASSIGNED_CONTEXT ( ( #328 ) ) GLOBAL_UNIT_ASSIGNED_CONTEXT ( ( #235, #326, #181 ) ) REPRESENTATION_CONTEXT ( 'NONE', 'WORKASPACE' ) );
#123 = EDGE_CURVE ( 'NONE', #59, #40, #147, .T. ) ;
#124 = DIRECTION ( 'NONE',  ( 1.000000000000000000, 1.444848463910660280E-16, 0.000000000000000000 ) ) ;
#125 = UNCERTAINTY_MEASURE_WITH_UNIT (LENGTH_MEASURE( 1.000000000000000082E-05 ), #271, 'distance_accuracy_value', 'NONE');
#126 = LINE ( 'NONE', #237, #275 ) ;
#127 = CARTESIAN_POINT ( 'NONE',  ( 0.000000000000000000, 0.000000000000000000, 0.000000000000000000 ) ) ;
#128 = SURFACE_SIDE_STYLE ('',( #297 ) ) ;
#129 = DIRECTION ( 'NONE',  ( -1.444848463910660280E-16, 1.000000000000000000, -0.000000000000000000 ) ) ;
#130 = COLOUR_RGB ( '',1.000000000000000000, 0.000000000000000000, 0.000000000000000000 ) ;
#131 = CARTESIAN_POINT ( 'NONE',  ( 0.000000000000000000, 18.00000000000000355, 0.000000000000000000 ) ) ;
#132 = FACE_OUTER_BOUND ( 'NONE', #136, .T. ) ;
#133 = DIRECTION ( 'NONE',  ( 0.000000000000000000, 0.000000000000000000, -1.000000000000000000 ) ) ;
#134 = SURFACE_STYLE_FILL_AREA ( #244 ) ;
#135 = MECHANICAL_DESIGN_GEOMETRIC_PRESENTATION_REPRESENTATION (  '', ( #65 ), #143 ) ;
#136 = EDGE_LOOP ( 'NONE', ( #193, #25 ) ) ;
#137 =( LENGTH_UNIT ( ) NAMED_UNIT ( * ) SI_UNIT ( .MILLI., .METRE. ) );
#138 = FILL_AREA_STYLE_COLOUR ( '', #72 ) ;
#139 = CARTESIAN_POINT ( 'NONE',  ( 7.592810154713587074E-15, 63.00000000000000000, 0.000000000000000000 ) ) ;
#140 = ORIENTED_EDGE ( 'NONE', *, *, #60, .T. ) ;
#141 = DIRECTION ( 'NONE',  ( 0.000000000000000000, 0.000000000000000000, -1.000000000000000000 ) ) ;
#142 = ORIENTED_EDGE ( 'NONE', *, *, #156, .T. ) ;
#143 =( GEOMETRIC_REPRESENTATION_CONTEXT ( 3 ) GLOBAL_UNCERTAINTY_ASSIGNED_CONTEXT ( ( #270 ) ) GLOBAL_UNIT_ASSIGNED_CONTEXT ( ( #58, #34, #187 ) ) REPRESENTATION_CONTEXT ( 'NONE', 'WORKASPACE' ) );
#144 = COLOUR_RGB ( '',0.7921568627450980005, 0.8196078431372548767, 0.9333333333333333481 ) ;
#145 = PRODUCT_CONTEXT ( 'NONE', #292, 'mechanical' ) ;
#146 = SURFACE_SIDE_STYLE ('',( #291 ) ) ;
#147 = CIRCLE ( 'NONE', #46, 2.499999999999998668 ) ;
#148 = CIRCLE ( 'NONE', #294, 2.999999999999984457 ) ;
#149 = PRODUCT ( '59796', '59796', '', ( #145 ) ) ;
#150 = CARTESIAN_POINT ( 'NONE',  ( 0.000000000000000000, 0.000000000000000000, 0.000000000000000000 ) ) ;
#151 = DIRECTION ( 'NONE',  ( -0.000000000000000000, -1.000000000000000000, -0.000000000000000000 ) ) ;
#152 = PRESENTATION_LAYER_ASSIGNMENT (  '', '', ( #9 ) ) ;
#153 = FACE_OUTER_BOUND ( 'NONE', #353, .T. ) ;
#154 = SURFACE_SIDE_STYLE ('',( #68 ) ) ;
#155 = PRESENTATION_STYLE_ASSIGNMENT (( #183 ) ) ;
#156 = EDGE_CURVE ( 'NONE', #82, #216, #84, .T. ) ;
#157 = CIRCLE ( 'NONE', #63, 0.5000000000000004441 ) ;
#158 = TOROIDAL_SURFACE ( 'NONE', #333, 2.499999999999998668, 0.5000000000000002220 ) ;
#159 = CARTESIAN_POINT ( 'NONE',  ( 3.673940397442058882E-16, 0.000000000000000000, 2.999999999999999112 ) ) ;
#160 = LINE ( 'NONE', #159, #17 ) ;
#161 = SURFACE_STYLE_USAGE ( .BOTH. , #128 ) ;
#162 = ADVANCED_FACE ( 'NONE', ( #277 ), #108, .T. ) ;
#163 = SURFACE_STYLE_FILL_AREA ( #56 ) ;
#164 = PRESENTATION_STYLE_ASSIGNMENT (( #161 ) ) ;
#165 = AXIS2_PLACEMENT_3D ( 'NONE', #107, #191, #222 ) ;
#166 = AXIS2_PLACEMENT_3D ( 'NONE', #324, #209, #67 ) ;
#167 = EDGE_LOOP ( 'NONE', ( #140, #35, #200, #5 ) ) ;
#168 = CARTESIAN_POINT ( 'NONE',  ( 0.000000000000000000, 18.00000000000000355, 0.000000000000000000 ) ) ;
#169 = ORIENTED_EDGE ( 'NONE', *, *, #369, .T. ) ;
#170 = EDGE_CURVE ( 'NONE', #82, #341, #254, .T. ) ;
#171 = FACE_OUTER_BOUND ( 'NONE', #10, .T. ) ;
#172 = COLOUR_RGB ( '',0.7921568627450980005, 0.8196078431372548767, 0.9333333333333333481 ) ;
#173 = ORIENTED_EDGE ( 'NONE', *, *, #363, .T. ) ;
#174 = COLOUR_RGB ( '',1.000000000000000000, 0.000000000000000000, 0.000000000000000000 ) ;
#175 =( GEOMETRIC_REPRESENTATION_CONTEXT ( 3 ) GLOBAL_UNCERTAINTY_ASSIGNED_CONTEXT ( ( #262 ) ) GLOBAL_UNIT_ASSIGNED_CONTEXT ( ( #309, #77, #221 ) ) REPRESENTATION_CONTEXT ( 'NONE', 'WORKASPACE' ) );
#176 = EDGE_CURVE ( 'NONE', #338, #211, #79, .T. ) ;
#177 = AXIS2_PLACEMENT_3D ( 'NONE', #139, #220, #2 ) ;
#178 = SURFACE_STYLE_FILL_AREA ( #352 ) ;
#179 = DIRECTION ( 'NONE',  ( -0.000000000000000000, -1.000000000000000000, -0.000000000000000000 ) ) ;
#180 = PRODUCT_DEFINITION ( 'UNKNOWN', '', #202, #21 ) ;
#181 =( NAMED_UNIT ( * ) SI_UNIT ( $, .STERADIAN. ) SOLID_ANGLE_UNIT ( ) );
#182 =( GEOMETRIC_REPRESENTATION_CONTEXT ( 3 ) GLOBAL_UNCERTAINTY_ASSIGNED_CONTEXT ( ( #186 ) ) GLOBAL_UNIT_ASSIGNED_CONTEXT ( ( #204, #311, #210 ) ) REPRESENTATION_CONTEXT ( 'NONE', 'WORKASPACE' ) );
#183 = SURFACE_STYLE_USAGE ( .BOTH. , #154 ) ;
#184 = DIRECTION ( 'NONE',  ( 0.000000000000000000, 0.000000000000000000, -1.000000000000000000 ) ) ;
#185 = SURFACE_SIDE_STYLE ('',( #178 ) ) ;
#186 = UNCERTAINTY_MEASURE_WITH_UNIT (LENGTH_MEASURE( 1.000000000000000082E-05 ), #204, 'distance_accuracy_value', 'NONE');
#187 =( NAMED_UNIT ( * ) SI_UNIT ( $, .STERADIAN. ) SOLID_ANGLE_UNIT ( ) );
#188 = VERTEX_POINT ( 'NONE', #367 ) ;
#189 =( LENGTH_UNIT ( ) NAMED_UNIT ( * ) SI_UNIT ( .MILLI., .METRE. ) );
#190 = PRESENTATION_STYLE_ASSIGNMENT (( #312 ) ) ;
#191 = DIRECTION ( 'NONE',  ( -1.444848463910660280E-16, 1.000000000000000000, -0.000000000000000000 ) ) ;
#192 = SURFACE_STYLE_USAGE ( .BOTH. , #330 ) ;
#193 = ORIENTED_EDGE ( 'NONE', *, *, #176, .F. ) ;
#194 = PLANE ( 'NONE',  #112 ) ;
#195 = CARTESIAN_POINT ( 'NONE',  ( 3.061616997868381662E-16, 0.5000000000000000000, 2.499999999999998668 ) ) ;
#196 = CIRCLE ( 'NONE', #234, 0.5000000000000004441 ) ;
#197 = AXIS2_PLACEMENT_3D ( 'NONE', #150, #259, #206 ) ;
#198 = ORIENTED_EDGE ( 'NONE', *, *, #92, .T. ) ;
#199 = CARTESIAN_POINT ( 'NONE',  ( 0.000000000000000000, 0.5000000000000000000, 0.000000000000000000 ) ) ;
#200 = ORIENTED_EDGE ( 'NONE', *, *, #343, .F. ) ;
#201 = COLOUR_RGB ( '',1.000000000000000000, 0.000000000000000000, 0.000000000000000000 ) ;
#202 = PRODUCT_DEFINITION_FORMATION_WITH_SPECIFIED_SOURCE ( 'ANY', '', #149, .NOT_KNOWN. ) ;
#203 =( NAMED_UNIT ( * ) SI_UNIT ( $, .STERADIAN. ) SOLID_ANGLE_UNIT ( ) );
#204 =( LENGTH_UNIT ( ) NAMED_UNIT ( * ) SI_UNIT ( .MILLI., .METRE. ) );
#205 = AXIS2_PLACEMENT_3D ( 'NONE', #102, #260, #268 ) ;
#206 = DIRECTION ( 'NONE',  ( 0.000000000000000000, 0.000000000000000000, -1.000000000000000000 ) ) ;
#207 = FILL_AREA_STYLE ('',( #261 ) ) ;
#208 = FACE_OUTER_BOUND ( 'NONE', #302, .T. ) ;
#209 = DIRECTION ( 'NONE',  ( -1.444848463910660280E-16, 1.000000000000000000, 0.000000000000000000 ) ) ;
#210 =( NAMED_UNIT ( * ) SI_UNIT ( $, .STERADIAN. ) SOLID_ANGLE_UNIT ( ) );
#211 = VERTEX_POINT ( 'NONE', #33 ) ;
#212 = UNCERTAINTY_MEASURE_WITH_UNIT (LENGTH_MEASURE( 1.000000000000000082E-05 ), #230, 'distance_accuracy_value', 'NONE');
#213 = MECHANICAL_DESIGN_GEOMETRIC_PRESENTATION_REPRESENTATION (  '', ( #322 ), #88 ) ;
#214 = PLANE ( 'NONE',  #166 ) ;
#215 = EDGE_CURVE ( 'NONE', #211, #338, #282, .T. ) ;
#216 = VERTEX_POINT ( 'NONE', #308 ) ;
#217 = CARTESIAN_POINT ( 'NONE',  ( 2.999999999999999112, 63.00000000000000000, 0.000000000000000000 ) ) ;
#218 = DIRECTION ( 'NONE',  ( -1.224646799147352468E-16, 0.000000000000000000, -1.000000000000000000 ) ) ;
#219 = MECHANICAL_DESIGN_GEOMETRIC_PRESENTATION_REPRESENTATION (  '', ( #320 ), #23 ) ;
#220 = DIRECTION ( 'NONE',  ( -1.444848463910660280E-16, 1.000000000000000000, -0.000000000000000000 ) ) ;
#221 =( NAMED_UNIT ( * ) SI_UNIT ( $, .STERADIAN. ) SOLID_ANGLE_UNIT ( ) );
#222 = DIRECTION ( 'NONE',  ( -1.000000000000000000, 0.000000000000000000, 0.000000000000000000 ) ) ;
#223 = CARTESIAN_POINT ( 'NONE',  ( 0.000000000000000000, 0.5000000000000000000, -2.499999999999998668 ) ) ;
#224 = SURFACE_SIDE_STYLE ('',( #163 ) ) ;
#225 = MANIFOLD_SOLID_BREP ( 'Revolve - Cutting Edge', #368 ) ;
#226 = ORIENTED_EDGE ( 'NONE', *, *, #269, .F. ) ;
#227 = EDGE_CURVE ( 'NONE', #211, #188, #160, .T. ) ;
#228 = ORIENTED_EDGE ( 'NONE', *, *, #92, .F. ) ;
#229 = ORIENTED_EDGE ( 'NONE', *, *, #176, .T. ) ;
#230 =( LENGTH_UNIT ( ) NAMED_UNIT ( * ) SI_UNIT ( .MILLI., .METRE. ) );
#231 = AXIS2_PLACEMENT_3D ( 'NONE', #127, #179, #49 ) ;
#232 = CARTESIAN_POINT ( 'NONE',  ( 2.999999999999999556, 63.00000000000000000, 3.673940397442047542E-16 ) ) ;
#233 = FILL_AREA_STYLE ('',( #263 ) ) ;
#234 = AXIS2_PLACEMENT_3D ( 'NONE', #195, #245, #218 ) ;
#235 =( LENGTH_UNIT ( ) NAMED_UNIT ( * ) SI_UNIT ( .MILLI., .METRE. ) );
#236 = FACE_OUTER_BOUND ( 'NONE', #314, .T. ) ;
#237 = CARTESIAN_POINT ( 'NONE',  ( 0.000000000000000000, 0.000000000000000000, -2.999999999999999112 ) ) ;
#238 = ADVANCED_FACE ( 'NONE', ( #4 ), #42, .T. ) ;
#239 = CIRCLE ( 'NONE', #120, 2.999999999999999112 ) ;
#240 = STYLED_ITEM ( 'NONE', ( #329 ), #350 ) ;
#241 =( NAMED_UNIT ( * ) PLANE_ANGLE_UNIT ( ) SI_UNIT ( $, .RADIAN. ) );
#242 = DIRECTION ( 'NONE',  ( -0.000000000000000000, -1.000000000000000000, -0.000000000000000000 ) ) ;
#243 = ADVANCED_FACE ( 'NONE', ( #51 ), #253, .T. ) ;
#244 = FILL_AREA_STYLE ('',( #57 ) ) ;
#245 = DIRECTION ( 'NONE',  ( 1.000000000000000000, 0.000000000000000000, -1.224646799147353207E-16 ) ) ;
#246 = FILL_AREA_STYLE_COLOUR ( '', #144 ) ;
#247 = DIRECTION ( 'NONE',  ( -0.000000000000000000, -1.000000000000000000, -0.000000000000000000 ) ) ;
#248 = DIRECTION ( 'NONE',  ( 0.000000000000000000, 0.000000000000000000, -1.000000000000000000 ) ) ;
#249 = LINE ( 'NONE', #105, #331 ) ;
#250 = ADVANCED_FACE ( 'NONE', ( #359 ), #214, .F. ) ;
#251 = CARTESIAN_POINT ( 'NONE',  ( 0.000000000000000000, 0.000000000000000000, 0.000000000000000000 ) ) ;
#252 = ORIENTED_EDGE ( 'NONE', *, *, #123, .T. ) ;
#253 = CYLINDRICAL_SURFACE ( 'NONE', #305, 2.999999999999999112 ) ;
#254 = CIRCLE ( 'NONE', #165, 2.999999999999984457 ) ;
#255 = CIRCLE ( 'NONE', #12, 2.499999999999998668 ) ;
#256 = ORIENTED_EDGE ( 'NONE', *, *, #14, .F. ) ;
#257 =( GEOMETRIC_REPRESENTATION_CONTEXT ( 3 ) GLOBAL_UNCERTAINTY_ASSIGNED_CONTEXT ( ( #125 ) ) GLOBAL_UNIT_ASSIGNED_CONTEXT ( ( #271, #117, #203 ) ) REPRESENTATION_CONTEXT ( 'NONE', 'WORKASPACE' ) );
#258 = DIRECTION ( 'NONE',  ( -1.000000000000000000, 0.000000000000000000, 0.000000000000000000 ) ) ;
#259 = DIRECTION ( 'NONE',  ( 0.000000000000000000, -1.000000000000000000, -0.000000000000000000 ) ) ;
#260 = DIRECTION ( 'NONE',  ( -1.444848463910660280E-16, 1.000000000000000000, -0.000000000000000000 ) ) ;
#261 = FILL_AREA_STYLE_COLOUR ( '', #201 ) ;
#262 = UNCERTAINTY_MEASURE_WITH_UNIT (LENGTH_MEASURE( 1.000000000000000082E-05 ), #309, 'distance_accuracy_value', 'NONE');
#263 = FILL_AREA_STYLE_COLOUR ( '', #101 ) ;
#264 = CARTESIAN_POINT ( 'NONE',  ( 0.000000000000000000, 0.000000000000000000, -2.499999999999998668 ) ) ;
#265 = STYLED_ITEM ( 'NONE', ( #365 ), #238 ) ;
#266 =( GEOMETRIC_REPRESENTATION_CONTEXT ( 3 ) GLOBAL_UNCERTAINTY_ASSIGNED_CONTEXT ( ( #360 ) ) GLOBAL_UNIT_ASSIGNED_CONTEXT ( ( #104, #241, #74 ) ) REPRESENTATION_CONTEXT ( 'NONE', 'WORKASPACE' ) );
#267 = CARTESIAN_POINT ( 'NONE',  ( 0.000000000000000000, 0.000000000000000000, 0.000000000000000000 ) ) ;
#268 = DIRECTION ( 'NONE',  ( -1.000000000000000000, 0.000000000000000000, 0.000000000000000000 ) ) ;
#269 = EDGE_CURVE ( 'NONE', #338, #90, #126, .T. ) ;
#270 = UNCERTAINTY_MEASURE_WITH_UNIT (LENGTH_MEASURE( 1.000000000000000082E-05 ), #58, 'distance_accuracy_value', 'NONE');
#271 =( LENGTH_UNIT ( ) NAMED_UNIT ( * ) SI_UNIT ( .MILLI., .METRE. ) );
#272 = DIRECTION ( 'NONE',  ( -1.000000000000000000, 0.000000000000000000, 0.000000000000000000 ) ) ;
#273 = CARTESIAN_POINT ( 'NONE',  ( 3.367778697655220026E-16, 0.000000000000000000, 2.499999999999998668 ) ) ;
#274 = CLOSED_SHELL ( 'NONE', ( #162, #250, #85, #64 ) ) ;
#275 = VECTOR ( 'NONE', #99, 1000.000000000000000 ) ;
#276 = ADVANCED_FACE ( 'NONE', ( #70 ), #158, .T. ) ;
#277 = FACE_OUTER_BOUND ( 'NONE', #319, .T. ) ;
#278 = DIRECTION ( 'NONE',  ( 0.000000000000000000, 1.000000000000000000, 0.000000000000000000 ) ) ;
#279 = PRESENTATION_STYLE_ASSIGNMENT (( #192 ) ) ;
#280 = FILL_AREA_STYLE ('',( #310 ) ) ;
#281 = ORIENTED_EDGE ( 'NONE', *, *, #363, .F. ) ;
#282 = CIRCLE ( 'NONE', #97, 2.999999999999999112 ) ;
#283 = CARTESIAN_POINT ( 'NONE',  ( 1.409462824231155764E-14, 18.00000000000000355, 0.000000000000000000 ) ) ;
#284 = MECHANICAL_DESIGN_GEOMETRIC_PRESENTATION_REPRESENTATION (  '', ( #9 ), #257 ) ;
#285 = ORIENTED_EDGE ( 'NONE', *, *, #11, .T. ) ;
#286 = SURFACE_STYLE_FILL_AREA ( #280 ) ;
#287 = ORIENTED_EDGE ( 'NONE', *, *, #123, .F. ) ;
#288 = CARTESIAN_POINT ( 'NONE',  ( 0.000000000000000000, 0.5000000000000000000, 0.000000000000000000 ) ) ;
#289 = CYLINDRICAL_SURFACE ( 'NONE', #231, 2.999999999999999112 ) ;
#290 = MECHANICAL_DESIGN_GEOMETRIC_PRESENTATION_REPRESENTATION (  '', ( #240 ), #175 ) ;
#291 = SURFACE_STYLE_FILL_AREA ( #37 ) ;
#292 = APPLICATION_CONTEXT ( 'automotive_design' ) ;
#293 = PRESENTATION_LAYER_ASSIGNMENT (  '', '', ( #320 ) ) ;
#294 = AXIS2_PLACEMENT_3D ( 'NONE', #283, #129, #32 ) ;
#295 = FILL_AREA_STYLE_COLOUR ( '', #174 ) ;
#296 = CARTESIAN_POINT ( 'NONE',  ( 0.000000000000000000, 18.00000000000000355, -2.999999999999999112 ) ) ;
#297 = SURFACE_STYLE_FILL_AREA ( #207 ) ;
#298 = AXIS2_PLACEMENT_3D ( 'NONE', #288, #36, #141 ) ;
#299 = STYLED_ITEM ( 'NONE', ( #155 ), #276 ) ;
#300 = ORIENTED_EDGE ( 'NONE', *, *, #227, .F. ) ;
#301 = UNCERTAINTY_MEASURE_WITH_UNIT (LENGTH_MEASURE( 1.000000000000000082E-05 ), #137, 'distance_accuracy_value', 'NONE');
#302 = EDGE_LOOP ( 'NONE', ( #228, #169, #142, #48 ) ) ;
#303 = DIRECTION ( 'NONE',  ( 0.000000000000000000, 0.000000000000000000, -1.000000000000000000 ) ) ;
#304 = VERTEX_POINT ( 'NONE', #232 ) ;
#305 = AXIS2_PLACEMENT_3D ( 'NONE', #357, #151, #323 ) ;
#306 = DIRECTION ( 'NONE',  ( -1.444848463910660280E-16, 1.000000000000000000, -0.000000000000000000 ) ) ;
#307 = SURFACE_STYLE_USAGE ( .BOTH. , #22 ) ;
#308 = CARTESIAN_POINT ( 'NONE',  ( -2.999999999999983569, 63.00000000000000000, 0.000000000000000000 ) ) ;
#309 =( LENGTH_UNIT ( ) NAMED_UNIT ( * ) SI_UNIT ( .MILLI., .METRE. ) );
#310 = FILL_AREA_STYLE_COLOUR ( '', #172 ) ;
#311 =( NAMED_UNIT ( * ) PLANE_ANGLE_UNIT ( ) SI_UNIT ( $, .RADIAN. ) );
#312 = SURFACE_STYLE_USAGE ( .BOTH. , #54 ) ;
#313 = AXIS2_PLACEMENT_3D ( 'NONE', #334, #336, #80 ) ;
#314 = EDGE_LOOP ( 'NONE', ( #173, #3 ) ) ;
#315 = DIRECTION ( 'NONE',  ( 0.000000000000000000, 0.000000000000000000, 1.000000000000000000 ) ) ;
#316 = EDGE_LOOP ( 'NONE', ( #300, #91, #7, #256 ) ) ;
#317 = ADVANCED_FACE ( 'NONE', ( #153 ), #43, .T. ) ;
#318 = APPLICATION_PROTOCOL_DEFINITION ( 'draft international standard', 'automotive_design', 1998, #26 ) ;
#319 = EDGE_LOOP ( 'NONE', ( #29, #198, #281, #347 ) ) ;
#320 = STYLED_ITEM ( 'NONE', ( #164 ), #243 ) ;
#321 =( NAMED_UNIT ( * ) SI_UNIT ( $, .STERADIAN. ) SOLID_ANGLE_UNIT ( ) );
#322 = STYLED_ITEM ( 'NONE', ( #190 ), #351 ) ;
#323 = DIRECTION ( 'NONE',  ( 0.000000000000000000, 0.000000000000000000, -1.000000000000000000 ) ) ;
#324 = CARTESIAN_POINT ( 'NONE',  ( 1.409462824231155764E-14, 18.00000000000000355, 0.000000000000000000 ) ) ;
#325 = VECTOR ( 'NONE', #306, 1000.000000000000000 ) ;
#326 =( NAMED_UNIT ( * ) PLANE_ANGLE_UNIT ( ) SI_UNIT ( $, .RADIAN. ) );
#327 = ORIENTED_EDGE ( 'NONE', *, *, #369, .F. ) ;
#328 = UNCERTAINTY_MEASURE_WITH_UNIT (LENGTH_MEASURE( 1.000000000000000082E-05 ), #235, 'distance_accuracy_value', 'NONE');
#329 = PRESENTATION_STYLE_ASSIGNMENT (( #307 ) ) ;
#330 = SURFACE_SIDE_STYLE ('',( #286 ) ) ;
#331 = VECTOR ( 'NONE', #81, 1000.000000000000000 ) ;
#332 = AXIS2_PLACEMENT_3D ( 'NONE', #362, #16, #184 ) ;
#333 = AXIS2_PLACEMENT_3D ( 'NONE', #73, #15, #47 ) ;
#334 = CARTESIAN_POINT ( 'NONE',  ( 7.592810154713587074E-15, 63.00000000000000000, 0.000000000000000000 ) ) ;
#335 = DIRECTION ( 'NONE',  ( -0.000000000000000000, -1.000000000000000000, -0.000000000000000000 ) ) ;
#336 = DIRECTION ( 'NONE',  ( -1.444848463910660280E-16, 1.000000000000000000, -0.000000000000000000 ) ) ;
#337 = FILL_AREA_STYLE_COLOUR ( '', #130 ) ;
#338 = VERTEX_POINT ( 'NONE', #296 ) ;
#339 = DIRECTION ( 'NONE',  ( 0.000000000000000000, 0.000000000000000000, -1.000000000000000000 ) ) ;
#340 = CARTESIAN_POINT ( 'NONE',  ( 0.000000000000000000, 0.5000000000000000000, -2.999999999999999112 ) ) ;
#341 = VERTEX_POINT ( 'NONE', #45 ) ;
#342 =( NAMED_UNIT ( * ) PLANE_ANGLE_UNIT ( ) SI_UNIT ( $, .RADIAN. ) );
#343 = EDGE_CURVE ( 'NONE', #40, #59, #255, .T. ) ;
#344 = DIRECTION ( 'NONE',  ( 0.000000000000000000, 0.000000000000000000, 1.000000000000000000 ) ) ;
#345 = PRODUCT_DEFINITION_SHAPE ( 'NONE', 'NONE',  #180 ) ;
#346 = CARTESIAN_POINT ( 'NONE',  ( 0.000000000000000000, 0.000000000000000000, 0.000000000000000000 ) ) ;
#347 = ORIENTED_EDGE ( 'NONE', *, *, #156, .F. ) ;
#348 =( NAMED_UNIT ( * ) PLANE_ANGLE_UNIT ( ) SI_UNIT ( $, .RADIAN. ) );
#349 = CIRCLE ( 'NONE', #332, 2.999999999999999112 ) ;
#350 = ADVANCED_FACE ( 'NONE', ( #132 ), #194, .T. ) ;
#351 = MANIFOLD_SOLID_BREP ( 'Revolve - Tool Body (Straight Shanked)', #274 ) ;
#352 = FILL_AREA_STYLE ('',( #295 ) ) ;
#353 = EDGE_LOOP ( 'NONE', ( #76, #252 ) ) ;
#354 = CARTESIAN_POINT ( 'NONE',  ( 7.592810154713587074E-15, 63.00000000000000000, 0.000000000000000000 ) ) ;
#355 = PRESENTATION_LAYER_ASSIGNMENT (  '', '', ( #265 ) ) ;
#356 = PRESENTATION_LAYER_ASSIGNMENT (  '', '', ( #322 ) ) ;
#357 = CARTESIAN_POINT ( 'NONE',  ( 0.000000000000000000, 0.000000000000000000, 0.000000000000000000 ) ) ;
#358 = DIRECTION ( 'NONE',  ( 1.444848463910660280E-16, -1.000000000000000000, 0.000000000000000000 ) ) ;
#359 = FACE_OUTER_BOUND ( 'NONE', #113, .T. ) ;
#360 = UNCERTAINTY_MEASURE_WITH_UNIT (LENGTH_MEASURE( 1.000000000000000082E-05 ), #104, 'distance_accuracy_value', 'NONE');
#361 = CARTESIAN_POINT ( 'NONE',  ( 0.000000000000000000, 18.00000000000000355, 0.000000000000000000 ) ) ;
#362 = CARTESIAN_POINT ( 'NONE',  ( 0.000000000000000000, 0.5000000000000000000, 0.000000000000000000 ) ) ;
#363 = EDGE_CURVE ( 'NONE', #216, #304, #18, .T. ) ;
#364 =( NAMED_UNIT ( * ) SI_UNIT ( $, .STERADIAN. ) SOLID_ANGLE_UNIT ( ) );
#365 = PRESENTATION_STYLE_ASSIGNMENT (( #75 ) ) ;
#366 = DIRECTION ( 'NONE',  ( 0.000000000000000000, -0.000000000000000000, 1.000000000000000000 ) ) ;
#367 = CARTESIAN_POINT ( 'NONE',  ( 3.673940397442058389E-16, 0.5000000000000000000, 2.999999999999999112 ) ) ;
#368 = CLOSED_SHELL ( 'NONE', ( #20, #238, #317, #276, #243, #350 ) ) ;
#369 = EDGE_CURVE ( 'NONE', #341, #82, #148, .T. ) ;
#370 = AXIS2_PLACEMENT_3D ( 'NONE', #168, #335, #6 ) ;
ENDSEC;
END-ISO-10303-21;
