ISO-10303-21;
HEADER;
FILE_DESCRIPTION (( 'STEP AP214' ),
    '1' );
FILE_NAME ('Micro_BEM-687-02.STEP',
    '2021-09-03T13:17:52',
    ( '' ),
    ( '' ),
    'SwSTEP 2.0',
    'SolidWorks 2020',
    '' );
FILE_SCHEMA (( 'AUTOMOTIVE_DESIGN' ));
ENDSEC;

DATA;
#1 = CARTESIAN_POINT ( 'NONE',  ( 1.683889348827610506E-16, 0.0000000000000000000, 1.375000000000000000 ) ) ;
#2 = APPLICATION_PROTOCOL_DEFINITION ( 'draft international standard', 'automotive_design', 1998, #275 ) ;
#3 = DIRECTION ( 'NONE',  ( -1.224646799147353207E-16, -0.0000000000000000000, -1.000000000000000000 ) ) ;
#4 = PRODUCT_DEFINITION ( 'UNKNOWN', '', #178, #167 ) ;
#5 = CARTESIAN_POINT ( 'NONE',  ( -0.3434062499999999130, 4.205513648696958826E-17, 1.375000000000000000 ) ) ;
#6 = AXIS2_PLACEMENT_3D ( 'NONE', #250, #246, #28 ) ;
#7 = VERTEX_POINT ( 'NONE', #278 ) ;
#8 = DIRECTION ( 'NONE',  ( -1.000000000000000000, 0.0000000000000000000, 0.0000000000000000000 ) ) ;
#9 = FACE_OUTER_BOUND ( 'NONE', #264, .T. ) ;
#10 = DIRECTION ( 'NONE',  ( 1.000000000000000000, 0.0000000000000000000, 0.0000000000000000000 ) ) ;
#11 = CARTESIAN_POINT ( 'NONE',  ( -0.3750000000000000555, 0.0000000000000000000, 3.984999999999998987 ) ) ;
#12 = CYLINDRICAL_SURFACE ( 'NONE', #68, 0.3434062500000000795 ) ;
#13 = CIRCLE ( 'NONE', #50, 0.3434062500000000240 ) ;
#14 = COLOUR_RGB ( '',0.7921568627450980005, 0.8196078431372548767, 0.9333333333333333481 ) ;
#15 = FILL_AREA_STYLE_COLOUR ( '', #116 ) ;
#16 = DIMENSIONAL_EXPONENTS ( 1.000000000000000000, 0.0000000000000000000, 0.0000000000000000000, 0.0000000000000000000, 0.0000000000000000000, 0.0000000000000000000, 0.0000000000000000000 ) ;
#17 = VERTEX_POINT ( 'NONE', #25 ) ;
#18 = ORIENTED_EDGE ( 'NONE', *, *, #280, .T. ) ;
#19 = EDGE_CURVE ( 'NONE', #177, #115, #52, .T. ) ;
#20 = AXIS2_PLACEMENT_3D ( 'NONE', #163, #136, #266 ) ;
#21 = EDGE_LOOP ( 'NONE', ( #145, #141, #267, #55 ) ) ;
#22 = ADVANCED_FACE ( 'NONE', ( #302 ), #152, .T. ) ;
#23 = CARTESIAN_POINT ( 'NONE',  ( 0.0000000000000000000, 0.0000000000000000000, 3.984999999999998987 ) ) ;
#24 = VECTOR ( 'NONE', #186, 39.37007874015748143 ) ;
#25 = CARTESIAN_POINT ( 'NONE',  ( -0.3599999999999994316, 0.0000000000000000000, 4.000000000000000000 ) ) ;
#26 = DIRECTION ( 'NONE',  ( 1.224646799147353207E-16, 0.0000000000000000000, 1.000000000000000000 ) ) ;
#27 = EDGE_CURVE ( 'NONE', #46, #187, #123, .T. ) ;
#28 = DIRECTION ( 'NONE',  ( -1.000000000000000000, 0.0000000000000000000, 0.0000000000000000000 ) ) ;
#29 = VECTOR ( 'NONE', #161, 39.37007874015748143 ) ;
#30 = LINE ( 'NONE', #290, #29 ) ;
#31 = DIRECTION ( 'NONE',  ( -1.000000000000000000, 0.0000000000000000000, 0.0000000000000000000 ) ) ;
#32 = CARTESIAN_POINT ( 'NONE',  ( 0.0000000000000000000, 0.0000000000000000000, 4.000000000000000000 ) ) ;
#33 = CIRCLE ( 'NONE', #216, 0.3434062500000000795 ) ;
#34 = DIRECTION ( 'NONE',  ( 0.0000000000000000000, 0.0000000000000000000, 1.000000000000000000 ) ) ;
#35 = EDGE_CURVE ( 'NONE', #218, #295, #312, .T. ) ;
#36 = LINE ( 'NONE', #58, #54 ) ;
#37 = DIRECTION ( 'NONE',  ( -1.000000000000000000, 0.0000000000000000000, 1.988787328174911433E-16 ) ) ;
#38 = AXIS2_PLACEMENT_3D ( 'NONE', #134, #206, #105 ) ;
#39 = ADVANCED_FACE ( 'NONE', ( #176 ), #277, .T. ) ;
#40 = ORIENTED_EDGE ( 'NONE', *, *, #242, .F. ) ;
#41 = PRESENTATION_STYLE_ASSIGNMENT (( #214 ) ) ;
#42 = CARTESIAN_POINT ( 'NONE',  ( 0.0000000000000000000, 0.0000000000000000000, 4.000000000000000000 ) ) ;
#43 = ORIENTED_EDGE ( 'NONE', *, *, #27, .T. ) ;
#44 = APPLICATION_PROTOCOL_DEFINITION ( 'draft international standard', 'automotive_design', 1998, #241 ) ;
#45 = ORIENTED_EDGE ( 'NONE', *, *, #103, .F. ) ;
#46 = VERTEX_POINT ( 'NONE', #224 ) ;
#47 = EDGE_CURVE ( 'NONE', #169, #177, #318, .T. ) ;
#48 = ORIENTED_EDGE ( 'NONE', *, *, #242, .T. ) ;
#49 = CARTESIAN_POINT ( 'NONE',  ( 4.205513648696958210E-17, 0.0000000000000000000, 0.3434062500000000240 ) ) ;
#50 = AXIS2_PLACEMENT_3D ( 'NONE', #57, #56, #86 ) ;
#51 = CARTESIAN_POINT ( 'NONE',  ( 1.903317961823216266E-16, 0.0000000000000000000, 1.554177059988545828 ) ) ;
#52 = LINE ( 'NONE', #222, #63 ) ;
#53 = ORIENTED_EDGE ( 'NONE', *, *, #19, .T. ) ;
#54 = VECTOR ( 'NONE', #88, 39.37007874015748143 ) ;
#55 = ORIENTED_EDGE ( 'NONE', *, *, #285, .T. ) ;
#56 = DIRECTION ( 'NONE',  ( 1.224646799147353207E-16, 1.000000000000000000, -0.0000000000000000000 ) ) ;
#57 = CARTESIAN_POINT ( 'NONE',  ( 4.205513648696958210E-17, 0.0000000000000000000, 0.3434062500000000240 ) ) ;
#58 = CARTESIAN_POINT ( 'NONE',  ( -0.3434062500000000795, 0.0000000000000000000, 4.205513648696958826E-17 ) ) ;
#59 = CIRCLE ( 'NONE', #20, 0.3434062500000000795 ) ;
#60 =( CONVERSION_BASED_UNIT ( 'INCH', #215 ) LENGTH_UNIT ( ) NAMED_UNIT ( #138 ) );
#61 = CARTESIAN_POINT ( 'NONE',  ( 4.205513648696958210E-17, 0.0000000000000000000, 0.3434062500000000240 ) ) ;
#62 = FILL_AREA_STYLE ('',( #15 ) ) ;
#63 = VECTOR ( 'NONE', #70, 39.37007874015748143 ) ;
#64 = EDGE_LOOP ( 'NONE', ( #77, #147, #69, #45 ) ) ;
#65 = AXIS2_PLACEMENT_3D ( 'NONE', #288, #233, #31 ) ;
#66 = ORIENTED_EDGE ( 'NONE', *, *, #144, .T. ) ;
#67 = ORIENTED_EDGE ( 'NONE', *, *, #194, .F. ) ;
#68 = AXIS2_PLACEMENT_3D ( 'NONE', #179, #207, #257 ) ;
#69 = ORIENTED_EDGE ( 'NONE', *, *, #47, .F. ) ;
#70 = DIRECTION ( 'NONE',  ( -0.0000000000000000000, -0.0000000000000000000, -1.000000000000000000 ) ) ;
#71 = DIRECTION ( 'NONE',  ( 1.000000000000000000, 0.0000000000000000000, 0.0000000000000000000 ) ) ;
#72 = PRESENTATION_LAYER_ASSIGNMENT (  '', '', ( #247 ) ) ;
#73 = VERTEX_POINT ( 'NONE', #221 ) ;
#74 = CARTESIAN_POINT ( 'NONE',  ( 0.0000000000000000000, 0.0000000000000000000, 0.0000000000000000000 ) ) ;
#75 =( NAMED_UNIT ( * ) SI_UNIT ( $, .STERADIAN. ) SOLID_ANGLE_UNIT ( ) );
#76 = PRODUCT ( 'Micro_BEM-687-02', 'Micro_BEM-687-02', '', ( #235 ) ) ;
#77 = ORIENTED_EDGE ( 'NONE', *, *, #325, .F. ) ;
#78 = EDGE_CURVE ( 'NONE', #46, #7, #102, .T. ) ;
#79 = AXIS2_PLACEMENT_3D ( 'NONE', #205, #236, #284 ) ;
#80 = DIRECTION ( 'NONE',  ( 1.224646799147353207E-16, 0.0000000000000000000, 1.000000000000000000 ) ) ;
#81 =( LENGTH_UNIT ( ) NAMED_UNIT ( * ) SI_UNIT ( $, .METRE. ) );
#82 =( NAMED_UNIT ( * ) PLANE_ANGLE_UNIT ( ) SI_UNIT ( $, .RADIAN. ) );
#83 = LINE ( 'NONE', #314, #193 ) ;
#84 = EDGE_CURVE ( 'NONE', #115, #7, #270, .T. ) ;
#85 = FACE_OUTER_BOUND ( 'NONE', #143, .T. ) ;
#86 = DIRECTION ( 'NONE',  ( -1.000000000000000000, 1.224646799147353207E-16, 0.0000000000000000000 ) ) ;
#87 = VECTOR ( 'NONE', #304, 39.37007874015748143 ) ;
#88 = DIRECTION ( 'NONE',  ( -1.224646799147353207E-16, -0.0000000000000000000, -1.000000000000000000 ) ) ;
#89 = PRESENTATION_STYLE_ASSIGNMENT (( #316 ) ) ;
#90 =( NAMED_UNIT ( * ) PLANE_ANGLE_UNIT ( ) SI_UNIT ( $, .RADIAN. ) );
#91 = ORIENTED_EDGE ( 'NONE', *, *, #19, .F. ) ;
#92 = MECHANICAL_DESIGN_GEOMETRIC_PRESENTATION_REPRESENTATION (  '', ( #190 ), #254 ) ;
#93 = DIRECTION ( 'NONE',  ( 0.0000000000000000000, 0.0000000000000000000, 1.000000000000000000 ) ) ;
#94 = EDGE_LOOP ( 'NONE', ( #104, #251 ) ) ;
#95 = EDGE_LOOP ( 'NONE', ( #291, #66, #220 ) ) ;
#96 = FILL_AREA_STYLE_COLOUR ( '', #14 ) ;
#97 = CONICAL_SURFACE ( 'NONE', #154, 0.3599999999999994316, 0.7853981633974415066 ) ;
#98 = FACE_OUTER_BOUND ( 'NONE', #191, .T. ) ;
#99 = ADVANCED_FACE ( 'NONE', ( #98 ), #253, .T. ) ;
#100 = CARTESIAN_POINT ( 'NONE',  ( 4.205513648696958210E-17, 0.0000000000000000000, 0.3434062500000000240 ) ) ;
#101 = ORIENTED_EDGE ( 'NONE', *, *, #78, .T. ) ;
#102 = LINE ( 'NONE', #5, #133 ) ;
#103 = EDGE_CURVE ( 'NONE', #17, #169, #200, .T. ) ;
#104 = ORIENTED_EDGE ( 'NONE', *, *, #180, .T. ) ;
#105 = DIRECTION ( 'NONE',  ( 1.000000000000000000, 0.0000000000000000000, 0.0000000000000000000 ) ) ;
#106 = MECHANICAL_DESIGN_GEOMETRIC_PRESENTATION_REPRESENTATION (  '', ( #247 ), #160 ) ;
#107 = DIRECTION ( 'NONE',  ( 0.0000000000000000000, 0.0000000000000000000, -1.000000000000000000 ) ) ;
#108 =( GEOMETRIC_REPRESENTATION_CONTEXT ( 3 ) GLOBAL_UNCERTAINTY_ASSIGNED_CONTEXT ( ( #227 ) ) GLOBAL_UNIT_ASSIGNED_CONTEXT ( ( #243, #82, #75 ) ) REPRESENTATION_CONTEXT ( 'NONE', 'WORKASPACE' ) );
#109 = DIRECTION ( 'NONE',  ( 0.0000000000000000000, 1.000000000000000000, 0.0000000000000000000 ) ) ;
#110 = CARTESIAN_POINT ( 'NONE',  ( 0.3434062500000001350, 4.205513648696958826E-17, 0.3434062499999999130 ) ) ;
#111 = DIRECTION ( 'NONE',  ( 0.0000000000000000000, -1.000000000000000000, 0.0000000000000000000 ) ) ;
#112 = AXIS2_PLACEMENT_3D ( 'NONE', #61, #111, #107 ) ;
#113 = SURFACE_SIDE_STYLE ('',( #262 ) ) ;
#114 = ADVANCED_FACE ( 'NONE', ( #298 ), #201, .T. ) ;
#115 = VERTEX_POINT ( 'NONE', #299 ) ;
#116 = COLOUR_RGB ( '',0.7921568627450980005, 0.8196078431372548767, 0.9333333333333333481 ) ;
#117 = PRESENTATION_LAYER_ASSIGNMENT (  '', '', ( #190 ) ) ;
#118 = ADVANCED_FACE ( 'NONE', ( #248 ), #296, .T. ) ;
#119 = LENGTH_MEASURE_WITH_UNIT ( LENGTH_MEASURE( 0.02539999999999999897 ), #142 );
#120 = EDGE_LOOP ( 'NONE', ( #43, #282, #240, #239 ) ) ;
#121 = EDGE_LOOP ( 'NONE', ( #297, #165, #170 ) ) ;
#122 = DIRECTION ( 'NONE',  ( 1.000000000000000000, 0.0000000000000000000, 0.0000000000000000000 ) ) ;
#123 = CIRCLE ( 'NONE', #129, 0.3434062500000000795 ) ;
#124 = DIRECTION ( 'NONE',  ( -1.000000000000000000, 0.0000000000000000000, 1.224646799147353207E-16 ) ) ;
#125 = EDGE_CURVE ( 'NONE', #187, #218, #30, .T. ) ;
#126 = DIRECTION ( 'NONE',  ( 0.0000000000000000000, 0.0000000000000000000, 1.000000000000000000 ) ) ;
#127 = DIRECTION ( 'NONE',  ( 1.000000000000000000, 0.0000000000000000000, 0.0000000000000000000 ) ) ;
#128 = VERTEX_POINT ( 'NONE', #137 ) ;
#129 = AXIS2_PLACEMENT_3D ( 'NONE', #1, #276, #198 ) ;
#130 = DIRECTION ( 'NONE',  ( -1.224646799147353207E-16, -0.0000000000000000000, -1.000000000000000000 ) ) ;
#131 = PLANE ( 'NONE',  #283 ) ;
#132 = CARTESIAN_POINT ( 'NONE',  ( 0.3599999999999994316, 4.408728476930464865E-17, 4.000000000000000000 ) ) ;
#133 = VECTOR ( 'NONE', #324, 39.37007874015747433 ) ;
#134 = CARTESIAN_POINT ( 'NONE',  ( 0.0000000000000000000, 0.0000000000000000000, 3.984999999999998987 ) ) ;
#135 = DIRECTION ( 'NONE',  ( 1.000000000000000000, 0.0000000000000000000, -0.0000000000000000000 ) ) ;
#136 = DIRECTION ( 'NONE',  ( -1.224646799147353207E-16, -0.0000000000000000000, -1.000000000000000000 ) ) ;
#137 = CARTESIAN_POINT ( 'NONE',  ( 6.308270473045437623E-17, 0.0000000000000000000, 0.0000000000000000000 ) ) ;
#138 = DIMENSIONAL_EXPONENTS ( 1.000000000000000000, 0.0000000000000000000, 0.0000000000000000000, 0.0000000000000000000, 0.0000000000000000000, 0.0000000000000000000, 0.0000000000000000000 ) ;
#139 = CARTESIAN_POINT ( 'NONE',  ( -0.3434062500000000240, 0.0000000000000000000, 0.3434062500000000795 ) ) ;
#140 = AXIS2_PLACEMENT_3D ( 'NONE', #231, #181, #10 ) ;
#141 = ORIENTED_EDGE ( 'NONE', *, *, #315, .T. ) ;
#142 =( LENGTH_UNIT ( ) NAMED_UNIT ( * ) SI_UNIT ( $, .METRE. ) );
#143 = EDGE_LOOP ( 'NONE', ( #67, #166, #271, #217 ) ) ;
#144 = EDGE_CURVE ( 'NONE', #128, #218, #232, .T. ) ;
#145 = ORIENTED_EDGE ( 'NONE', *, *, #125, .F. ) ;
#146 = CIRCLE ( 'NONE', #199, 0.3599999999999994316 ) ;
#147 = ORIENTED_EDGE ( 'NONE', *, *, #194, .T. ) ;
#148 = ADVANCED_FACE ( 'NONE', ( #211 ), #12, .T. ) ;
#149 = DIRECTION ( 'NONE',  ( 1.000000000000000000, 0.0000000000000000000, 0.0000000000000000000 ) ) ;
#150 = AXIS2_PLACEMENT_3D ( 'NONE', #23, #223, #122 ) ;
#151 = CARTESIAN_POINT ( 'NONE',  ( -0.3599999999999994316, 0.0000000000000000000, 4.000000000000000000 ) ) ;
#152 = CYLINDRICAL_SURFACE ( 'NONE', #204, 0.3434062500000000795 ) ;
#153 = CARTESIAN_POINT ( 'NONE',  ( 1.683889348827610506E-16, 0.0000000000000000000, 1.375000000000000000 ) ) ;
#154 = AXIS2_PLACEMENT_3D ( 'NONE', #158, #310, #309 ) ;
#155 = CARTESIAN_POINT ( 'NONE',  ( 0.0000000000000000000, 0.0000000000000000000, 0.0000000000000000000 ) ) ;
#156 = AXIS2_PLACEMENT_3D ( 'NONE', #155, #126, #300 ) ;
#157 = CYLINDRICAL_SURFACE ( 'NONE', #263, 0.3750000000000000555 ) ;
#158 = CARTESIAN_POINT ( 'NONE',  ( 0.0000000000000000000, 0.0000000000000000000, 4.000000000000000000 ) ) ;
#159 = FACE_OUTER_BOUND ( 'NONE', #95, .T. ) ;
#160 =( GEOMETRIC_REPRESENTATION_CONTEXT ( 3 ) GLOBAL_UNCERTAINTY_ASSIGNED_CONTEXT ( ( #311 ) ) GLOBAL_UNIT_ASSIGNED_CONTEXT ( ( #60, #90, #292 ) ) REPRESENTATION_CONTEXT ( 'NONE', 'WORKASPACE' ) );
#161 = DIRECTION ( 'NONE',  ( -1.224646799147353207E-16, -0.0000000000000000000, -1.000000000000000000 ) ) ;
#162 = CARTESIAN_POINT ( 'NONE',  ( 0.3434062500000001905, 0.0000000000000000000, 1.375000000000000000 ) ) ;
#163 = CARTESIAN_POINT ( 'NONE',  ( 1.683889348827610506E-16, 0.0000000000000000000, 1.375000000000000000 ) ) ;
#164 = CIRCLE ( 'NONE', #140, 0.3750000000000000555 ) ;
#165 = ORIENTED_EDGE ( 'NONE', *, *, #171, .T. ) ;
#166 = ORIENTED_EDGE ( 'NONE', *, *, #180, .F. ) ;
#167 = PRODUCT_DEFINITION_CONTEXT ( 'detailed design', #275, 'design' ) ;
#168 =( NAMED_UNIT ( * ) PLANE_ANGLE_UNIT ( ) SI_UNIT ( $, .RADIAN. ) );
#169 = VERTEX_POINT ( 'NONE', #11 ) ;
#170 = ORIENTED_EDGE ( 'NONE', *, *, #35, .F. ) ;
#171 = EDGE_CURVE ( 'NONE', #128, #295, #13, .T. ) ;
#172 = SURFACE_STYLE_FILL_AREA ( #321 ) ;
#173 = DIRECTION ( 'NONE',  ( 1.224646799147353207E-16, 0.0000000000000000000, 1.000000000000000000 ) ) ;
#174 = ORIENTED_EDGE ( 'NONE', *, *, #306, .F. ) ;
#175 = ORIENTED_EDGE ( 'NONE', *, *, #219, .F. ) ;
#176 = FACE_OUTER_BOUND ( 'NONE', #64, .T. ) ;
#177 = VERTEX_POINT ( 'NONE', #308 ) ;
#178 = PRODUCT_DEFINITION_FORMATION_WITH_SPECIFIED_SOURCE ( 'ANY', '', #76, .NOT_KNOWN. ) ;
#179 = CARTESIAN_POINT ( 'NONE',  ( 0.0000000000000000000, 0.0000000000000000000, 0.0000000000000000000 ) ) ;
#180 = EDGE_CURVE ( 'NONE', #17, #73, #183, .T. ) ;
#181 = DIRECTION ( 'NONE',  ( -1.224646799147353207E-16, -0.0000000000000000000, -1.000000000000000000 ) ) ;
#182 = LINE ( 'NONE', #132, #87 ) ;
#183 = CIRCLE ( 'NONE', #79, 0.3599999999999994316 ) ;
#184 = FACE_OUTER_BOUND ( 'NONE', #303, .T. ) ;
#185 = CARTESIAN_POINT ( 'NONE',  ( 0.0000000000000000000, 0.0000000000000000000, 4.000000000000000000 ) ) ;
#186 = DIRECTION ( 'NONE',  ( 0.1736481776669313304, 0.0000000000000000000, 0.9848077530122077983 ) ) ;
#187 = VERTEX_POINT ( 'NONE', #162 ) ;
#188 = ADVANCED_FACE ( 'NONE', ( #85 ), #97, .T. ) ;
#189 = CIRCLE ( 'NONE', #38, 0.3750000000000000555 ) ;
#190 = STYLED_ITEM ( 'NONE', ( #41 ), #281 ) ;
#191 = EDGE_LOOP ( 'NONE', ( #294, #101, #48, #174 ) ) ;
#192 =( CONVERSION_BASED_UNIT ( 'INCH', #119 ) LENGTH_UNIT ( ) NAMED_UNIT ( #16 ) );
#193 = VECTOR ( 'NONE', #261, 39.37007874015748143 ) ;
#194 = EDGE_CURVE ( 'NONE', #73, #177, #182, .T. ) ;
#195 = DIRECTION ( 'NONE',  ( 1.224646799147353207E-16, 0.0000000000000000000, 1.000000000000000000 ) ) ;
#196 = DIRECTION ( 'NONE',  ( 0.0000000000000000000, 1.000000000000000000, 0.0000000000000000000 ) ) ;
#197 = ADVANCED_FACE ( 'NONE', ( #184 ), #287, .T. ) ;
#198 = DIRECTION ( 'NONE',  ( -1.000000000000000000, 0.0000000000000000000, 0.0000000000000000000 ) ) ;
#199 = AXIS2_PLACEMENT_3D ( 'NONE', #42, #93, #230 ) ;
#200 = LINE ( 'NONE', #151, #252 ) ;
#201 = SPHERICAL_SURFACE ( 'NONE', #237, 0.3434062500000000240 ) ;
#202 = CLOSED_SHELL ( 'NONE', ( #114, #148, #99, #39, #197, #255, #234, #188, #118, #22, #245 ) ) ;
#203 = CARTESIAN_POINT ( 'NONE',  ( 4.205513648696958210E-17, 0.0000000000000000000, 0.3434062500000000240 ) ) ;
#204 = AXIS2_PLACEMENT_3D ( 'NONE', #74, #3, #124 ) ;
#205 = CARTESIAN_POINT ( 'NONE',  ( 0.0000000000000000000, 0.0000000000000000000, 4.000000000000000000 ) ) ;
#206 = DIRECTION ( 'NONE',  ( 0.0000000000000000000, 0.0000000000000000000, -1.000000000000000000 ) ) ;
#207 = DIRECTION ( 'NONE',  ( -1.224646799147353207E-16, -0.0000000000000000000, -1.000000000000000000 ) ) ;
#208 = DIMENSIONAL_EXPONENTS ( 1.000000000000000000, 0.0000000000000000000, 0.0000000000000000000, 0.0000000000000000000, 0.0000000000000000000, 0.0000000000000000000, 0.0000000000000000000 ) ;
#209 = AXIS2_PLACEMENT_3D ( 'NONE', #100, #173, #244 ) ;
#210 =( LENGTH_UNIT ( ) NAMED_UNIT ( * ) SI_UNIT ( $, .METRE. ) );
#211 = FACE_OUTER_BOUND ( 'NONE', #120, .T. ) ;
#212 = CARTESIAN_POINT ( 'NONE',  ( 0.3434062500000001905, 0.0000000000000000000, 1.375000000000000000 ) ) ;
#213 = EDGE_LOOP ( 'NONE', ( #279, #319, #322, #293 ) ) ;
#214 = SURFACE_STYLE_USAGE ( .BOTH. , #265 ) ;
#215 = LENGTH_MEASURE_WITH_UNIT ( LENGTH_MEASURE( 0.02539999999999999897 ), #210 );
#216 = AXIS2_PLACEMENT_3D ( 'NONE', #203, #80, #37 ) ;
#217 = ORIENTED_EDGE ( 'NONE', *, *, #280, .F. ) ;
#218 = VERTEX_POINT ( 'NONE', #110 ) ;
#219 = EDGE_CURVE ( 'NONE', #169, #7, #83, .T. ) ;
#220 = ORIENTED_EDGE ( 'NONE', *, *, #285, .F. ) ;
#221 = CARTESIAN_POINT ( 'NONE',  ( 0.3599999999999994316, 4.500576986866520466E-17, 4.000000000000000000 ) ) ;
#222 = CARTESIAN_POINT ( 'NONE',  ( 0.3750000000000000555, 4.592425496802575451E-17, 4.000000000000000000 ) ) ;
#223 = DIRECTION ( 'NONE',  ( 0.0000000000000000000, 0.0000000000000000000, -1.000000000000000000 ) ) ;
#224 = CARTESIAN_POINT ( 'NONE',  ( -0.3434062499999999130, 4.398969572749766523E-17, 1.375000000000000000 ) ) ;
#225 = AXIS2_PLACEMENT_3D ( 'NONE', #153, #195, #71 ) ;
#226 = CARTESIAN_POINT ( 'NONE',  ( 1.683889348827610506E-16, 0.0000000000000000000, 1.375000000000000000 ) ) ;
#227 = UNCERTAINTY_MEASURE_WITH_UNIT (LENGTH_MEASURE( 1.000000000000000082E-05 ), #243, 'distance_accuracy_value', 'NONE');
#228 = EDGE_CURVE ( 'NONE', #46, #295, #36, .T. ) ;
#229 = SPHERICAL_SURFACE ( 'NONE', #323, 0.3434062500000000240 ) ;
#230 = DIRECTION ( 'NONE',  ( 1.000000000000000000, 0.0000000000000000000, 0.0000000000000000000 ) ) ;
#231 = CARTESIAN_POINT ( 'NONE',  ( 1.903317961823216266E-16, 0.0000000000000000000, 1.554177059988545828 ) ) ;
#232 = CIRCLE ( 'NONE', #112, 0.3434062500000000240 ) ;
#233 = DIRECTION ( 'NONE',  ( -0.0000000000000000000, -0.0000000000000000000, -1.000000000000000000 ) ) ;
#234 = ADVANCED_FACE ( 'NONE', ( #260 ), #131, .T. ) ;
#235 = PRODUCT_CONTEXT ( 'NONE', #241, 'mechanical' ) ;
#236 = DIRECTION ( 'NONE',  ( 0.0000000000000000000, 0.0000000000000000000, 1.000000000000000000 ) ) ;
#237 = AXIS2_PLACEMENT_3D ( 'NONE', #49, #196, #149 ) ;
#238 = LINE ( 'NONE', #212, #24 ) ;
#239 = ORIENTED_EDGE ( 'NONE', *, *, #228, .F. ) ;
#240 = ORIENTED_EDGE ( 'NONE', *, *, #35, .T. ) ;
#241 = APPLICATION_CONTEXT ( 'automotive_design' ) ;
#242 = EDGE_CURVE ( 'NONE', #7, #115, #164, .T. ) ;
#243 =( CONVERSION_BASED_UNIT ( 'INCH', #313 ) LENGTH_UNIT ( ) NAMED_UNIT ( #208 ) );
#244 = DIRECTION ( 'NONE',  ( -1.000000000000000000, 0.0000000000000000000, 1.988787328174911433E-16 ) ) ;
#245 = ADVANCED_FACE ( 'NONE', ( #159 ), #229, .T. ) ;
#246 = DIRECTION ( 'NONE',  ( 0.0000000000000000000, 0.0000000000000000000, -1.000000000000000000 ) ) ;
#247 = STYLED_ITEM ( 'NONE', ( #89 ), #307 ) ;
#248 = FACE_OUTER_BOUND ( 'NONE', #213, .T. ) ;
#249 = SHAPE_DEFINITION_REPRESENTATION ( #289, #281 ) ;
#250 = CARTESIAN_POINT ( 'NONE',  ( 0.0000000000000000000, 0.0000000000000000000, 4.000000000000000000 ) ) ;
#251 = ORIENTED_EDGE ( 'NONE', *, *, #325, .T. ) ;
#252 = VECTOR ( 'NONE', #274, 39.37007874015748143 ) ;
#253 = CONICAL_SURFACE ( 'NONE', #225, 0.3434062500000000795, 0.1745329251994338360 ) ;
#254 =( GEOMETRIC_REPRESENTATION_CONTEXT ( 3 ) GLOBAL_UNCERTAINTY_ASSIGNED_CONTEXT ( ( #320 ) ) GLOBAL_UNIT_ASSIGNED_CONTEXT ( ( #192, #168, #272 ) ) REPRESENTATION_CONTEXT ( 'NONE', 'WORKASPACE' ) );
#255 = ADVANCED_FACE ( 'NONE', ( #9 ), #157, .T. ) ;
#256 = DIRECTION ( 'NONE',  ( -0.0000000000000000000, -0.0000000000000000000, -1.000000000000000000 ) ) ;
#257 = DIRECTION ( 'NONE',  ( -1.000000000000000000, 0.0000000000000000000, 1.224646799147353207E-16 ) ) ;
#258 = DIRECTION ( 'NONE',  ( 1.000000000000000000, 0.0000000000000000000, 0.0000000000000000000 ) ) ;
#259 = AXIS2_PLACEMENT_3D ( 'NONE', #226, #26, #301 ) ;
#260 = FACE_OUTER_BOUND ( 'NONE', #94, .T. ) ;
#261 = DIRECTION ( 'NONE',  ( -0.0000000000000000000, -0.0000000000000000000, -1.000000000000000000 ) ) ;
#262 = SURFACE_STYLE_FILL_AREA ( #62 ) ;
#263 = AXIS2_PLACEMENT_3D ( 'NONE', #32, #256, #8 ) ;
#264 = EDGE_LOOP ( 'NONE', ( #91, #18, #273, #268 ) ) ;
#265 = SURFACE_SIDE_STYLE ('',( #172 ) ) ;
#266 = DIRECTION ( 'NONE',  ( -1.000000000000000000, 0.0000000000000000000, 0.0000000000000000000 ) ) ;
#267 = ORIENTED_EDGE ( 'NONE', *, *, #228, .T. ) ;
#268 = ORIENTED_EDGE ( 'NONE', *, *, #84, .F. ) ;
#269 = PRODUCT_RELATED_PRODUCT_CATEGORY ( 'part', '', ( #76 ) ) ;
#270 = CIRCLE ( 'NONE', #305, 0.3750000000000000555 ) ;
#271 = ORIENTED_EDGE ( 'NONE', *, *, #103, .T. ) ;
#272 =( NAMED_UNIT ( * ) SI_UNIT ( $, .STERADIAN. ) SOLID_ANGLE_UNIT ( ) );
#273 = ORIENTED_EDGE ( 'NONE', *, *, #219, .T. ) ;
#274 = DIRECTION ( 'NONE',  ( -0.7071067811865426878, 0.0000000000000000000, -0.7071067811865523467 ) ) ;
#275 = APPLICATION_CONTEXT ( 'automotive_design' ) ;
#276 = DIRECTION ( 'NONE',  ( -1.224646799147353207E-16, -0.0000000000000000000, -1.000000000000000000 ) ) ;
#277 = CONICAL_SURFACE ( 'NONE', #6, 0.3599999999999994316, 0.7853981633974415066 ) ;
#278 = CARTESIAN_POINT ( 'NONE',  ( -0.3749999999999998335, 0.0000000000000000000, 1.554177059988545828 ) ) ;
#279 = ORIENTED_EDGE ( 'NONE', *, *, #78, .F. ) ;
#280 = EDGE_CURVE ( 'NONE', #177, #169, #189, .T. ) ;
#281 = ADVANCED_BREP_SHAPE_REPRESENTATION ( 'Micro_BEM-687-02', ( #307, #156 ), #108 ) ;
#282 = ORIENTED_EDGE ( 'NONE', *, *, #125, .T. ) ;
#283 = AXIS2_PLACEMENT_3D ( 'NONE', #185, #34, #135 ) ;
#284 = DIRECTION ( 'NONE',  ( 1.000000000000000000, 0.0000000000000000000, 0.0000000000000000000 ) ) ;
#285 = EDGE_CURVE ( 'NONE', #295, #218, #33, .T. ) ;
#286 = CARTESIAN_POINT ( 'NONE',  ( 4.205513648696958210E-17, 0.0000000000000000000, 0.3434062500000000240 ) ) ;
#287 = CYLINDRICAL_SURFACE ( 'NONE', #65, 0.3750000000000000555 ) ;
#288 = CARTESIAN_POINT ( 'NONE',  ( 0.0000000000000000000, 0.0000000000000000000, 4.000000000000000000 ) ) ;
#289 = PRODUCT_DEFINITION_SHAPE ( 'NONE', 'NONE',  #4 ) ;
#290 = CARTESIAN_POINT ( 'NONE',  ( 0.3434062500000000795, 4.205513648696958826E-17, -4.205513648696958826E-17 ) ) ;
#291 = ORIENTED_EDGE ( 'NONE', *, *, #171, .F. ) ;
#292 =( NAMED_UNIT ( * ) SI_UNIT ( $, .STERADIAN. ) SOLID_ANGLE_UNIT ( ) );
#293 = ORIENTED_EDGE ( 'NONE', *, *, #84, .T. ) ;
#294 = ORIENTED_EDGE ( 'NONE', *, *, #27, .F. ) ;
#295 = VERTEX_POINT ( 'NONE', #139 ) ;
#296 = CONICAL_SURFACE ( 'NONE', #259, 0.3434062500000000795, 0.1745329251994338360 ) ;
#297 = ORIENTED_EDGE ( 'NONE', *, *, #144, .F. ) ;
#298 = FACE_OUTER_BOUND ( 'NONE', #121, .T. ) ;
#299 = CARTESIAN_POINT ( 'NONE',  ( 0.3750000000000001665, 4.592425496802577300E-17, 1.554177059988545828 ) ) ;
#300 = DIRECTION ( 'NONE',  ( 1.000000000000000000, 0.0000000000000000000, 0.0000000000000000000 ) ) ;
#301 = DIRECTION ( 'NONE',  ( 1.000000000000000000, 0.0000000000000000000, 0.0000000000000000000 ) ) ;
#302 = FACE_OUTER_BOUND ( 'NONE', #21, .T. ) ;
#303 = EDGE_LOOP ( 'NONE', ( #317, #53, #40, #175 ) ) ;
#304 = DIRECTION ( 'NONE',  ( 0.7071067811865426878, 8.659560562354873694E-17, -0.7071067811865523467 ) ) ;
#305 = AXIS2_PLACEMENT_3D ( 'NONE', #51, #130, #127 ) ;
#306 = EDGE_CURVE ( 'NONE', #187, #115, #238, .T. ) ;
#307 = MANIFOLD_SOLID_BREP ( 'Fillet1', #202 ) ;
#308 = CARTESIAN_POINT ( 'NONE',  ( 0.3750000000000000555, 4.592425496802575451E-17, 3.984999999999998987 ) ) ;
#309 = DIRECTION ( 'NONE',  ( -1.000000000000000000, 0.0000000000000000000, 0.0000000000000000000 ) ) ;
#310 = DIRECTION ( 'NONE',  ( 0.0000000000000000000, 0.0000000000000000000, -1.000000000000000000 ) ) ;
#311 = UNCERTAINTY_MEASURE_WITH_UNIT (LENGTH_MEASURE( 1.000000000000000082E-05 ), #60, 'distance_accuracy_value', 'NONE');
#312 = CIRCLE ( 'NONE', #209, 0.3434062500000000795 ) ;
#313 = LENGTH_MEASURE_WITH_UNIT ( LENGTH_MEASURE( 0.02539999999999999897 ), #81 );
#314 = CARTESIAN_POINT ( 'NONE',  ( -0.3750000000000000555, 0.0000000000000000000, 4.000000000000000000 ) ) ;
#315 = EDGE_CURVE ( 'NONE', #187, #46, #59, .T. ) ;
#316 = SURFACE_STYLE_USAGE ( .BOTH. , #113 ) ;
#317 = ORIENTED_EDGE ( 'NONE', *, *, #47, .T. ) ;
#318 = CIRCLE ( 'NONE', #150, 0.3750000000000000555 ) ;
#319 = ORIENTED_EDGE ( 'NONE', *, *, #315, .F. ) ;
#320 = UNCERTAINTY_MEASURE_WITH_UNIT (LENGTH_MEASURE( 1.000000000000000082E-05 ), #192, 'distance_accuracy_value', 'NONE');
#321 = FILL_AREA_STYLE ('',( #96 ) ) ;
#322 = ORIENTED_EDGE ( 'NONE', *, *, #306, .T. ) ;
#323 = AXIS2_PLACEMENT_3D ( 'NONE', #286, #109, #258 ) ;
#324 = DIRECTION ( 'NONE',  ( -0.1736481776669311639, 2.126576849575782392E-17, 0.9848077530122080203 ) ) ;
#325 = EDGE_CURVE ( 'NONE', #73, #17, #146, .T. ) ;
ENDSEC;
END-ISO-10303-21;
