ISO-10303-21;
HEADER;
FILE_DESCRIPTION (( 'STEP AP214' ),
    '1' );
FILE_NAME ('Micro_DMM-080-490X.STEP',
    '2021-09-02T16:27:50',
    ( '' ),
    ( '' ),
    'SwSTEP 2.0',
    'SolidWorks 2020',
    '' );
FILE_SCHEMA (( 'AUTOMOTIVE_DESIGN' ));
ENDSEC;

DATA;
#1 = DIRECTION ( 'NONE',  ( -1.000000000000000000, 0.0000000000000000000, 0.0000000000000000000 ) ) ;
#2 = CARTESIAN_POINT ( 'NONE',  ( -0.1574804999999999955, 0.0000000000000000000, 2.480315000000000047 ) ) ;
#3 = FACE_OUTER_BOUND ( 'NONE', #250, .T. ) ;
#4 = FACE_OUTER_BOUND ( 'NONE', #260, .T. ) ;
#5 = CIRCLE ( 'NONE', #90, 0.1574804999999999955 ) ;
#6 = CIRCLE ( 'NONE', #161, 0.1574804999999999955 ) ;
#7 =( NAMED_UNIT ( * ) PLANE_ANGLE_UNIT ( ) SI_UNIT ( $, .RADIAN. ) );
#8 = EDGE_CURVE ( 'NONE', #246, #10, #27, .T. ) ;
#9 = VECTOR ( 'NONE', #168, 39.37007874015748143 ) ;
#10 = VERTEX_POINT ( 'NONE', #147 ) ;
#11 = VERTEX_POINT ( 'NONE', #23 ) ;
#12 = DIRECTION ( 'NONE',  ( 1.000000000000000000, 0.0000000000000000000, 0.0000000000000000000 ) ) ;
#13 = CIRCLE ( 'NONE', #284, 0.1574305000000001398 ) ;
#14 = AXIS2_PLACEMENT_3D ( 'NONE', #258, #82, #86 ) ;
#15 = ORIENTED_EDGE ( 'NONE', *, *, #319, .F. ) ;
#16 = EDGE_CURVE ( 'NONE', #292, #184, #77, .T. ) ;
#17 = DIRECTION ( 'NONE',  ( 0.0000000000000000000, 0.0000000000000000000, -1.000000000000000000 ) ) ;
#18 = ORIENTED_EDGE ( 'NONE', *, *, #180, .F. ) ;
#19 =( NAMED_UNIT ( * ) SI_UNIT ( $, .STERADIAN. ) SOLID_ANGLE_UNIT ( ) );
#20 = AXIS2_PLACEMENT_3D ( 'NONE', #267, #17, #100 ) ;
#21 = ORIENTED_EDGE ( 'NONE', *, *, #26, .F. ) ;
#22 = DIRECTION ( 'NONE',  ( -0.0000000000000000000, 0.0000000000000000000, -1.000000000000000000 ) ) ;
#23 = CARTESIAN_POINT ( 'NONE',  ( 0.1574804999999999955, 1.928579902531247412E-17, 2.465314999999999923 ) ) ;
#24 = LINE ( 'NONE', #325, #232 ) ;
#25 = VERTEX_POINT ( 'NONE', #300 ) ;
#26 = EDGE_CURVE ( 'NONE', #184, #118, #278, .T. ) ;
#27 = CIRCLE ( 'NONE', #162, 0.007499999999999999722 ) ;
#28 = CYLINDRICAL_SURFACE ( 'NONE', #91, 0.1574305000000000843 ) ;
#29 = SURFACE_STYLE_USAGE ( .BOTH. , #204 ) ;
#30 = DIRECTION ( 'NONE',  ( -1.000000000000000000, 0.0000000000000000000, 0.0000000000000000000 ) ) ;
#31 = ADVANCED_FACE ( 'NONE', ( #74 ), #80, .F. ) ;
#32 = AXIS2_PLACEMENT_3D ( 'NONE', #165, #73, #96 ) ;
#33 = CARTESIAN_POINT ( 'NONE',  ( 0.0000000000000000000, 0.0000000000000000000, 0.8661419999999999675 ) ) ;
#34 = CARTESIAN_POINT ( 'NONE',  ( 0.1574804999999999955, 1.928579902531247412E-17, 0.8661419999999999675 ) ) ;
#35 = MANIFOLD_SOLID_BREP ( 'Cut-Revolve4', #317 ) ;
#36 = MECHANICAL_DESIGN_GEOMETRIC_PRESENTATION_REPRESENTATION (  '', ( #297 ), #67 ) ;
#37 =( GEOMETRIC_REPRESENTATION_CONTEXT ( 3 ) GLOBAL_UNCERTAINTY_ASSIGNED_CONTEXT ( ( #305 ) ) GLOBAL_UNIT_ASSIGNED_CONTEXT ( ( #87, #158, #283 ) ) REPRESENTATION_CONTEXT ( 'NONE', 'WORKASPACE' ) );
#38 = ORIENTED_EDGE ( 'NONE', *, *, #241, .T. ) ;
#39 = ORIENTED_EDGE ( 'NONE', *, *, #79, .F. ) ;
#40 = AXIS2_PLACEMENT_3D ( 'NONE', #75, #193, #219 ) ;
#41 = CARTESIAN_POINT ( 'NONE',  ( 0.0000000000000000000, 0.0000000000000000000, 0.0000000000000000000 ) ) ;
#42 = CARTESIAN_POINT ( 'NONE',  ( 0.1574305000000000843, 1.927967579131674846E-17, 0.0000000000000000000 ) ) ;
#43 = EDGE_CURVE ( 'NONE', #11, #127, #217, .T. ) ;
#44 = DIRECTION ( 'NONE',  ( -1.000000000000000000, 0.0000000000000000000, 0.0000000000000000000 ) ) ;
#45 = CARTESIAN_POINT ( 'NONE',  ( 0.0000000000000000000, 0.0000000000000000000, 0.1499304999999994115 ) ) ;
#46 = DIRECTION ( 'NONE',  ( 1.000000000000000000, 0.0000000000000000000, 0.0000000000000000000 ) ) ;
#47 = AXIS2_PLACEMENT_3D ( 'NONE', #316, #119, #216 ) ;
#48 = ORIENTED_EDGE ( 'NONE', *, *, #139, .F. ) ;
#49 = FACE_OUTER_BOUND ( 'NONE', #288, .T. ) ;
#50 = EDGE_CURVE ( 'NONE', #25, #11, #68, .T. ) ;
#51 = ORIENTED_EDGE ( 'NONE', *, *, #192, .T. ) ;
#52 = LINE ( 'NONE', #128, #236 ) ;
#53 = ADVANCED_FACE ( 'NONE', ( #269 ), #103, .T. ) ;
#54 = FACE_OUTER_BOUND ( 'NONE', #69, .T. ) ;
#55 = LINE ( 'NONE', #2, #234 ) ;
#56 = DIRECTION ( 'NONE',  ( -1.000000000000000000, 0.0000000000000000000, 0.0000000000000000000 ) ) ;
#57 =( LENGTH_UNIT ( ) NAMED_UNIT ( * ) SI_UNIT ( $, .METRE. ) );
#58 = APPLICATION_CONTEXT ( 'automotive_design' ) ;
#59 = PRODUCT_DEFINITION_SHAPE ( 'NONE', 'NONE',  #266 ) ;
#60 = AXIS2_PLACEMENT_3D ( 'NONE', #203, #301, #30 ) ;
#61 = DIRECTION ( 'NONE',  ( -0.0000000000000000000, -0.0000000000000000000, -1.000000000000000000 ) ) ;
#62 = ADVANCED_FACE ( 'NONE', ( #294 ), #171, .T. ) ;
#63 = EDGE_CURVE ( 'NONE', #246, #118, #188, .T. ) ;
#64 = SHAPE_DEFINITION_REPRESENTATION ( #59, #308 ) ;
#65 = ORIENTED_EDGE ( 'NONE', *, *, #43, .T. ) ;
#66 = ORIENTED_EDGE ( 'NONE', *, *, #180, .T. ) ;
#67 =( GEOMETRIC_REPRESENTATION_CONTEXT ( 3 ) GLOBAL_UNCERTAINTY_ASSIGNED_CONTEXT ( ( #235 ) ) GLOBAL_UNIT_ASSIGNED_CONTEXT ( ( #140, #275, #19 ) ) REPRESENTATION_CONTEXT ( 'NONE', 'WORKASPACE' ) );
#68 = LINE ( 'NONE', #276, #197 ) ;
#69 = EDGE_LOOP ( 'NONE', ( #312, #138, #309, #322 ) ) ;
#70 = ADVANCED_FACE ( 'NONE', ( #242, #126 ), #244, .T. ) ;
#71 = CARTESIAN_POINT ( 'NONE',  ( -0.1574804999999999955, 0.0000000000000000000, 2.465314999999999923 ) ) ;
#72 = ORIENTED_EDGE ( 'NONE', *, *, #43, .F. ) ;
#73 = DIRECTION ( 'NONE',  ( 0.0000000000000000000, 0.0000000000000000000, 1.000000000000000000 ) ) ;
#74 = FACE_OUTER_BOUND ( 'NONE', #215, .T. ) ;
#75 = CARTESIAN_POINT ( 'NONE',  ( 0.0000000000000000000, 0.0000000000000000000, 1.707404996040164512E-17 ) ) ;
#76 = CIRCLE ( 'NONE', #157, 0.1424804999999990940 ) ;
#77 = LINE ( 'NONE', #42, #9 ) ;
#78 = DIRECTION ( 'NONE',  ( -0.0000000000000000000, -0.0000000000000000000, -1.000000000000000000 ) ) ;
#79 = EDGE_CURVE ( 'NONE', #10, #246, #224, .T. ) ;
#80 = PLANE ( 'NONE',  #182 ) ;
#81 = DIRECTION ( 'NONE',  ( -0.0000000000000000000, -0.0000000000000000000, -1.000000000000000000 ) ) ;
#82 = DIRECTION ( 'NONE',  ( -0.0000000000000000000, -0.0000000000000000000, -1.000000000000000000 ) ) ;
#83 = CYLINDRICAL_SURFACE ( 'NONE', #311, 0.1574804999999999955 ) ;
#84 =( CONVERSION_BASED_UNIT ( 'INCH', #307 ) LENGTH_UNIT ( ) NAMED_UNIT ( #208 ) );
#85 = AXIS2_PLACEMENT_3D ( 'NONE', #321, #22, #190 ) ;
#86 = DIRECTION ( 'NONE',  ( -1.000000000000000000, 0.0000000000000000000, 0.0000000000000000000 ) ) ;
#87 =( CONVERSION_BASED_UNIT ( 'INCH', #207 ) LENGTH_UNIT ( ) NAMED_UNIT ( #88 ) );
#88 = DIMENSIONAL_EXPONENTS ( 1.000000000000000000, 0.0000000000000000000, 0.0000000000000000000, 0.0000000000000000000, 0.0000000000000000000, 0.0000000000000000000, 0.0000000000000000000 ) ;
#89 = EDGE_LOOP ( 'NONE', ( #95, #39, #51, #262 ) ) ;
#90 = AXIS2_PLACEMENT_3D ( 'NONE', #299, #78, #174 ) ;
#91 = AXIS2_PLACEMENT_3D ( 'NONE', #155, #229, #1 ) ;
#92 = DIRECTION ( 'NONE',  ( 0.0000000000000000000, 0.0000000000000000000, 1.000000000000000000 ) ) ;
#93 = EDGE_LOOP ( 'NONE', ( #239, #175, #150, #72 ) ) ;
#94 = CARTESIAN_POINT ( 'NONE',  ( -0.1424804999999990940, 0.0000000000000000000, 2.480315000000000047 ) ) ;
#95 = ORIENTED_EDGE ( 'NONE', *, *, #63, .F. ) ;
#96 = DIRECTION ( 'NONE',  ( 1.000000000000000000, 0.0000000000000000000, -0.0000000000000000000 ) ) ;
#97 = AXIS2_PLACEMENT_3D ( 'NONE', #179, #61, #209 ) ;
#98 = DIRECTION ( 'NONE',  ( 1.000000000000000000, 0.0000000000000000000, -0.0000000000000000000 ) ) ;
#99 = DIRECTION ( 'NONE',  ( -1.000000000000000000, 0.0000000000000000000, 0.0000000000000000000 ) ) ;
#100 = DIRECTION ( 'NONE',  ( 1.000000000000000000, 0.0000000000000000000, 0.0000000000000000000 ) ) ;
#101 = SURFACE_STYLE_USAGE ( .BOTH. , #222 ) ;
#102 = DIRECTION ( 'NONE',  ( 0.7071067811865490160, 0.0000000000000000000, 0.7071067811865460184 ) ) ;
#103 = CONICAL_SURFACE ( 'NONE', #40, 0.007499999999999999722, 0.7853981633974503884 ) ;
#104 = ORIENTED_EDGE ( 'NONE', *, *, #130, .F. ) ;
#105 = DIRECTION ( 'NONE',  ( 0.0000000000000000000, 0.0000000000000000000, 1.000000000000000000 ) ) ;
#106 = CARTESIAN_POINT ( 'NONE',  ( -0.1574305000000001398, 0.0000000000000000000, 0.8661419999999999675 ) ) ;
#107 = CARTESIAN_POINT ( 'NONE',  ( 0.0000000000000000000, 0.0000000000000000000, 2.480315000000000047 ) ) ;
#108 = DIRECTION ( 'NONE',  ( -0.0000000000000000000, -0.0000000000000000000, -1.000000000000000000 ) ) ;
#109 = AXIS2_PLACEMENT_3D ( 'NONE', #221, #323, #249 ) ;
#110 = LENGTH_MEASURE_WITH_UNIT ( LENGTH_MEASURE( 0.02539999999999999897 ), #243 );
#111 = DIRECTION ( 'NONE',  ( -1.000000000000000000, 0.0000000000000000000, 0.0000000000000000000 ) ) ;
#112 = PRODUCT_DEFINITION_CONTEXT ( 'detailed design', #58, 'design' ) ;
#113 = ORIENTED_EDGE ( 'NONE', *, *, #228, .F. ) ;
#114 = VERTEX_POINT ( 'NONE', #214 ) ;
#115 =( GEOMETRIC_REPRESENTATION_CONTEXT ( 3 ) GLOBAL_UNCERTAINTY_ASSIGNED_CONTEXT ( ( #211 ) ) GLOBAL_UNIT_ASSIGNED_CONTEXT ( ( #84, #7, #132 ) ) REPRESENTATION_CONTEXT ( 'NONE', 'WORKASPACE' ) );
#116 = ORIENTED_EDGE ( 'NONE', *, *, #279, .F. ) ;
#117 = CARTESIAN_POINT ( 'NONE',  ( 0.0000000000000000000, 0.0000000000000000000, 2.480315000000000047 ) ) ;
#118 = VERTEX_POINT ( 'NONE', #172 ) ;
#119 = DIRECTION ( 'NONE',  ( -0.0000000000000000000, -0.0000000000000000000, -1.000000000000000000 ) ) ;
#120 = ORIENTED_EDGE ( 'NONE', *, *, #228, .T. ) ;
#121 = DIRECTION ( 'NONE',  ( 0.0000000000000000000, 0.0000000000000000000, -1.000000000000000000 ) ) ;
#122 = ORIENTED_EDGE ( 'NONE', *, *, #63, .T. ) ;
#123 = CARTESIAN_POINT ( 'NONE',  ( 0.0000000000000000000, 0.0000000000000000000, 0.8661419999999999675 ) ) ;
#124 = FILL_AREA_STYLE_COLOUR ( '', #153 ) ;
#125 = ADVANCED_FACE ( 'NONE', ( #49 ), #167, .T. ) ;
#126 = FACE_OUTER_BOUND ( 'NONE', #187, .T. ) ;
#127 = VERTEX_POINT ( 'NONE', #71 ) ;
#128 = CARTESIAN_POINT ( 'NONE',  ( 0.1574804999999999955, 1.928579902531247412E-17, 2.480315000000000047 ) ) ;
#129 = CARTESIAN_POINT ( 'NONE',  ( 0.1574305000000001398, 1.927967579131675462E-17, 0.8661419999999999675 ) ) ;
#130 = EDGE_CURVE ( 'NONE', #114, #127, #146, .T. ) ;
#131 = FACE_OUTER_BOUND ( 'NONE', #293, .T. ) ;
#132 =( NAMED_UNIT ( * ) SI_UNIT ( $, .STERADIAN. ) SOLID_ANGLE_UNIT ( ) );
#133 = AXIS2_PLACEMENT_3D ( 'NONE', #251, #280, #56 ) ;
#134 = PRODUCT_DEFINITION_FORMATION_WITH_SPECIFIED_SOURCE ( 'ANY', '', #281, .NOT_KNOWN. ) ;
#135 = DIMENSIONAL_EXPONENTS ( 1.000000000000000000, 0.0000000000000000000, 0.0000000000000000000, 0.0000000000000000000, 0.0000000000000000000, 0.0000000000000000000, 0.0000000000000000000 ) ;
#136 = ORIENTED_EDGE ( 'NONE', *, *, #313, .T. ) ;
#137 = CARTESIAN_POINT ( 'NONE',  ( 0.0000000000000000000, 0.0000000000000000000, 0.0000000000000000000 ) ) ;
#138 = ORIENTED_EDGE ( 'NONE', *, *, #16, .T. ) ;
#139 = EDGE_CURVE ( 'NONE', #292, #298, #13, .T. ) ;
#140 =( CONVERSION_BASED_UNIT ( 'INCH', #110 ) LENGTH_UNIT ( ) NAMED_UNIT ( #135 ) );
#141 = ORIENTED_EDGE ( 'NONE', *, *, #50, .T. ) ;
#142 = ORIENTED_EDGE ( 'NONE', *, *, #237, .T. ) ;
#143 = DIRECTION ( 'NONE',  ( 0.0000000000000000000, 0.0000000000000000000, -1.000000000000000000 ) ) ;
#144 = CARTESIAN_POINT ( 'NONE',  ( -0.007499999999999999722, 9.184850993605147975E-19, 1.707404996040164512E-17 ) ) ;
#145 = SURFACE_STYLE_FILL_AREA ( #166 ) ;
#146 = LINE ( 'NONE', #94, #238 ) ;
#147 = CARTESIAN_POINT ( 'NONE',  ( 0.007499999999999999722, 0.0000000000000000000, 1.707404996040164512E-17 ) ) ;
#148 = AXIS2_PLACEMENT_3D ( 'NONE', #196, #296, #223 ) ;
#149 = DIRECTION ( 'NONE',  ( 0.7071067811865627828, 8.659560562355118980E-17, -0.7071067811865321406 ) ) ;
#150 = ORIENTED_EDGE ( 'NONE', *, *, #130, .T. ) ;
#151 = CARTESIAN_POINT ( 'NONE',  ( 0.1574305000000000565, 0.0000000000000000000, 0.1499304999999994115 ) ) ;
#152 = DIRECTION ( 'NONE',  ( -0.0000000000000000000, -0.0000000000000000000, -1.000000000000000000 ) ) ;
#153 = COLOUR_RGB ( '',0.7921568627450980005, 0.8196078431372548767, 0.9333333333333333481 ) ;
#154 =( LENGTH_UNIT ( ) NAMED_UNIT ( * ) SI_UNIT ( $, .METRE. ) );
#155 = CARTESIAN_POINT ( 'NONE',  ( 0.0000000000000000000, 0.0000000000000000000, 0.0000000000000000000 ) ) ;
#156 = DIRECTION ( 'NONE',  ( -1.000000000000000000, 0.0000000000000000000, 0.0000000000000000000 ) ) ;
#157 = AXIS2_PLACEMENT_3D ( 'NONE', #327, #105, #254 ) ;
#158 =( NAMED_UNIT ( * ) PLANE_ANGLE_UNIT ( ) SI_UNIT ( $, .RADIAN. ) );
#159 = VERTEX_POINT ( 'NONE', #169 ) ;
#160 = AXIS2_PLACEMENT_3D ( 'NONE', #314, #121, #46 ) ;
#161 = AXIS2_PLACEMENT_3D ( 'NONE', #33, #108, #111 ) ;
#162 = AXIS2_PLACEMENT_3D ( 'NONE', #295, #320, #315 ) ;
#163 = ADVANCED_FACE ( 'NONE', ( #271 ), #245, .T. ) ;
#164 = STYLED_ITEM ( 'NONE', ( #230 ), #308 ) ;
#165 = CARTESIAN_POINT ( 'NONE',  ( 0.0000000000000000000, 0.0000000000000000000, 2.480315000000000047 ) ) ;
#166 = FILL_AREA_STYLE ('',( #124 ) ) ;
#167 = PLANE ( 'NONE',  #32 ) ;
#168 = DIRECTION ( 'NONE',  ( -0.0000000000000000000, -0.0000000000000000000, -1.000000000000000000 ) ) ;
#169 = CARTESIAN_POINT ( 'NONE',  ( -0.1574804999999999955, 0.0000000000000000000, 0.8661419999999999675 ) ) ;
#170 = EDGE_CURVE ( 'NONE', #127, #11, #212, .T. ) ;
#171 = CONICAL_SURFACE ( 'NONE', #261, 0.1424804999999990940, 0.7853981633974699283 ) ;
#172 = CARTESIAN_POINT ( 'NONE',  ( -0.1574305000000000565, 1.927967579131674230E-17, 0.1499304999999994115 ) ) ;
#173 = COLOUR_RGB ( '',0.7921568627450980005, 0.8196078431372548767, 0.9333333333333333481 ) ;
#174 = DIRECTION ( 'NONE',  ( -1.000000000000000000, 0.0000000000000000000, 0.0000000000000000000 ) ) ;
#175 = ORIENTED_EDGE ( 'NONE', *, *, #256, .F. ) ;
#176 = DIRECTION ( 'NONE',  ( 0.0000000000000000000, 0.0000000000000000000, -1.000000000000000000 ) ) ;
#177 = CARTESIAN_POINT ( 'NONE',  ( 0.0000000000000000000, 0.0000000000000000000, 2.480315000000000047 ) ) ;
#178 = AXIS2_PLACEMENT_3D ( 'NONE', #45, #220, #99 ) ;
#179 = CARTESIAN_POINT ( 'NONE',  ( 0.0000000000000000000, 0.0000000000000000000, 2.480315000000000047 ) ) ;
#180 = EDGE_CURVE ( 'NONE', #25, #114, #287, .T. ) ;
#181 = FILL_AREA_STYLE_COLOUR ( '', #173 ) ;
#182 = AXIS2_PLACEMENT_3D ( 'NONE', #41, #240, #98 ) ;
#183 = ORIENTED_EDGE ( 'NONE', *, *, #16, .F. ) ;
#184 = VERTEX_POINT ( 'NONE', #151 ) ;
#185 = VECTOR ( 'NONE', #247, 39.37007874015748143 ) ;
#186 = AXIS2_PLACEMENT_3D ( 'NONE', #137, #92, #12 ) ;
#187 = EDGE_LOOP ( 'NONE', ( #195, #120 ) ) ;
#188 = LINE ( 'NONE', #144, #185 ) ;
#189 = ORIENTED_EDGE ( 'NONE', *, *, #279, .T. ) ;
#190 = DIRECTION ( 'NONE',  ( -1.000000000000000000, 0.0000000000000000000, 0.0000000000000000000 ) ) ;
#191 = ORIENTED_EDGE ( 'NONE', *, *, #170, .T. ) ;
#192 = EDGE_CURVE ( 'NONE', #10, #184, #24, .T. ) ;
#193 = DIRECTION ( 'NONE',  ( 0.0000000000000000000, 0.0000000000000000000, 1.000000000000000000 ) ) ;
#194 = APPLICATION_CONTEXT ( 'automotive_design' ) ;
#195 = ORIENTED_EDGE ( 'NONE', *, *, #329, .T. ) ;
#196 = CARTESIAN_POINT ( 'NONE',  ( 0.0000000000000000000, 0.0000000000000000000, 2.480315000000000047 ) ) ;
#197 = VECTOR ( 'NONE', #149, 39.37007874015748854 ) ;
#198 = PRESENTATION_STYLE_ASSIGNMENT (( #101 ) ) ;
#199 = AXIS2_PLACEMENT_3D ( 'NONE', #107, #176, #253 ) ;
#200 = DIRECTION ( 'NONE',  ( -1.000000000000000000, 0.0000000000000000000, 0.0000000000000000000 ) ) ;
#201 = ORIENTED_EDGE ( 'NONE', *, *, #313, .F. ) ;
#202 = CYLINDRICAL_SURFACE ( 'NONE', #60, 0.1574305000000000843 ) ;
#203 = CARTESIAN_POINT ( 'NONE',  ( 0.0000000000000000000, 0.0000000000000000000, 0.0000000000000000000 ) ) ;
#204 = SURFACE_SIDE_STYLE ('',( #328 ) ) ;
#205 = PRESENTATION_LAYER_ASSIGNMENT (  '', '', ( #297 ) ) ;
#206 = APPLICATION_PROTOCOL_DEFINITION ( 'draft international standard', 'automotive_design', 1998, #194 ) ;
#207 = LENGTH_MEASURE_WITH_UNIT ( LENGTH_MEASURE( 0.02539999999999999897 ), #154 );
#208 = DIMENSIONAL_EXPONENTS ( 1.000000000000000000, 0.0000000000000000000, 0.0000000000000000000, 0.0000000000000000000, 0.0000000000000000000, 0.0000000000000000000, 0.0000000000000000000 ) ;
#209 = DIRECTION ( 'NONE',  ( -1.000000000000000000, 0.0000000000000000000, 0.0000000000000000000 ) ) ;
#210 = PRODUCT_RELATED_PRODUCT_CATEGORY ( 'part', '', ( #281 ) ) ;
#211 = UNCERTAINTY_MEASURE_WITH_UNIT (LENGTH_MEASURE( 1.000000000000000082E-05 ), #84, 'distance_accuracy_value', 'NONE');
#212 = CIRCLE ( 'NONE', #20, 0.1574804999999999955 ) ;
#213 = CIRCLE ( 'NONE', #14, 0.1574305000000001398 ) ;
#214 = CARTESIAN_POINT ( 'NONE',  ( -0.1424804999999990940, 0.0000000000000000000, 2.480315000000000047 ) ) ;
#215 = EDGE_LOOP ( 'NONE', ( #218, #310 ) ) ;
#216 = DIRECTION ( 'NONE',  ( -1.000000000000000000, 0.0000000000000000000, 0.0000000000000000000 ) ) ;
#217 = CIRCLE ( 'NONE', #160, 0.1574804999999999955 ) ;
#218 = ORIENTED_EDGE ( 'NONE', *, *, #79, .T. ) ;
#219 = DIRECTION ( 'NONE',  ( 1.000000000000000000, 0.0000000000000000000, 0.0000000000000000000 ) ) ;
#220 = DIRECTION ( 'NONE',  ( -0.0000000000000000000, -0.0000000000000000000, -1.000000000000000000 ) ) ;
#221 = CARTESIAN_POINT ( 'NONE',  ( 0.0000000000000000000, 0.0000000000000000000, 1.707404996040164512E-17 ) ) ;
#222 = SURFACE_SIDE_STYLE ('',( #145 ) ) ;
#223 = DIRECTION ( 'NONE',  ( 1.000000000000000000, 0.0000000000000000000, 0.0000000000000000000 ) ) ;
#224 = CIRCLE ( 'NONE', #47, 0.007499999999999999722 ) ;
#225 = ORIENTED_EDGE ( 'NONE', *, *, #329, .F. ) ;
#226 = PRESENTATION_LAYER_ASSIGNMENT (  '', '', ( #164 ) ) ;
#227 = CARTESIAN_POINT ( 'NONE',  ( -0.1574305000000000843, 0.0000000000000000000, 0.0000000000000000000 ) ) ;
#228 = EDGE_CURVE ( 'NONE', #326, #159, #5, .T. ) ;
#229 = DIRECTION ( 'NONE',  ( -0.0000000000000000000, -0.0000000000000000000, -1.000000000000000000 ) ) ;
#230 = PRESENTATION_STYLE_ASSIGNMENT (( #29 ) ) ;
#231 = LINE ( 'NONE', #227, #272 ) ;
#232 = VECTOR ( 'NONE', #102, 39.37007874015748143 ) ;
#233 = DIRECTION ( 'NONE',  ( -0.0000000000000000000, -0.0000000000000000000, -1.000000000000000000 ) ) ;
#234 = VECTOR ( 'NONE', #233, 39.37007874015748143 ) ;
#235 = UNCERTAINTY_MEASURE_WITH_UNIT (LENGTH_MEASURE( 1.000000000000000082E-05 ), #140, 'distance_accuracy_value', 'NONE');
#236 = VECTOR ( 'NONE', #81, 39.37007874015748143 ) ;
#237 = EDGE_CURVE ( 'NONE', #298, #118, #231, .T. ) ;
#238 = VECTOR ( 'NONE', #291, 39.37007874015748854 ) ;
#239 = ORIENTED_EDGE ( 'NONE', *, *, #50, .F. ) ;
#240 = DIRECTION ( 'NONE',  ( 0.0000000000000000000, 0.0000000000000000000, 1.000000000000000000 ) ) ;
#241 = EDGE_CURVE ( 'NONE', #118, #184, #257, .T. ) ;
#242 = FACE_BOUND ( 'NONE', #263, .T. ) ;
#243 =( LENGTH_UNIT ( ) NAMED_UNIT ( * ) SI_UNIT ( $, .METRE. ) );
#244 = PLANE ( 'NONE',  #85 ) ;
#245 = CONICAL_SURFACE ( 'NONE', #109, 0.007499999999999999722, 0.7853981633974503884 ) ;
#246 = VERTEX_POINT ( 'NONE', #277 ) ;
#247 = DIRECTION ( 'NONE',  ( -0.7071067811865490160, 8.659560562354951347E-17, 0.7071067811865460184 ) ) ;
#248 = ORIENTED_EDGE ( 'NONE', *, *, #139, .T. ) ;
#249 = DIRECTION ( 'NONE',  ( 1.000000000000000000, 0.0000000000000000000, 0.0000000000000000000 ) ) ;
#250 = EDGE_LOOP ( 'NONE', ( #18, #141, #324, #104 ) ) ;
#251 = CARTESIAN_POINT ( 'NONE',  ( 0.0000000000000000000, 0.0000000000000000000, 0.1499304999999994115 ) ) ;
#252 = CONICAL_SURFACE ( 'NONE', #199, 0.1424804999999990940, 0.7853981633974699283 ) ;
#253 = DIRECTION ( 'NONE',  ( -1.000000000000000000, 0.0000000000000000000, 0.0000000000000000000 ) ) ;
#254 = DIRECTION ( 'NONE',  ( 1.000000000000000000, 0.0000000000000000000, 0.0000000000000000000 ) ) ;
#255 = DIRECTION ( 'NONE',  ( -0.0000000000000000000, -0.0000000000000000000, -1.000000000000000000 ) ) ;
#256 = EDGE_CURVE ( 'NONE', #114, #25, #76, .T. ) ;
#257 = CIRCLE ( 'NONE', #133, 0.1574305000000000010 ) ;
#258 = CARTESIAN_POINT ( 'NONE',  ( 0.0000000000000000000, 0.0000000000000000000, 0.8661419999999999675 ) ) ;
#259 = ADVANCED_FACE ( 'NONE', ( #54 ), #202, .T. ) ;
#260 = EDGE_LOOP ( 'NONE', ( #191, #189, #225, #201 ) ) ;
#261 = AXIS2_PLACEMENT_3D ( 'NONE', #117, #143, #44 ) ;
#262 = ORIENTED_EDGE ( 'NONE', *, *, #26, .T. ) ;
#263 = EDGE_LOOP ( 'NONE', ( #15, #48 ) ) ;
#264 = PRODUCT_CONTEXT ( 'NONE', #194, 'mechanical' ) ;
#265 = ORIENTED_EDGE ( 'NONE', *, *, #8, .F. ) ;
#266 = PRODUCT_DEFINITION ( 'UNKNOWN', '', #134, #112 ) ;
#267 = CARTESIAN_POINT ( 'NONE',  ( 0.0000000000000000000, 0.0000000000000000000, 2.465314999999999923 ) ) ;
#268 = ORIENTED_EDGE ( 'NONE', *, *, #192, .F. ) ;
#269 = FACE_OUTER_BOUND ( 'NONE', #89, .T. ) ;
#270 = ORIENTED_EDGE ( 'NONE', *, *, #256, .T. ) ;
#271 = FACE_OUTER_BOUND ( 'NONE', #285, .T. ) ;
#272 = VECTOR ( 'NONE', #152, 39.37007874015748143 ) ;
#273 = EDGE_LOOP ( 'NONE', ( #116, #65, #136, #113 ) ) ;
#274 = DIRECTION ( 'NONE',  ( -0.0000000000000000000, -0.0000000000000000000, -1.000000000000000000 ) ) ;
#275 =( NAMED_UNIT ( * ) PLANE_ANGLE_UNIT ( ) SI_UNIT ( $, .RADIAN. ) );
#276 = CARTESIAN_POINT ( 'NONE',  ( 0.1424804999999990940, 1.744882882659133128E-17, 2.480315000000000047 ) ) ;
#277 = CARTESIAN_POINT ( 'NONE',  ( -0.007499999999999999722, 1.009908044533862758E-17, 1.707404996040164512E-17 ) ) ;
#278 = CIRCLE ( 'NONE', #178, 0.1574305000000000010 ) ;
#279 = EDGE_CURVE ( 'NONE', #11, #326, #52, .T. ) ;
#280 = DIRECTION ( 'NONE',  ( -0.0000000000000000000, -0.0000000000000000000, -1.000000000000000000 ) ) ;
#281 = PRODUCT ( 'Micro_DMM-080-490X', 'Micro_DMM-080-490X', '', ( #264 ) ) ;
#282 = CYLINDRICAL_SURFACE ( 'NONE', #97, 0.1574804999999999955 ) ;
#283 =( NAMED_UNIT ( * ) SI_UNIT ( $, .STERADIAN. ) SOLID_ANGLE_UNIT ( ) );
#284 = AXIS2_PLACEMENT_3D ( 'NONE', #123, #274, #200 ) ;
#285 = EDGE_LOOP ( 'NONE', ( #265, #122, #38, #268 ) ) ;
#286 = ADVANCED_FACE ( 'NONE', ( #3 ), #252, .T. ) ;
#287 = CIRCLE ( 'NONE', #148, 0.1424804999999990940 ) ;
#288 = EDGE_LOOP ( 'NONE', ( #270, #66 ) ) ;
#289 = APPLICATION_PROTOCOL_DEFINITION ( 'draft international standard', 'automotive_design', 1998, #58 ) ;
#290 = ADVANCED_FACE ( 'NONE', ( #131 ), #28, .T. ) ;
#291 = DIRECTION ( 'NONE',  ( -0.7071067811865627828, 0.0000000000000000000, -0.7071067811865321406 ) ) ;
#292 = VERTEX_POINT ( 'NONE', #129 ) ;
#293 = EDGE_LOOP ( 'NONE', ( #183, #248, #142, #21 ) ) ;
#294 = FACE_OUTER_BOUND ( 'NONE', #93, .T. ) ;
#295 = CARTESIAN_POINT ( 'NONE',  ( 0.0000000000000000000, 0.0000000000000000000, 1.707404996040164512E-17 ) ) ;
#296 = DIRECTION ( 'NONE',  ( 0.0000000000000000000, 0.0000000000000000000, 1.000000000000000000 ) ) ;
#297 = STYLED_ITEM ( 'NONE', ( #198 ), #35 ) ;
#298 = VERTEX_POINT ( 'NONE', #106 ) ;
#299 = CARTESIAN_POINT ( 'NONE',  ( 0.0000000000000000000, 0.0000000000000000000, 0.8661419999999999675 ) ) ;
#300 = CARTESIAN_POINT ( 'NONE',  ( 0.1424804999999990940, 1.836731392595189962E-17, 2.480315000000000047 ) ) ;
#301 = DIRECTION ( 'NONE',  ( -0.0000000000000000000, -0.0000000000000000000, -1.000000000000000000 ) ) ;
#302 = FILL_AREA_STYLE ('',( #181 ) ) ;
#303 = ADVANCED_FACE ( 'NONE', ( #306 ), #83, .T. ) ;
#304 = ADVANCED_FACE ( 'NONE', ( #4 ), #282, .T. ) ;
#305 = UNCERTAINTY_MEASURE_WITH_UNIT (LENGTH_MEASURE( 1.000000000000000082E-05 ), #87, 'distance_accuracy_value', 'NONE');
#306 = FACE_OUTER_BOUND ( 'NONE', #273, .T. ) ;
#307 = LENGTH_MEASURE_WITH_UNIT ( LENGTH_MEASURE( 0.02539999999999999897 ), #57 );
#308 = ADVANCED_BREP_SHAPE_REPRESENTATION ( 'Micro_DMM-080-490X', ( #35, #186 ), #37 ) ;
#309 = ORIENTED_EDGE ( 'NONE', *, *, #241, .F. ) ;
#310 = ORIENTED_EDGE ( 'NONE', *, *, #8, .T. ) ;
#311 = AXIS2_PLACEMENT_3D ( 'NONE', #177, #255, #156 ) ;
#312 = ORIENTED_EDGE ( 'NONE', *, *, #319, .T. ) ;
#313 = EDGE_CURVE ( 'NONE', #127, #159, #55, .T. ) ;
#314 = CARTESIAN_POINT ( 'NONE',  ( 0.0000000000000000000, 0.0000000000000000000, 2.465314999999999923 ) ) ;
#315 = DIRECTION ( 'NONE',  ( -1.000000000000000000, 0.0000000000000000000, 0.0000000000000000000 ) ) ;
#316 = CARTESIAN_POINT ( 'NONE',  ( 0.0000000000000000000, 0.0000000000000000000, 1.707404996040164512E-17 ) ) ;
#317 = CLOSED_SHELL ( 'NONE', ( #259, #163, #286, #304, #303, #125, #62, #70, #53, #290, #31 ) ) ;
#318 = MECHANICAL_DESIGN_GEOMETRIC_PRESENTATION_REPRESENTATION (  '', ( #164 ), #115 ) ;
#319 = EDGE_CURVE ( 'NONE', #298, #292, #213, .T. ) ;
#320 = DIRECTION ( 'NONE',  ( -0.0000000000000000000, -0.0000000000000000000, -1.000000000000000000 ) ) ;
#321 = CARTESIAN_POINT ( 'NONE',  ( 0.1574305000000001398, 0.0000000000000000000, 0.8661419999999999675 ) ) ;
#322 = ORIENTED_EDGE ( 'NONE', *, *, #237, .F. ) ;
#323 = DIRECTION ( 'NONE',  ( 0.0000000000000000000, 0.0000000000000000000, 1.000000000000000000 ) ) ;
#324 = ORIENTED_EDGE ( 'NONE', *, *, #170, .F. ) ;
#325 = CARTESIAN_POINT ( 'NONE',  ( 0.007499999999999999722, 0.0000000000000000000, 1.707404996040164512E-17 ) ) ;
#326 = VERTEX_POINT ( 'NONE', #34 ) ;
#327 = CARTESIAN_POINT ( 'NONE',  ( 0.0000000000000000000, 0.0000000000000000000, 2.480315000000000047 ) ) ;
#328 = SURFACE_STYLE_FILL_AREA ( #302 ) ;
#329 = EDGE_CURVE ( 'NONE', #159, #326, #6, .T. ) ;
ENDSEC;
END-ISO-10303-21;
