ISO-10303-21;
HEADER;
FILE_DESCRIPTION (( 'STEP AP214' ),
    '1' );
FILE_NAME ('Micro_SEM-500-03X.STEP',
    '2021-09-02T03:27:17',
    ( '' ),
    ( '' ),
    'SwSTEP 2.0',
    'SolidWorks 2020',
    '' );
FILE_SCHEMA (( 'AUTOMOTIVE_DESIGN' ));
ENDSEC;

DATA;
#1 = VERTEX_POINT ( 'NONE', #105 ) ;
#2 = AXIS2_PLACEMENT_3D ( 'NONE', #92, #232, #133 ) ;
#3 = ORIENTED_EDGE ( 'NONE', *, *, #117, .F. ) ;
#4 = VERTEX_POINT ( 'NONE', #206 ) ;
#5 = EDGE_LOOP ( 'NONE', ( #116, #266 ) ) ;
#6 = CARTESIAN_POINT ( 'NONE',  ( -0.2500000000000000000, 0.0000000000000000000, 2.484999999999999876 ) ) ;
#7 = ADVANCED_FACE ( 'NONE', ( #34 ), #77, .T. ) ;
#8 = CARTESIAN_POINT ( 'NONE',  ( 0.2500000000000000000, 3.061616997868383018E-17, 2.484999999999999876 ) ) ;
#9 = DIRECTION ( 'NONE',  ( -0.0000000000000000000, -0.0000000000000000000, -1.000000000000000000 ) ) ;
#10 = COLOUR_RGB ( '',0.7921568627450980005, 0.8196078431372548767, 0.9333333333333333481 ) ;
#11 = MECHANICAL_DESIGN_GEOMETRIC_PRESENTATION_REPRESENTATION (  '', ( #83 ), #109 ) ;
#12 = DIRECTION ( 'NONE',  ( -1.000000000000000000, 0.0000000000000000000, 1.224646799147353454E-16 ) ) ;
#13 = CARTESIAN_POINT ( 'NONE',  ( 7.671405787489599085E-17, 0.0000000000000000000, 0.6264178204549043505 ) ) ;
#14 =( NAMED_UNIT ( * ) PLANE_ANGLE_UNIT ( ) SI_UNIT ( $, .RADIAN. ) );
#15 = DIRECTION ( 'NONE',  ( -1.224646799147353207E-16, -0.0000000000000000000, -1.000000000000000000 ) ) ;
#16 = EDGE_CURVE ( 'NONE', #26, #65, #126, .T. ) ;
#17 = CARTESIAN_POINT ( 'NONE',  ( 0.2500000000000000555, 3.061616997868383634E-17, 0.6264178204549043505 ) ) ;
#18 = CARTESIAN_POINT ( 'NONE',  ( 0.0000000000000000000, 0.0000000000000000000, 0.0000000000000000000 ) ) ;
#19 = FACE_OUTER_BOUND ( 'NONE', #283, .T. ) ;
#20 = AXIS2_PLACEMENT_3D ( 'NONE', #204, #270, #273 ) ;
#21 = CARTESIAN_POINT ( 'NONE',  ( 0.0000000000000000000, 0.0000000000000000000, 2.500000000000000000 ) ) ;
#22 = VECTOR ( 'NONE', #183, 39.37007874015748143 ) ;
#23 = PRODUCT ( 'Micro_SEM-500-03X', 'Micro_SEM-500-03X', '', ( #43 ) ) ;
#24 = EDGE_LOOP ( 'NONE', ( #72, #95, #299, #124 ) ) ;
#25 = LENGTH_MEASURE_WITH_UNIT ( LENGTH_MEASURE( 0.02539999999999999897 ), #94 );
#26 = VERTEX_POINT ( 'NONE', #74 ) ;
#27 = AXIS2_PLACEMENT_3D ( 'NONE', #90, #188, #189 ) ;
#28 = PRODUCT_DEFINITION_SHAPE ( 'NONE', 'NONE',  #29 ) ;
#29 = PRODUCT_DEFINITION ( 'UNKNOWN', '', #64, #143 ) ;
#30 = VERTEX_POINT ( 'NONE', #250 ) ;
#31 = EDGE_LOOP ( 'NONE', ( #48, #194, #42, #170 ) ) ;
#32 = CARTESIAN_POINT ( 'NONE',  ( -0.2500000000000000000, 0.0000000000000000000, 2.500000000000000000 ) ) ;
#33 = CARTESIAN_POINT ( 'NONE',  ( -0.2497499999999999998, 0.0000000000000000000, 6.117110761741029900E-17 ) ) ;
#34 = FACE_OUTER_BOUND ( 'NONE', #141, .T. ) ;
#35 = CARTESIAN_POINT ( 'NONE',  ( -0.2497499999999999443, 3.058555380870514950E-17, 0.6250000000000000000 ) ) ;
#36 = CIRCLE ( 'NONE', #277, 0.2350000000000003753 ) ;
#37 = SURFACE_SIDE_STYLE ('',( #45 ) ) ;
#38 = DIRECTION ( 'NONE',  ( 0.7071067811865330288, 8.659560562354755364E-17, -0.7071067811865618946 ) ) ;
#39 = LINE ( 'NONE', #235, #22 ) ;
#40 =( LENGTH_UNIT ( ) NAMED_UNIT ( * ) SI_UNIT ( $, .METRE. ) );
#41 =( NAMED_UNIT ( * ) SI_UNIT ( $, .STERADIAN. ) SOLID_ANGLE_UNIT ( ) );
#42 = ORIENTED_EDGE ( 'NONE', *, *, #293, .T. ) ;
#43 = PRODUCT_CONTEXT ( 'NONE', #100, 'mechanical' ) ;
#44 = ORIENTED_EDGE ( 'NONE', *, *, #57, .F. ) ;
#45 = SURFACE_STYLE_FILL_AREA ( #104 ) ;
#46 = EDGE_CURVE ( 'NONE', #264, #30, #219, .T. ) ;
#47 = DIRECTION ( 'NONE',  ( -1.224646799147353207E-16, -0.0000000000000000000, -1.000000000000000000 ) ) ;
#48 = ORIENTED_EDGE ( 'NONE', *, *, #226, .F. ) ;
#49 = DIRECTION ( 'NONE',  ( -1.000000000000000000, 0.0000000000000000000, 0.0000000000000000000 ) ) ;
#50 = EDGE_CURVE ( 'NONE', #65, #69, #156, .T. ) ;
#51 = AXIS2_PLACEMENT_3D ( 'NONE', #18, #88, #139 ) ;
#52 = DIRECTION ( 'NONE',  ( -1.224646799147353207E-16, -0.0000000000000000000, -1.000000000000000000 ) ) ;
#53 = DIRECTION ( 'NONE',  ( 0.0000000000000000000, 0.0000000000000000000, 1.000000000000000000 ) ) ;
#54 = FACE_OUTER_BOUND ( 'NONE', #258, .T. ) ;
#55 = AXIS2_PLACEMENT_3D ( 'NONE', #79, #291, #228 ) ;
#56 = DIRECTION ( 'NONE',  ( 1.224646799147353207E-16, 0.0000000000000000000, 1.000000000000000000 ) ) ;
#57 = EDGE_CURVE ( 'NONE', #30, #264, #223, .T. ) ;
#58 = FACE_OUTER_BOUND ( 'NONE', #5, .T. ) ;
#59 = AXIS2_PLACEMENT_3D ( 'NONE', #114, #138, #214 ) ;
#60 = DIRECTION ( 'NONE',  ( -1.000000000000000000, 0.0000000000000000000, 1.224646799147353454E-16 ) ) ;
#61 =( LENGTH_UNIT ( ) NAMED_UNIT ( * ) SI_UNIT ( $, .METRE. ) );
#62 = SHAPE_DEFINITION_REPRESENTATION ( #28, #81 ) ;
#63 = CARTESIAN_POINT ( 'NONE',  ( -0.2497499999999999998, 0.0000000000000000000, 3.058555380870514950E-17 ) ) ;
#64 = PRODUCT_DEFINITION_FORMATION_WITH_SPECIFIED_SOURCE ( 'ANY', '', #23, .NOT_KNOWN. ) ;
#65 = VERTEX_POINT ( 'NONE', #6 ) ;
#66 = ORIENTED_EDGE ( 'NONE', *, *, #91, .T. ) ;
#67 = ORIENTED_EDGE ( 'NONE', *, *, #161, .T. ) ;
#68 = UNCERTAINTY_MEASURE_WITH_UNIT (LENGTH_MEASURE( 1.000000000000000082E-05 ), #148, 'distance_accuracy_value', 'NONE');
#69 = VERTEX_POINT ( 'NONE', #8 ) ;
#70 = CIRCLE ( 'NONE', #249, 0.2497499999999999998 ) ;
#71 =( NAMED_UNIT ( * ) PLANE_ANGLE_UNIT ( ) SI_UNIT ( $, .RADIAN. ) );
#72 = ORIENTED_EDGE ( 'NONE', *, *, #46, .T. ) ;
#73 = ADVANCED_FACE ( 'NONE', ( #208 ), #243, .T. ) ;
#74 = CARTESIAN_POINT ( 'NONE',  ( -0.2350000000000003753, 0.0000000000000000000, 2.500000000000000000 ) ) ;
#75 = PRESENTATION_STYLE_ASSIGNMENT (( #253 ) ) ;
#76 = FACE_OUTER_BOUND ( 'NONE', #217, .T. ) ;
#77 = CONICAL_SURFACE ( 'NONE', #203, 0.2497499999999999998, 0.1745329251994339192 ) ;
#78 = VECTOR ( 'NONE', #154, 39.37007874015748143 ) ;
#79 = CARTESIAN_POINT ( 'NONE',  ( 7.654042494670957853E-17, 0.0000000000000000000, 0.6250000000000000000 ) ) ;
#80 = DIRECTION ( 'NONE',  ( -1.000000000000000000, 0.0000000000000000000, 1.224646799147353454E-16 ) ) ;
#81 = ADVANCED_BREP_SHAPE_REPRESENTATION ( 'Micro_SEM-500-03X', ( #182, #51 ), #175 ) ;
#82 = DIRECTION ( 'NONE',  ( 1.000000000000000000, 0.0000000000000000000, -0.0000000000000000000 ) ) ;
#83 = STYLED_ITEM ( 'NONE', ( #296 ), #182 ) ;
#84 = CARTESIAN_POINT ( 'NONE',  ( 0.0000000000000000000, 0.0000000000000000000, 2.500000000000000000 ) ) ;
#85 = CARTESIAN_POINT ( 'NONE',  ( 0.2350000000000003753, 2.877919977996284141E-17, 2.500000000000000000 ) ) ;
#86 = SURFACE_SIDE_STYLE ('',( #185 ) ) ;
#87 =( NAMED_UNIT ( * ) SI_UNIT ( $, .STERADIAN. ) SOLID_ANGLE_UNIT ( ) );
#88 = DIRECTION ( 'NONE',  ( 0.0000000000000000000, 0.0000000000000000000, 1.000000000000000000 ) ) ;
#89 = AXIS2_PLACEMENT_3D ( 'NONE', #132, #130, #49 ) ;
#90 = CARTESIAN_POINT ( 'NONE',  ( 0.0000000000000000000, 0.0000000000000000000, 2.500000000000000000 ) ) ;
#91 = EDGE_CURVE ( 'NONE', #1, #118, #102, .T. ) ;
#92 = CARTESIAN_POINT ( 'NONE',  ( 7.671405787489599085E-17, 0.0000000000000000000, 0.6264178204549043505 ) ) ;
#93 = LENGTH_MEASURE_WITH_UNIT ( LENGTH_MEASURE( 0.02539999999999999897 ), #61 );
#94 =( LENGTH_UNIT ( ) NAMED_UNIT ( * ) SI_UNIT ( $, .METRE. ) );
#95 = ORIENTED_EDGE ( 'NONE', *, *, #226, .T. ) ;
#96 = ADVANCED_FACE ( 'NONE', ( #54 ), #155, .T. ) ;
#97 = CIRCLE ( 'NONE', #263, 0.2350000000000003753 ) ;
#98 = ORIENTED_EDGE ( 'NONE', *, *, #247, .T. ) ;
#99 = VERTEX_POINT ( 'NONE', #245 ) ;
#100 = APPLICATION_CONTEXT ( 'automotive_design' ) ;
#101 = ORIENTED_EDGE ( 'NONE', *, *, #152, .F. ) ;
#102 = CIRCLE ( 'NONE', #131, 0.2497499999999999998 ) ;
#103 = ADVANCED_FACE ( 'NONE', ( #292 ), #177, .T. ) ;
#104 = FILL_AREA_STYLE ('',( #119 ) ) ;
#105 = CARTESIAN_POINT ( 'NONE',  ( 0.2497499999999999998, 3.058555380870514950E-17, 0.0000000000000000000 ) ) ;
#106 = CARTESIAN_POINT ( 'NONE',  ( 0.2500000000000000000, 3.061616997868383018E-17, 2.500000000000000000 ) ) ;
#107 = ADVANCED_FACE ( 'NONE', ( #76 ), #267, .F. ) ;
#108 = DIRECTION ( 'NONE',  ( 1.000000000000000000, 0.0000000000000000000, 0.0000000000000000000 ) ) ;
#109 =( GEOMETRIC_REPRESENTATION_CONTEXT ( 3 ) GLOBAL_UNCERTAINTY_ASSIGNED_CONTEXT ( ( #197 ) ) GLOBAL_UNIT_ASSIGNED_CONTEXT ( ( #236, #14, #41 ) ) REPRESENTATION_CONTEXT ( 'NONE', 'WORKASPACE' ) );
#110 = DIRECTION ( 'NONE',  ( -1.000000000000000000, 0.0000000000000000000, 0.0000000000000000000 ) ) ;
#111 = PLANE ( 'NONE',  #169 ) ;
#112 = AXIS2_PLACEMENT_3D ( 'NONE', #224, #173, #110 ) ;
#113 = DIRECTION ( 'NONE',  ( 1.000000000000000000, 0.0000000000000000000, -0.0000000000000000000 ) ) ;
#114 = CARTESIAN_POINT ( 'NONE',  ( 0.0000000000000000000, 0.0000000000000000000, 2.484999999999999876 ) ) ;
#115 = DIRECTION ( 'NONE',  ( 0.0000000000000000000, 0.0000000000000000000, 1.000000000000000000 ) ) ;
#116 = ORIENTED_EDGE ( 'NONE', *, *, #195, .T. ) ;
#117 = EDGE_CURVE ( 'NONE', #222, #4, #215, .T. ) ;
#118 = VERTEX_POINT ( 'NONE', #33 ) ;
#119 = FILL_AREA_STYLE_COLOUR ( '', #238 ) ;
#120 = VECTOR ( 'NONE', #9, 39.37007874015748143 ) ;
#121 = ORIENTED_EDGE ( 'NONE', *, *, #152, .T. ) ;
#122 = ORIENTED_EDGE ( 'NONE', *, *, #50, .F. ) ;
#123 = DIRECTION ( 'NONE',  ( -1.224646799147353207E-16, -0.0000000000000000000, -1.000000000000000000 ) ) ;
#124 = ORIENTED_EDGE ( 'NONE', *, *, #293, .F. ) ;
#125 = DIRECTION ( 'NONE',  ( -1.224646799147353207E-16, -0.0000000000000000000, -1.000000000000000000 ) ) ;
#126 = LINE ( 'NONE', #268, #284 ) ;
#127 = DIMENSIONAL_EXPONENTS ( 1.000000000000000000, 0.0000000000000000000, 0.0000000000000000000, 0.0000000000000000000, 0.0000000000000000000, 0.0000000000000000000, 0.0000000000000000000 ) ;
#128 = EDGE_CURVE ( 'NONE', #69, #222, #179, .T. ) ;
#129 = CARTESIAN_POINT ( 'NONE',  ( 7.654042494670957853E-17, 0.0000000000000000000, 0.6250000000000000000 ) ) ;
#130 = DIRECTION ( 'NONE',  ( -0.0000000000000000000, -0.0000000000000000000, -1.000000000000000000 ) ) ;
#131 = AXIS2_PLACEMENT_3D ( 'NONE', #150, #52, #80 ) ;
#132 = CARTESIAN_POINT ( 'NONE',  ( 0.0000000000000000000, 0.0000000000000000000, 2.500000000000000000 ) ) ;
#133 = DIRECTION ( 'NONE',  ( 1.000000000000000000, 0.0000000000000000000, 0.0000000000000000000 ) ) ;
#134 = ADVANCED_FACE ( 'NONE', ( #174 ), #187, .T. ) ;
#135 = FILL_AREA_STYLE_COLOUR ( '', #10 ) ;
#136 = CIRCLE ( 'NONE', #59, 0.2500000000000000000 ) ;
#137 = CARTESIAN_POINT ( 'NONE',  ( 0.0000000000000000000, 0.0000000000000000000, 2.500000000000000000 ) ) ;
#138 = DIRECTION ( 'NONE',  ( 0.0000000000000000000, 0.0000000000000000000, -1.000000000000000000 ) ) ;
#139 = DIRECTION ( 'NONE',  ( 1.000000000000000000, 0.0000000000000000000, 0.0000000000000000000 ) ) ;
#140 = PRESENTATION_LAYER_ASSIGNMENT (  '', '', ( #272 ) ) ;
#141 = EDGE_LOOP ( 'NONE', ( #171, #44, #218, #241 ) ) ;
#142 = APPLICATION_PROTOCOL_DEFINITION ( 'draft international standard', 'automotive_design', 1998, #205 ) ;
#143 = PRODUCT_DEFINITION_CONTEXT ( 'detailed design', #205, 'design' ) ;
#144 = ORIENTED_EDGE ( 'NONE', *, *, #16, .F. ) ;
#145 = CLOSED_SHELL ( 'NONE', ( #269, #134, #165, #103, #96, #265, #172, #7, #73, #107 ) ) ;
#146 = VECTOR ( 'NONE', #15, 39.37007874015748143 ) ;
#147 = EDGE_LOOP ( 'NONE', ( #200, #262, #166, #101 ) ) ;
#148 =( CONVERSION_BASED_UNIT ( 'INCH', #93 ) LENGTH_UNIT ( ) NAMED_UNIT ( #244 ) );
#149 = ORIENTED_EDGE ( 'NONE', *, *, #184, .F. ) ;
#150 = CARTESIAN_POINT ( 'NONE',  ( 3.745650057197989622E-33, 0.0000000000000000000, 3.058555380870514950E-17 ) ) ;
#151 = CIRCLE ( 'NONE', #2, 0.2500000000000000000 ) ;
#152 = EDGE_CURVE ( 'NONE', #65, #4, #248, .T. ) ;
#153 = CARTESIAN_POINT ( 'NONE',  ( 7.654042494670957853E-17, 0.0000000000000000000, 0.6250000000000000000 ) ) ;
#154 = DIRECTION ( 'NONE',  ( -0.0000000000000000000, -0.0000000000000000000, -1.000000000000000000 ) ) ;
#155 = CYLINDRICAL_SURFACE ( 'NONE', #112, 0.2500000000000000000 ) ;
#156 = CIRCLE ( 'NONE', #20, 0.2500000000000000000 ) ;
#157 = AXIS2_PLACEMENT_3D ( 'NONE', #13, #125, #230 ) ;
#158 = DIRECTION ( 'NONE',  ( 1.000000000000000000, 0.0000000000000000000, 0.0000000000000000000 ) ) ;
#159 = DIRECTION ( 'NONE',  ( 0.0000000000000000000, 0.0000000000000000000, 1.000000000000000000 ) ) ;
#160 = CARTESIAN_POINT ( 'NONE',  ( 0.0000000000000000000, 0.0000000000000000000, 2.500000000000000000 ) ) ;
#161 = EDGE_CURVE ( 'NONE', #264, #4, #290, .T. ) ;
#162 = CYLINDRICAL_SURFACE ( 'NONE', #234, 0.2497499999999999998 ) ;
#163 =( NAMED_UNIT ( * ) SI_UNIT ( $, .STERADIAN. ) SOLID_ANGLE_UNIT ( ) );
#164 = CONICAL_SURFACE ( 'NONE', #285, 0.2350000000000003753, 0.7853981633974278509 ) ;
#165 = ADVANCED_FACE ( 'NONE', ( #19 ), #229, .T. ) ;
#166 = ORIENTED_EDGE ( 'NONE', *, *, #240, .F. ) ;
#167 = ORIENTED_EDGE ( 'NONE', *, *, #295, .T. ) ;
#168 = ORIENTED_EDGE ( 'NONE', *, *, #240, .T. ) ;
#169 = AXIS2_PLACEMENT_3D ( 'NONE', #160, #159, #113 ) ;
#170 = ORIENTED_EDGE ( 'NONE', *, *, #91, .F. ) ;
#171 = ORIENTED_EDGE ( 'NONE', *, *, #161, .F. ) ;
#172 = ADVANCED_FACE ( 'NONE', ( #278 ), #164, .T. ) ;
#173 = DIRECTION ( 'NONE',  ( -0.0000000000000000000, -0.0000000000000000000, -1.000000000000000000 ) ) ;
#174 = FACE_OUTER_BOUND ( 'NONE', #280, .T. ) ;
#175 =( GEOMETRIC_REPRESENTATION_CONTEXT ( 3 ) GLOBAL_UNCERTAINTY_ASSIGNED_CONTEXT ( ( #68 ) ) GLOBAL_UNIT_ASSIGNED_CONTEXT ( ( #148, #281, #163 ) ) REPRESENTATION_CONTEXT ( 'NONE', 'WORKASPACE' ) );
#176 = DIRECTION ( 'NONE',  ( -1.224646799147353207E-16, -0.0000000000000000000, -1.000000000000000000 ) ) ;
#177 = CYLINDRICAL_SURFACE ( 'NONE', #89, 0.2500000000000000000 ) ;
#178 = EDGE_CURVE ( 'NONE', #69, #65, #136, .T. ) ;
#179 = LINE ( 'NONE', #106, #78 ) ;
#180 = MECHANICAL_DESIGN_GEOMETRIC_PRESENTATION_REPRESENTATION (  '', ( #272 ), #211 ) ;
#181 = DIRECTION ( 'NONE',  ( -1.000000000000000000, 0.0000000000000000000, 0.0000000000000000000 ) ) ;
#182 = MANIFOLD_SOLID_BREP ( 'Cut-Revolve1', #145 ) ;
#183 = DIRECTION ( 'NONE',  ( 0.1736481776669314137, 0.0000000000000000000, 0.9848077530122077983 ) ) ;
#184 = EDGE_CURVE ( 'NONE', #30, #222, #39, .T. ) ;
#185 = SURFACE_STYLE_FILL_AREA ( #213 ) ;
#186 = PRESENTATION_LAYER_ASSIGNMENT (  '', '', ( #83 ) ) ;
#187 = CONICAL_SURFACE ( 'NONE', #255, 0.2497499999999999998, 0.1745329251994339192 ) ;
#188 = DIRECTION ( 'NONE',  ( 0.0000000000000000000, 0.0000000000000000000, -1.000000000000000000 ) ) ;
#189 = DIRECTION ( 'NONE',  ( -1.000000000000000000, 0.0000000000000000000, 0.0000000000000000000 ) ) ;
#190 = EDGE_CURVE ( 'NONE', #99, #26, #36, .T. ) ;
#191 = EDGE_LOOP ( 'NONE', ( #242, #221, #198, #286 ) ) ;
#192 = DIRECTION ( 'NONE',  ( -1.000000000000000000, 0.0000000000000000000, 1.224646799147353454E-16 ) ) ;
#193 = ORIENTED_EDGE ( 'NONE', *, *, #178, .T. ) ;
#194 = ORIENTED_EDGE ( 'NONE', *, *, #57, .T. ) ;
#195 = EDGE_CURVE ( 'NONE', #26, #99, #97, .T. ) ;
#196 = CARTESIAN_POINT ( 'NONE',  ( 3.745650057197989622E-33, 0.0000000000000000000, 3.058555380870514950E-17 ) ) ;
#197 = UNCERTAINTY_MEASURE_WITH_UNIT (LENGTH_MEASURE( 1.000000000000000082E-05 ), #236, 'distance_accuracy_value', 'NONE');
#198 = ORIENTED_EDGE ( 'NONE', *, *, #16, .T. ) ;
#199 = VECTOR ( 'NONE', #123, 39.37007874015748143 ) ;
#200 = ORIENTED_EDGE ( 'NONE', *, *, #50, .T. ) ;
#201 = DIRECTION ( 'NONE',  ( -1.000000000000000000, 0.0000000000000000000, 0.0000000000000000000 ) ) ;
#202 = CARTESIAN_POINT ( 'NONE',  ( 7.654042494670957853E-17, 0.0000000000000000000, 0.6250000000000000000 ) ) ;
#203 = AXIS2_PLACEMENT_3D ( 'NONE', #202, #288, #108 ) ;
#204 = CARTESIAN_POINT ( 'NONE',  ( 0.0000000000000000000, 0.0000000000000000000, 2.484999999999999876 ) ) ;
#205 = APPLICATION_CONTEXT ( 'automotive_design' ) ;
#206 = CARTESIAN_POINT ( 'NONE',  ( -0.2499999999999999167, 0.0000000000000000000, 0.6264178204549043505 ) ) ;
#207 =( CONVERSION_BASED_UNIT ( 'INCH', #25 ) LENGTH_UNIT ( ) NAMED_UNIT ( #127 ) );
#208 = FACE_OUTER_BOUND ( 'NONE', #31, .T. ) ;
#209 = DIRECTION ( 'NONE',  ( 0.0000000000000000000, 0.0000000000000000000, -1.000000000000000000 ) ) ;
#210 = AXIS2_PLACEMENT_3D ( 'NONE', #271, #287, #12 ) ;
#211 =( GEOMETRIC_REPRESENTATION_CONTEXT ( 3 ) GLOBAL_UNCERTAINTY_ASSIGNED_CONTEXT ( ( #259 ) ) GLOBAL_UNIT_ASSIGNED_CONTEXT ( ( #207, #71, #87 ) ) REPRESENTATION_CONTEXT ( 'NONE', 'WORKASPACE' ) );
#212 = LENGTH_MEASURE_WITH_UNIT ( LENGTH_MEASURE( 0.02539999999999999897 ), #40 );
#213 = FILL_AREA_STYLE ('',( #135 ) ) ;
#214 = DIRECTION ( 'NONE',  ( 1.000000000000000000, 0.0000000000000000000, 0.0000000000000000000 ) ) ;
#215 = CIRCLE ( 'NONE', #157, 0.2500000000000000000 ) ;
#216 = DIRECTION ( 'NONE',  ( 0.0000000000000000000, 0.0000000000000000000, 1.000000000000000000 ) ) ;
#217 = EDGE_LOOP ( 'NONE', ( #167, #66 ) ) ;
#218 = ORIENTED_EDGE ( 'NONE', *, *, #184, .T. ) ;
#219 = CIRCLE ( 'NONE', #276, 0.2497499999999999998 ) ;
#220 = AXIS2_PLACEMENT_3D ( 'NONE', #231, #53, #82 ) ;
#221 = ORIENTED_EDGE ( 'NONE', *, *, #195, .F. ) ;
#222 = VERTEX_POINT ( 'NONE', #17 ) ;
#223 = CIRCLE ( 'NONE', #55, 0.2497499999999999998 ) ;
#224 = CARTESIAN_POINT ( 'NONE',  ( 0.0000000000000000000, 0.0000000000000000000, 2.500000000000000000 ) ) ;
#225 = DIMENSIONAL_EXPONENTS ( 1.000000000000000000, 0.0000000000000000000, 0.0000000000000000000, 0.0000000000000000000, 0.0000000000000000000, 0.0000000000000000000, 0.0000000000000000000 ) ;
#226 = EDGE_CURVE ( 'NONE', #30, #1, #298, .T. ) ;
#227 = DIRECTION ( 'NONE',  ( -0.7071067811865330288, 0.0000000000000000000, -0.7071067811865618946 ) ) ;
#228 = DIRECTION ( 'NONE',  ( -1.000000000000000000, 0.0000000000000000000, 0.0000000000000000000 ) ) ;
#229 = CONICAL_SURFACE ( 'NONE', #27, 0.2350000000000003753, 0.7853981633974278509 ) ;
#230 = DIRECTION ( 'NONE',  ( 1.000000000000000000, 0.0000000000000000000, 0.0000000000000000000 ) ) ;
#231 = CARTESIAN_POINT ( 'NONE',  ( 0.0000000000000000000, 0.0000000000000000000, 0.0000000000000000000 ) ) ;
#232 = DIRECTION ( 'NONE',  ( -1.224646799147353207E-16, -0.0000000000000000000, -1.000000000000000000 ) ) ;
#233 = CARTESIAN_POINT ( 'NONE',  ( 0.2497499999999999998, 3.058555380870514950E-17, -3.058555380870514950E-17 ) ) ;
#234 = AXIS2_PLACEMENT_3D ( 'NONE', #252, #256, #60 ) ;
#235 = CARTESIAN_POINT ( 'NONE',  ( 0.2497500000000000830, 0.0000000000000000000, 0.6250000000000000000 ) ) ;
#236 =( CONVERSION_BASED_UNIT ( 'INCH', #212 ) LENGTH_UNIT ( ) NAMED_UNIT ( #225 ) );
#237 = PRODUCT_RELATED_PRODUCT_CATEGORY ( 'part', '', ( #23 ) ) ;
#238 = COLOUR_RGB ( '',0.7921568627450980005, 0.8196078431372548767, 0.9333333333333333481 ) ;
#239 = ORIENTED_EDGE ( 'NONE', *, *, #128, .F. ) ;
#240 = EDGE_CURVE ( 'NONE', #4, #222, #151, .T. ) ;
#241 = ORIENTED_EDGE ( 'NONE', *, *, #117, .T. ) ;
#242 = ORIENTED_EDGE ( 'NONE', *, *, #247, .F. ) ;
#243 = CYLINDRICAL_SURFACE ( 'NONE', #210, 0.2497499999999999998 ) ;
#244 = DIMENSIONAL_EXPONENTS ( 1.000000000000000000, 0.0000000000000000000, 0.0000000000000000000, 0.0000000000000000000, 0.0000000000000000000, 0.0000000000000000000, 0.0000000000000000000 ) ;
#245 = CARTESIAN_POINT ( 'NONE',  ( 0.2350000000000003753, 2.969768487932332963E-17, 2.500000000000000000 ) ) ;
#246 = DIRECTION ( 'NONE',  ( 1.000000000000000000, 0.0000000000000000000, 0.0000000000000000000 ) ) ;
#247 = EDGE_CURVE ( 'NONE', #99, #69, #251, .T. ) ;
#248 = LINE ( 'NONE', #32, #120 ) ;
#249 = AXIS2_PLACEMENT_3D ( 'NONE', #196, #47, #192 ) ;
#250 = CARTESIAN_POINT ( 'NONE',  ( 0.2497500000000000830, 0.0000000000000000000, 0.6250000000000000000 ) ) ;
#251 = LINE ( 'NONE', #85, #297 ) ;
#252 = CARTESIAN_POINT ( 'NONE',  ( 0.0000000000000000000, 0.0000000000000000000, 0.0000000000000000000 ) ) ;
#253 = SURFACE_STYLE_USAGE ( .BOTH. , #37 ) ;
#254 = DIRECTION ( 'NONE',  ( -0.1736481776669312194, 2.126576849575783625E-17, 0.9848077530122080203 ) ) ;
#255 = AXIS2_PLACEMENT_3D ( 'NONE', #153, #56, #246 ) ;
#256 = DIRECTION ( 'NONE',  ( -1.224646799147353207E-16, -0.0000000000000000000, -1.000000000000000000 ) ) ;
#257 = APPLICATION_PROTOCOL_DEFINITION ( 'draft international standard', 'automotive_design', 1998, #100 ) ;
#258 = EDGE_LOOP ( 'NONE', ( #239, #193, #121, #3 ) ) ;
#259 = UNCERTAINTY_MEASURE_WITH_UNIT (LENGTH_MEASURE( 1.000000000000000082E-05 ), #207, 'distance_accuracy_value', 'NONE');
#260 = ORIENTED_EDGE ( 'NONE', *, *, #46, .F. ) ;
#261 = LINE ( 'NONE', #63, #199 ) ;
#262 = ORIENTED_EDGE ( 'NONE', *, *, #128, .T. ) ;
#263 = AXIS2_PLACEMENT_3D ( 'NONE', #84, #216, #275 ) ;
#264 = VERTEX_POINT ( 'NONE', #274 ) ;
#265 = ADVANCED_FACE ( 'NONE', ( #58 ), #111, .T. ) ;
#266 = ORIENTED_EDGE ( 'NONE', *, *, #190, .T. ) ;
#267 = PLANE ( 'NONE',  #220 ) ;
#268 = CARTESIAN_POINT ( 'NONE',  ( -0.2350000000000003753, 0.0000000000000000000, 2.500000000000000000 ) ) ;
#269 = ADVANCED_FACE ( 'NONE', ( #294 ), #162, .T. ) ;
#270 = DIRECTION ( 'NONE',  ( 0.0000000000000000000, 0.0000000000000000000, -1.000000000000000000 ) ) ;
#271 = CARTESIAN_POINT ( 'NONE',  ( 0.0000000000000000000, 0.0000000000000000000, 0.0000000000000000000 ) ) ;
#272 = STYLED_ITEM ( 'NONE', ( #75 ), #81 ) ;
#273 = DIRECTION ( 'NONE',  ( 1.000000000000000000, 0.0000000000000000000, 0.0000000000000000000 ) ) ;
#274 = CARTESIAN_POINT ( 'NONE',  ( -0.2497499999999999443, 3.060086189369449292E-17, 0.6250000000000000000 ) ) ;
#275 = DIRECTION ( 'NONE',  ( 1.000000000000000000, 0.0000000000000000000, 0.0000000000000000000 ) ) ;
#276 = AXIS2_PLACEMENT_3D ( 'NONE', #129, #176, #201 ) ;
#277 = AXIS2_PLACEMENT_3D ( 'NONE', #21, #115, #158 ) ;
#278 = FACE_OUTER_BOUND ( 'NONE', #191, .T. ) ;
#279 = SURFACE_STYLE_USAGE ( .BOTH. , #86 ) ;
#280 = EDGE_LOOP ( 'NONE', ( #260, #67, #168, #149 ) ) ;
#281 =( NAMED_UNIT ( * ) PLANE_ANGLE_UNIT ( ) SI_UNIT ( $, .RADIAN. ) );
#282 = ORIENTED_EDGE ( 'NONE', *, *, #190, .F. ) ;
#283 = EDGE_LOOP ( 'NONE', ( #282, #98, #122, #144 ) ) ;
#284 = VECTOR ( 'NONE', #227, 39.37007874015748854 ) ;
#285 = AXIS2_PLACEMENT_3D ( 'NONE', #137, #209, #181 ) ;
#286 = ORIENTED_EDGE ( 'NONE', *, *, #178, .F. ) ;
#287 = DIRECTION ( 'NONE',  ( -1.224646799147353207E-16, -0.0000000000000000000, -1.000000000000000000 ) ) ;
#288 = DIRECTION ( 'NONE',  ( 1.224646799147353207E-16, 0.0000000000000000000, 1.000000000000000000 ) ) ;
#289 = VECTOR ( 'NONE', #254, 39.37007874015747433 ) ;
#290 = LINE ( 'NONE', #35, #289 ) ;
#291 = DIRECTION ( 'NONE',  ( -1.224646799147353207E-16, -0.0000000000000000000, -1.000000000000000000 ) ) ;
#292 = FACE_OUTER_BOUND ( 'NONE', #147, .T. ) ;
#293 = EDGE_CURVE ( 'NONE', #264, #118, #261, .T. ) ;
#294 = FACE_OUTER_BOUND ( 'NONE', #24, .T. ) ;
#295 = EDGE_CURVE ( 'NONE', #118, #1, #70, .T. ) ;
#296 = PRESENTATION_STYLE_ASSIGNMENT (( #279 ) ) ;
#297 = VECTOR ( 'NONE', #38, 39.37007874015748854 ) ;
#298 = LINE ( 'NONE', #233, #146 ) ;
#299 = ORIENTED_EDGE ( 'NONE', *, *, #295, .F. ) ;
ENDSEC;
END-ISO-10303-21;
