ISO-10303-21;
HEADER;
FILE_DESCRIPTION (( 'STEP AP214' ),
    '1' );
FILE_NAME ('01167.STEP',
    '2023-06-22T14:21:52',
    ( '' ),
    ( '' ),
    'SwSTEP 2.0',
    'SolidWorks 2023',
    '' );
FILE_SCHEMA (( 'AUTOMOTIVE_DESIGN' ));
ENDSEC;

DATA;
#1 = VERTEX_POINT ( 'NONE', #6 ) ;
#2 = DIMENSIONAL_EXPONENTS ( 1.000000000000000000, 0.000000000000000000, 0.000000000000000000, 0.000000000000000000, 0.000000000000000000, 0.000000000000000000, 0.000000000000000000 ) ;
#3 = CARTESIAN_POINT ( 'NONE',  ( 0.000000000000000000, 0.000000000000000000, 0.000000000000000000 ) ) ;
#4 = EDGE_LOOP ( 'NONE', ( #195, #92, #27, #265 ) ) ;
#5 = SURFACE_STYLE_USAGE ( .BOTH. , #172 ) ;
#6 = CARTESIAN_POINT ( 'NONE',  ( -0.1250000000000001110, 2.500000000000000000, 0.000000000000000000 ) ) ;
#7 = ADVANCED_FACE ( 'NONE', ( #199 ), #220, .T. ) ;
#8 = ORIENTED_EDGE ( 'NONE', *, *, #157, .T. ) ;
#9 = STYLED_ITEM ( 'NONE', ( #216 ), #149 ) ;
#10 =( LENGTH_UNIT ( ) NAMED_UNIT ( * ) SI_UNIT ( $, .METRE. ) );
#11 = DIRECTION ( 'NONE',  ( -1.000000000000000000, 0.000000000000000000, 0.000000000000000000 ) ) ;
#12 = LENGTH_MEASURE_WITH_UNIT ( LENGTH_MEASURE( 0.02539999999999999897 ), #293 );
#13 = CIRCLE ( 'NONE', #76, 0.1250000000000000555 ) ;
#14 =( GEOMETRIC_REPRESENTATION_CONTEXT ( 3 ) GLOBAL_UNCERTAINTY_ASSIGNED_CONTEXT ( ( #132 ) ) GLOBAL_UNIT_ASSIGNED_CONTEXT ( ( #69, #266, #264 ) ) REPRESENTATION_CONTEXT ( 'NONE', 'WORKASPACE' ) );
#15 = CARTESIAN_POINT ( 'NONE',  ( 0.000000000000000000, 0.000000000000000000, 0.000000000000000000 ) ) ;
#16 = UNCERTAINTY_MEASURE_WITH_UNIT (LENGTH_MEASURE( 1.000000000000000082E-05 ), #62, 'distance_accuracy_value', 'NONE');
#17 = DIRECTION ( 'NONE',  ( -3.265724797726275178E-17, 1.000000000000000000, 0.000000000000000000 ) ) ;
#18 = FACE_OUTER_BOUND ( 'NONE', #46, .T. ) ;
#19 = FILL_AREA_STYLE ('',( #256 ) ) ;
#20 = FACE_OUTER_BOUND ( 'NONE', #261, .T. ) ;
#21 = DIRECTION ( 'NONE',  ( 0.000000000000000000, -0.000000000000000000, 1.000000000000000000 ) ) ;
#22 = CIRCLE ( 'NONE', #205, 0.1250000000000000555 ) ;
#23 = AXIS2_PLACEMENT_3D ( 'NONE', #192, #294, #200 ) ;
#24 = ORIENTED_EDGE ( 'NONE', *, *, #309, .F. ) ;
#25 =( NAMED_UNIT ( * ) SI_UNIT ( $, .STERADIAN. ) SOLID_ANGLE_UNIT ( ) );
#26 = DIMENSIONAL_EXPONENTS ( 1.000000000000000000, 0.000000000000000000, 0.000000000000000000, 0.000000000000000000, 0.000000000000000000, 0.000000000000000000, 0.000000000000000000 ) ;
#27 = ORIENTED_EDGE ( 'NONE', *, *, #74, .T. ) ;
#28 = FACE_OUTER_BOUND ( 'NONE', #287, .T. ) ;
#29 = COLOUR_RGB ( '',1.000000000000000000, 0.000000000000000000, 0.000000000000000000 ) ;
#30 = ORIENTED_EDGE ( 'NONE', *, *, #95, .T. ) ;
#31 = SURFACE_SIDE_STYLE ('',( #146 ) ) ;
#32 = PRESENTATION_STYLE_ASSIGNMENT (( #5 ) ) ;
#33 = EDGE_LOOP ( 'NONE', ( #139, #291, #137, #24 ) ) ;
#34 =( NAMED_UNIT ( * ) SI_UNIT ( $, .STERADIAN. ) SOLID_ANGLE_UNIT ( ) );
#35 = CYLINDRICAL_SURFACE ( 'NONE', #111, 0.1250000000000000278 ) ;
#36 =( GEOMETRIC_REPRESENTATION_CONTEXT ( 3 ) GLOBAL_UNCERTAINTY_ASSIGNED_CONTEXT ( ( #16 ) ) GLOBAL_UNIT_ASSIGNED_CONTEXT ( ( #62, #37, #71 ) ) REPRESENTATION_CONTEXT ( 'NONE', 'WORKASPACE' ) );
#37 =( NAMED_UNIT ( * ) PLANE_ANGLE_UNIT ( ) SI_UNIT ( $, .RADIAN. ) );
#38 = VECTOR ( 'NONE', #272, 39.37007874015748143 ) ;
#39 = DIRECTION ( 'NONE',  ( -3.265724797726275178E-17, 1.000000000000000000, -0.000000000000000000 ) ) ;
#40 = FILL_AREA_STYLE ('',( #234 ) ) ;
#41 = CARTESIAN_POINT ( 'NONE',  ( -6.123233995736766036E-17, 2.500000000000000000, 0.000000000000000000 ) ) ;
#42 =( CONVERSION_BASED_UNIT ( 'INCH', #237 ) LENGTH_UNIT ( ) NAMED_UNIT ( #263 ) );
#43 = MECHANICAL_DESIGN_GEOMETRIC_PRESENTATION_REPRESENTATION (  '', ( #226 ), #14 ) ;
#44 = LINE ( 'NONE', #81, #259 ) ;
#45 = PRESENTATION_LAYER_ASSIGNMENT (  '', '', ( #275 ) ) ;
#46 = EDGE_LOOP ( 'NONE', ( #289, #143 ) ) ;
#47 =( NAMED_UNIT ( * ) SI_UNIT ( $, .STERADIAN. ) SOLID_ANGLE_UNIT ( ) );
#48 = MANIFOLD_SOLID_BREP ( 'Revolve - Cutting Edge', #274 ) ;
#49 = AXIS2_PLACEMENT_3D ( 'NONE', #3, #65, #223 ) ;
#50 = UNCERTAINTY_MEASURE_WITH_UNIT (LENGTH_MEASURE( 1.000000000000000082E-05 ), #249, 'distance_accuracy_value', 'NONE');
#51 = DIMENSIONAL_EXPONENTS ( 1.000000000000000000, 0.000000000000000000, 0.000000000000000000, 0.000000000000000000, 0.000000000000000000, 0.000000000000000000, 0.000000000000000000 ) ;
#52 = ADVANCED_FACE ( 'NONE', ( #206 ), #105, .F. ) ;
#53 = AXIS2_PLACEMENT_3D ( 'NONE', #144, #54, #128 ) ;
#54 = DIRECTION ( 'NONE',  ( -0.000000000000000000, -1.000000000000000000, -0.000000000000000000 ) ) ;
#55 = AXIS2_PLACEMENT_3D ( 'NONE', #255, #114, #57 ) ;
#56 = SURFACE_STYLE_FILL_AREA ( #40 ) ;
#57 = DIRECTION ( 'NONE',  ( 1.000000000000000000, 3.265724797726275178E-17, 0.000000000000000000 ) ) ;
#58 = PRESENTATION_LAYER_ASSIGNMENT (  '', '', ( #91 ) ) ;
#59 = CIRCLE ( 'NONE', #53, 0.1250000000000000278 ) ;
#60 = DIRECTION ( 'NONE',  ( -0.000000000000000000, -1.000000000000000000, -0.000000000000000000 ) ) ;
#61 = DIRECTION ( 'NONE',  ( -3.265724797726275178E-17, 1.000000000000000000, -0.000000000000000000 ) ) ;
#62 =( CONVERSION_BASED_UNIT ( 'INCH', #63 ) LENGTH_UNIT ( ) NAMED_UNIT ( #292 ) );
#63 = LENGTH_MEASURE_WITH_UNIT ( LENGTH_MEASURE( 0.02539999999999999897 ), #187 );
#64 = VERTEX_POINT ( 'NONE', #138 ) ;
#65 = DIRECTION ( 'NONE',  ( -0.000000000000000000, -1.000000000000000000, -0.000000000000000000 ) ) ;
#66 = DIRECTION ( 'NONE',  ( -3.265724797726275178E-17, 1.000000000000000000, -0.000000000000000000 ) ) ;
#67 = DIRECTION ( 'NONE',  ( 1.000000000000000000, 0.000000000000000000, 0.000000000000000000 ) ) ;
#68 = UNCERTAINTY_MEASURE_WITH_UNIT (LENGTH_MEASURE( 1.000000000000000082E-05 ), #189, 'distance_accuracy_value', 'NONE');
#69 =( CONVERSION_BASED_UNIT ( 'INCH', #225 ) LENGTH_UNIT ( ) NAMED_UNIT ( #2 ) );
#70 = ORIENTED_EDGE ( 'NONE', *, *, #202, .T. ) ;
#71 =( NAMED_UNIT ( * ) SI_UNIT ( $, .STERADIAN. ) SOLID_ANGLE_UNIT ( ) );
#72 = AXIS2_PLACEMENT_3D ( 'NONE', #276, #60, #160 ) ;
#73 = SURFACE_STYLE_FILL_AREA ( #122 ) ;
#74 = EDGE_CURVE ( 'NONE', #194, #222, #281, .T. ) ;
#75 = LINE ( 'NONE', #177, #38 ) ;
#76 = AXIS2_PLACEMENT_3D ( 'NONE', #41, #39, #303 ) ;
#77 = COLOUR_RGB ( '',1.000000000000000000, 0.000000000000000000, 0.000000000000000000 ) ;
#78 = VECTOR ( 'NONE', #85, 39.37007874015748143 ) ;
#79 = CIRCLE ( 'NONE', #227, 0.1250000000000000000 ) ;
#80 = PRESENTATION_STYLE_ASSIGNMENT (( #284 ) ) ;
#81 = CARTESIAN_POINT ( 'NONE',  ( -0.1250000000000001110, 2.500000000000000000, 0.000000000000000000 ) ) ;
#82 =( NAMED_UNIT ( * ) PLANE_ANGLE_UNIT ( ) SI_UNIT ( $, .RADIAN. ) );
#83 = PRESENTATION_LAYER_ASSIGNMENT (  '', '', ( #226 ) ) ;
#84 = AXIS2_PLACEMENT_3D ( 'NONE', #148, #308, #67 ) ;
#85 = DIRECTION ( 'NONE',  ( -0.000000000000000000, -1.000000000000000000, -0.000000000000000000 ) ) ;
#86 = UNCERTAINTY_MEASURE_WITH_UNIT (LENGTH_MEASURE( 1.000000000000000082E-05 ), #229, 'distance_accuracy_value', 'NONE');
#87 = SURFACE_SIDE_STYLE ('',( #56 ) ) ;
#88 = ORIENTED_EDGE ( 'NONE', *, *, #130, .T. ) ;
#89 = DIRECTION ( 'NONE',  ( 0.000000000000000000, 0.000000000000000000, -1.000000000000000000 ) ) ;
#90 = DIRECTION ( 'NONE',  ( -3.265724797726275178E-17, 1.000000000000000000, -0.000000000000000000 ) ) ;
#91 = STYLED_ITEM ( 'NONE', ( #133 ), #48 ) ;
#92 = ORIENTED_EDGE ( 'NONE', *, *, #243, .T. ) ;
#93 =( NAMED_UNIT ( * ) PLANE_ANGLE_UNIT ( ) SI_UNIT ( $, .RADIAN. ) );
#94 = FILL_AREA_STYLE_COLOUR ( '', #178 ) ;
#95 = EDGE_CURVE ( 'NONE', #219, #64, #286, .T. ) ;
#96 = ORIENTED_EDGE ( 'NONE', *, *, #198, .T. ) ;
#97 = PRODUCT_DEFINITION_CONTEXT ( 'detailed design', #170, 'design' ) ;
#98 = FILL_AREA_STYLE ('',( #241 ) ) ;
#99 = SURFACE_STYLE_USAGE ( .BOTH. , #31 ) ;
#100 =( GEOMETRIC_REPRESENTATION_CONTEXT ( 3 ) GLOBAL_UNCERTAINTY_ASSIGNED_CONTEXT ( ( #50 ) ) GLOBAL_UNIT_ASSIGNED_CONTEXT ( ( #249, #201, #297 ) ) REPRESENTATION_CONTEXT ( 'NONE', 'WORKASPACE' ) );
#101 = CARTESIAN_POINT ( 'NONE',  ( 1.530808498934191817E-17, 0.6250000000000000000, 0.1250000000000000278 ) ) ;
#102 = ADVANCED_FACE ( 'NONE', ( #262 ), #135, .T. ) ;
#103 = PRESENTATION_LAYER_ASSIGNMENT (  '', '', ( #145 ) ) ;
#104 = CIRCLE ( 'NONE', #72, 0.1250000000000000278 ) ;
#105 = PLANE ( 'NONE',  #159 ) ;
#106 = EDGE_CURVE ( 'NONE', #64, #219, #129, .T. ) ;
#107 = DIRECTION ( 'NONE',  ( -1.000000000000000000, -3.265724797726275178E-17, 0.000000000000000000 ) ) ;
#108 = FILL_AREA_STYLE ('',( #215 ) ) ;
#109 = CARTESIAN_POINT ( 'NONE',  ( 0.1250000000000000000, 2.500000000000000000, 1.530808498934192125E-17 ) ) ;
#110 = CARTESIAN_POINT ( 'NONE',  ( 0.000000000000000000, 0.000000000000000000, 0.000000000000000000 ) ) ;
#111 = AXIS2_PLACEMENT_3D ( 'NONE', #296, #127, #11 ) ;
#112 = DIRECTION ( 'NONE',  ( -3.265724797726275178E-17, 1.000000000000000000, -0.000000000000000000 ) ) ;
#113 = ADVANCED_FACE ( 'NONE', ( #162 ), #304, .T. ) ;
#114 = DIRECTION ( 'NONE',  ( 3.265724797726275178E-17, -1.000000000000000000, 0.000000000000000000 ) ) ;
#115 = ORIENTED_EDGE ( 'NONE', *, *, #106, .F. ) ;
#116 = ORIENTED_EDGE ( 'NONE', *, *, #190, .T. ) ;
#117 = PRODUCT_CONTEXT ( 'NONE', #155, 'mechanical' ) ;
#118 = EDGE_LOOP ( 'NONE', ( #96, #70 ) ) ;
#119 = MECHANICAL_DESIGN_GEOMETRIC_PRESENTATION_REPRESENTATION (  '', ( #91 ), #224 ) ;
#120 = PRESENTATION_LAYER_ASSIGNMENT (  '', '', ( #9 ) ) ;
#121 = ORIENTED_EDGE ( 'NONE', *, *, #130, .F. ) ;
#122 = FILL_AREA_STYLE ('',( #150 ) ) ;
#123 = ORIENTED_EDGE ( 'NONE', *, *, #309, .T. ) ;
#124 = DIMENSIONAL_EXPONENTS ( 1.000000000000000000, 0.000000000000000000, 0.000000000000000000, 0.000000000000000000, 0.000000000000000000, 0.000000000000000000, 0.000000000000000000 ) ;
#125 = AXIS2_PLACEMENT_3D ( 'NONE', #302, #299, #208 ) ;
#126 = MECHANICAL_DESIGN_GEOMETRIC_PRESENTATION_REPRESENTATION (  '', ( #280 ), #173 ) ;
#127 = DIRECTION ( 'NONE',  ( -3.265724797726275178E-17, 1.000000000000000000, -0.000000000000000000 ) ) ;
#128 = DIRECTION ( 'NONE',  ( 0.000000000000000000, 0.000000000000000000, -1.000000000000000000 ) ) ;
#129 = CIRCLE ( 'NONE', #235, 0.1250000000000000278 ) ;
#130 = EDGE_CURVE ( 'NONE', #1, #240, #22, .T. ) ;
#131 = LENGTH_MEASURE_WITH_UNIT ( LENGTH_MEASURE( 0.02539999999999999897 ), #282 );
#132 = UNCERTAINTY_MEASURE_WITH_UNIT (LENGTH_MEASURE( 1.000000000000000082E-05 ), #69, 'distance_accuracy_value', 'NONE');
#133 = PRESENTATION_STYLE_ASSIGNMENT (( #99 ) ) ;
#134 = DIRECTION ( 'NONE',  ( -0.000000000000000000, -1.000000000000000000, -0.000000000000000000 ) ) ;
#135 = PLANE ( 'NONE',  #298 ) ;
#136 = CARTESIAN_POINT ( 'NONE',  ( 0.000000000000000000, 0.6250000000000000000, 0.000000000000000000 ) ) ;
#137 = ORIENTED_EDGE ( 'NONE', *, *, #242, .T. ) ;
#138 = CARTESIAN_POINT ( 'NONE',  ( 0.1250000000000000278, 0.6250000000000000000, 1.530808498934192125E-17 ) ) ;
#139 = ORIENTED_EDGE ( 'NONE', *, *, #167, .F. ) ;
#140 = SURFACE_SIDE_STYLE ('',( #244 ) ) ;
#141 = PRODUCT_DEFINITION_SHAPE ( 'NONE', 'NONE',  #180 ) ;
#142 = DIMENSIONAL_EXPONENTS ( 1.000000000000000000, 0.000000000000000000, 0.000000000000000000, 0.000000000000000000, 0.000000000000000000, 0.000000000000000000, 0.000000000000000000 ) ;
#143 = ORIENTED_EDGE ( 'NONE', *, *, #243, .F. ) ;
#144 = CARTESIAN_POINT ( 'NONE',  ( 0.000000000000000000, 0.6250000000000000000, 0.000000000000000000 ) ) ;
#145 = STYLED_ITEM ( 'NONE', ( #80 ), #102 ) ;
#146 = SURFACE_STYLE_FILL_AREA ( #168 ) ;
#147 = LENGTH_MEASURE_WITH_UNIT ( LENGTH_MEASURE( 0.02539999999999999897 ), #245 );
#148 = CARTESIAN_POINT ( 'NONE',  ( 0.000000000000000000, 0.000000000000000000, 0.000000000000000000 ) ) ;
#149 = ADVANCED_FACE ( 'NONE', ( #28 ), #175, .T. ) ;
#150 = FILL_AREA_STYLE_COLOUR ( '', #29 ) ;
#151 = APPLICATION_PROTOCOL_DEFINITION ( 'draft international standard', 'automotive_design', 1998, #170 ) ;
#152 = VECTOR ( 'NONE', #277, 39.37007874015748143 ) ;
#153 = MECHANICAL_DESIGN_GEOMETRIC_PRESENTATION_REPRESENTATION (  '', ( #9 ), #191 ) ;
#154 = LINE ( 'NONE', #278, #78 ) ;
#155 = APPLICATION_CONTEXT ( 'automotive_design' ) ;
#156 = MANIFOLD_SOLID_BREP ( 'Revolve - Tool Body (Straight Shanked)', #211 ) ;
#157 = EDGE_CURVE ( 'NONE', #194, #163, #59, .T. ) ;
#158 =( LENGTH_UNIT ( ) NAMED_UNIT ( * ) SI_UNIT ( $, .METRE. ) );
#159 = AXIS2_PLACEMENT_3D ( 'NONE', #212, #17, #107 ) ;
#160 = DIRECTION ( 'NONE',  ( 0.000000000000000000, 0.000000000000000000, -1.000000000000000000 ) ) ;
#161 = ADVANCED_FACE ( 'NONE', ( #247 ), #35, .T. ) ;
#162 = FACE_OUTER_BOUND ( 'NONE', #4, .T. ) ;
#163 = VERTEX_POINT ( 'NONE', #101 ) ;
#164 = PRESENTATION_STYLE_ASSIGNMENT (( #300 ) ) ;
#165 = EDGE_LOOP ( 'NONE', ( #271, #115 ) ) ;
#166 = PRODUCT_DEFINITION_FORMATION_WITH_SPECIFIED_SOURCE ( 'ANY', '', #174, .NOT_KNOWN. ) ;
#167 = EDGE_CURVE ( 'NONE', #64, #240, #75, .T. ) ;
#168 = FILL_AREA_STYLE ('',( #94 ) ) ;
#169 = APPLICATION_PROTOCOL_DEFINITION ( 'draft international standard', 'automotive_design', 1998, #155 ) ;
#170 = APPLICATION_CONTEXT ( 'automotive_design' ) ;
#171 = SURFACE_STYLE_USAGE ( .BOTH. , #140 ) ;
#172 = SURFACE_SIDE_STYLE ('',( #290 ) ) ;
#173 =( GEOMETRIC_REPRESENTATION_CONTEXT ( 3 ) GLOBAL_UNCERTAINTY_ASSIGNED_CONTEXT ( ( #68 ) ) GLOBAL_UNIT_ASSIGNED_CONTEXT ( ( #189, #230, #25 ) ) REPRESENTATION_CONTEXT ( 'NONE', 'WORKASPACE' ) );
#174 = PRODUCT ( '01167', '01167', '', ( #117 ) ) ;
#175 = CYLINDRICAL_SURFACE ( 'NONE', #49, 0.1250000000000000000 ) ;
#176 = SURFACE_SIDE_STYLE ('',( #73 ) ) ;
#177 = CARTESIAN_POINT ( 'NONE',  ( 0.1249999999999999584, 2.500000000000000000, 1.530808498934191817E-17 ) ) ;
#178 = COLOUR_RGB ( '',0.7921568627450980005, 0.8196078431372548767, 0.9333333333333333481 ) ;
#179 =( GEOMETRIC_REPRESENTATION_CONTEXT ( 3 ) GLOBAL_UNCERTAINTY_ASSIGNED_CONTEXT ( ( #86 ) ) GLOBAL_UNIT_ASSIGNED_CONTEXT ( ( #229, #82, #185 ) ) REPRESENTATION_CONTEXT ( 'NONE', 'WORKASPACE' ) );
#180 = PRODUCT_DEFINITION ( 'UNKNOWN', '', #166, #97 ) ;
#181 =( NAMED_UNIT ( * ) PLANE_ANGLE_UNIT ( ) SI_UNIT ( $, .RADIAN. ) );
#182 = DIRECTION ( 'NONE',  ( 0.000000000000000000, -1.000000000000000000, -0.000000000000000000 ) ) ;
#183 = CARTESIAN_POINT ( 'NONE',  ( 1.530808498934191509E-17, 0.000000000000000000, 0.1250000000000000000 ) ) ;
#184 = AXIS2_PLACEMENT_3D ( 'NONE', #136, #209, #21 ) ;
#185 =( NAMED_UNIT ( * ) SI_UNIT ( $, .STERADIAN. ) SOLID_ANGLE_UNIT ( ) );
#186 = CARTESIAN_POINT ( 'NONE',  ( -0.1250000000000000278, 0.6250000000000000000, 0.000000000000000000 ) ) ;
#187 =( LENGTH_UNIT ( ) NAMED_UNIT ( * ) SI_UNIT ( $, .METRE. ) );
#188 = CARTESIAN_POINT ( 'NONE',  ( 0.000000000000000000, 0.000000000000000000, -0.1250000000000000000 ) ) ;
#189 =( CONVERSION_BASED_UNIT ( 'INCH', #131 ) LENGTH_UNIT ( ) NAMED_UNIT ( #26 ) );
#190 = EDGE_CURVE ( 'NONE', #163, #306, #154, .T. ) ;
#191 =( GEOMETRIC_REPRESENTATION_CONTEXT ( 3 ) GLOBAL_UNCERTAINTY_ASSIGNED_CONTEXT ( ( #203 ) ) GLOBAL_UNIT_ASSIGNED_CONTEXT ( ( #288, #93, #34 ) ) REPRESENTATION_CONTEXT ( 'NONE', 'WORKASPACE' ) );
#192 = CARTESIAN_POINT ( 'NONE',  ( 0.000000000000000000, 0.000000000000000000, 0.000000000000000000 ) ) ;
#193 = CARTESIAN_POINT ( 'NONE',  ( -6.123233995736766036E-17, 2.500000000000000000, 0.000000000000000000 ) ) ;
#194 = VERTEX_POINT ( 'NONE', #232 ) ;
#195 = ORIENTED_EDGE ( 'NONE', *, *, #190, .F. ) ;
#196 = EDGE_LOOP ( 'NONE', ( #30, #285, #121, #295 ) ) ;
#197 = SHAPE_DEFINITION_REPRESENTATION ( #141, #250 ) ;
#198 = EDGE_CURVE ( 'NONE', #222, #306, #260, .T. ) ;
#199 = FACE_OUTER_BOUND ( 'NONE', #33, .T. ) ;
#200 = DIRECTION ( 'NONE',  ( 0.000000000000000000, 0.000000000000000000, -1.000000000000000000 ) ) ;
#201 =( NAMED_UNIT ( * ) PLANE_ANGLE_UNIT ( ) SI_UNIT ( $, .RADIAN. ) );
#202 = EDGE_CURVE ( 'NONE', #306, #222, #79, .T. ) ;
#203 = UNCERTAINTY_MEASURE_WITH_UNIT (LENGTH_MEASURE( 1.000000000000000082E-05 ), #288, 'distance_accuracy_value', 'NONE');
#204 = COLOUR_RGB ( '',1.000000000000000000, 0.000000000000000000, 0.000000000000000000 ) ;
#205 = AXIS2_PLACEMENT_3D ( 'NONE', #218, #90, #268 ) ;
#206 = FACE_OUTER_BOUND ( 'NONE', #165, .T. ) ;
#207 = PLANE ( 'NONE',  #184 ) ;
#208 = DIRECTION ( 'NONE',  ( -1.000000000000000000, 0.000000000000000000, 0.000000000000000000 ) ) ;
#209 = DIRECTION ( 'NONE',  ( 0.000000000000000000, 1.000000000000000000, 0.000000000000000000 ) ) ;
#210 = PLANE ( 'NONE',  #55 ) ;
#211 = CLOSED_SHELL ( 'NONE', ( #161, #52, #7, #246 ) ) ;
#212 = CARTESIAN_POINT ( 'NONE',  ( 6.665599034052701263E-35, 0.6250000000000000000, 0.000000000000000000 ) ) ;
#213 = SURFACE_STYLE_FILL_AREA ( #108 ) ;
#214 = ORIENTED_EDGE ( 'NONE', *, *, #74, .F. ) ;
#215 = FILL_AREA_STYLE_COLOUR ( '', #273 ) ;
#216 = PRESENTATION_STYLE_ASSIGNMENT (( #269 ) ) ;
#217 = PRESENTATION_LAYER_ASSIGNMENT (  '', '', ( #280 ) ) ;
#218 = CARTESIAN_POINT ( 'NONE',  ( -6.123233995736766036E-17, 2.500000000000000000, 0.000000000000000000 ) ) ;
#219 = VERTEX_POINT ( 'NONE', #186 ) ;
#220 = CYLINDRICAL_SURFACE ( 'NONE', #228, 0.1250000000000000278 ) ;
#221 = PRODUCT_RELATED_PRODUCT_CATEGORY ( 'part', '', ( #174 ) ) ;
#222 = VERTEX_POINT ( 'NONE', #258 ) ;
#223 = DIRECTION ( 'NONE',  ( 0.000000000000000000, 0.000000000000000000, -1.000000000000000000 ) ) ;
#224 =( GEOMETRIC_REPRESENTATION_CONTEXT ( 3 ) GLOBAL_UNCERTAINTY_ASSIGNED_CONTEXT ( ( #253 ) ) GLOBAL_UNIT_ASSIGNED_CONTEXT ( ( #42, #181, #47 ) ) REPRESENTATION_CONTEXT ( 'NONE', 'WORKASPACE' ) );
#225 = LENGTH_MEASURE_WITH_UNIT ( LENGTH_MEASURE( 0.02539999999999999897 ), #10 );
#226 = STYLED_ITEM ( 'NONE', ( #239 ), #113 ) ;
#227 = AXIS2_PLACEMENT_3D ( 'NONE', #15, #252, #89 ) ;
#228 = AXIS2_PLACEMENT_3D ( 'NONE', #193, #66, #257 ) ;
#229 =( CONVERSION_BASED_UNIT ( 'INCH', #283 ) LENGTH_UNIT ( ) NAMED_UNIT ( #142 ) );
#230 =( NAMED_UNIT ( * ) PLANE_ANGLE_UNIT ( ) SI_UNIT ( $, .RADIAN. ) );
#231 = CARTESIAN_POINT ( 'NONE',  ( 0.000000000000000000, 0.6250000000000000000, 0.000000000000000000 ) ) ;
#232 = CARTESIAN_POINT ( 'NONE',  ( 0.000000000000000000, 0.6250000000000000000, -0.1250000000000000278 ) ) ;
#233 = DIRECTION ( 'NONE',  ( 0.000000000000000000, 0.000000000000000000, -1.000000000000000000 ) ) ;
#234 = FILL_AREA_STYLE_COLOUR ( '', #77 ) ;
#235 = AXIS2_PLACEMENT_3D ( 'NONE', #231, #61, #251 ) ;
#236 = MECHANICAL_DESIGN_GEOMETRIC_PRESENTATION_REPRESENTATION (  '', ( #275 ), #100 ) ;
#237 = LENGTH_MEASURE_WITH_UNIT ( LENGTH_MEASURE( 0.02539999999999999897 ), #301 );
#238 = SURFACE_SIDE_STYLE ('',( #213 ) ) ;
#239 = PRESENTATION_STYLE_ASSIGNMENT (( #171 ) ) ;
#240 = VERTEX_POINT ( 'NONE', #109 ) ;
#241 = FILL_AREA_STYLE_COLOUR ( '', #267 ) ;
#242 = EDGE_CURVE ( 'NONE', #219, #1, #44, .T. ) ;
#243 = EDGE_CURVE ( 'NONE', #163, #194, #104, .T. ) ;
#244 = SURFACE_STYLE_FILL_AREA ( #19 ) ;
#245 =( LENGTH_UNIT ( ) NAMED_UNIT ( * ) SI_UNIT ( $, .METRE. ) );
#246 = ADVANCED_FACE ( 'NONE', ( #20 ), #210, .F. ) ;
#247 = FACE_OUTER_BOUND ( 'NONE', #196, .T. ) ;
#248 = AXIS2_PLACEMENT_3D ( 'NONE', #305, #134, #233 ) ;
#249 =( CONVERSION_BASED_UNIT ( 'INCH', #12 ) LENGTH_UNIT ( ) NAMED_UNIT ( #51 ) );
#250 = ADVANCED_BREP_SHAPE_REPRESENTATION ( '01167', ( #48, #156, #84 ), #36 ) ;
#251 = DIRECTION ( 'NONE',  ( -1.000000000000000000, 0.000000000000000000, 0.000000000000000000 ) ) ;
#252 = DIRECTION ( 'NONE',  ( -0.000000000000000000, -1.000000000000000000, -0.000000000000000000 ) ) ;
#253 = UNCERTAINTY_MEASURE_WITH_UNIT (LENGTH_MEASURE( 1.000000000000000082E-05 ), #42, 'distance_accuracy_value', 'NONE');
#254 = DIRECTION ( 'NONE',  ( 0.000000000000000000, 0.000000000000000000, -1.000000000000000000 ) ) ;
#255 = CARTESIAN_POINT ( 'NONE',  ( 0.1249999999999999861, 2.500000000000000000, 0.000000000000000000 ) ) ;
#256 = FILL_AREA_STYLE_COLOUR ( '', #204 ) ;
#257 = DIRECTION ( 'NONE',  ( -1.000000000000000000, 0.000000000000000000, 0.000000000000000000 ) ) ;
#258 = CARTESIAN_POINT ( 'NONE',  ( 0.000000000000000000, 0.000000000000000000, -0.1250000000000000000 ) ) ;
#259 = VECTOR ( 'NONE', #112, 39.37007874015748143 ) ;
#260 = CIRCLE ( 'NONE', #248, 0.1250000000000000000 ) ;
#261 = EDGE_LOOP ( 'NONE', ( #88, #123 ) ) ;
#262 = FACE_OUTER_BOUND ( 'NONE', #118, .T. ) ;
#263 = DIMENSIONAL_EXPONENTS ( 1.000000000000000000, 0.000000000000000000, 0.000000000000000000, 0.000000000000000000, 0.000000000000000000, 0.000000000000000000, 0.000000000000000000 ) ;
#264 =( NAMED_UNIT ( * ) SI_UNIT ( $, .STERADIAN. ) SOLID_ANGLE_UNIT ( ) );
#265 = ORIENTED_EDGE ( 'NONE', *, *, #202, .F. ) ;
#266 =( NAMED_UNIT ( * ) PLANE_ANGLE_UNIT ( ) SI_UNIT ( $, .RADIAN. ) );
#267 = COLOUR_RGB ( '',0.7921568627450980005, 0.8196078431372548767, 0.9333333333333333481 ) ;
#268 = DIRECTION ( 'NONE',  ( -1.000000000000000000, 0.000000000000000000, 0.000000000000000000 ) ) ;
#269 = SURFACE_STYLE_USAGE ( .BOTH. , #176 ) ;
#270 = ADVANCED_FACE ( 'NONE', ( #18 ), #207, .T. ) ;
#271 = ORIENTED_EDGE ( 'NONE', *, *, #95, .F. ) ;
#272 = DIRECTION ( 'NONE',  ( -3.265724797726275178E-17, 1.000000000000000000, -0.000000000000000000 ) ) ;
#273 = COLOUR_RGB ( '',1.000000000000000000, 0.000000000000000000, 0.000000000000000000 ) ;
#274 = CLOSED_SHELL ( 'NONE', ( #149, #270, #113, #102 ) ) ;
#275 = STYLED_ITEM ( 'NONE', ( #32 ), #156 ) ;
#276 = CARTESIAN_POINT ( 'NONE',  ( 0.000000000000000000, 0.6250000000000000000, 0.000000000000000000 ) ) ;
#277 = DIRECTION ( 'NONE',  ( -0.000000000000000000, -1.000000000000000000, -0.000000000000000000 ) ) ;
#278 = CARTESIAN_POINT ( 'NONE',  ( 1.530808498934191509E-17, 0.000000000000000000, 0.1250000000000000000 ) ) ;
#279 = MECHANICAL_DESIGN_GEOMETRIC_PRESENTATION_REPRESENTATION (  '', ( #145 ), #179 ) ;
#280 = STYLED_ITEM ( 'NONE', ( #164 ), #270 ) ;
#281 = LINE ( 'NONE', #188, #152 ) ;
#282 =( LENGTH_UNIT ( ) NAMED_UNIT ( * ) SI_UNIT ( $, .METRE. ) );
#283 = LENGTH_MEASURE_WITH_UNIT ( LENGTH_MEASURE( 0.02539999999999999897 ), #158 );
#284 = SURFACE_STYLE_USAGE ( .BOTH. , #87 ) ;
#285 = ORIENTED_EDGE ( 'NONE', *, *, #167, .T. ) ;
#286 = CIRCLE ( 'NONE', #125, 0.1250000000000000278 ) ;
#287 = EDGE_LOOP ( 'NONE', ( #8, #116, #307, #214 ) ) ;
#288 =( CONVERSION_BASED_UNIT ( 'INCH', #147 ) LENGTH_UNIT ( ) NAMED_UNIT ( #124 ) );
#289 = ORIENTED_EDGE ( 'NONE', *, *, #157, .F. ) ;
#290 = SURFACE_STYLE_FILL_AREA ( #98 ) ;
#291 = ORIENTED_EDGE ( 'NONE', *, *, #106, .T. ) ;
#292 = DIMENSIONAL_EXPONENTS ( 1.000000000000000000, 0.000000000000000000, 0.000000000000000000, 0.000000000000000000, 0.000000000000000000, 0.000000000000000000, 0.000000000000000000 ) ;
#293 =( LENGTH_UNIT ( ) NAMED_UNIT ( * ) SI_UNIT ( $, .METRE. ) );
#294 = DIRECTION ( 'NONE',  ( -0.000000000000000000, -1.000000000000000000, -0.000000000000000000 ) ) ;
#295 = ORIENTED_EDGE ( 'NONE', *, *, #242, .F. ) ;
#296 = CARTESIAN_POINT ( 'NONE',  ( -6.123233995736766036E-17, 2.500000000000000000, 0.000000000000000000 ) ) ;
#297 =( NAMED_UNIT ( * ) SI_UNIT ( $, .STERADIAN. ) SOLID_ANGLE_UNIT ( ) );
#298 = AXIS2_PLACEMENT_3D ( 'NONE', #110, #182, #254 ) ;
#299 = DIRECTION ( 'NONE',  ( -3.265724797726275178E-17, 1.000000000000000000, -0.000000000000000000 ) ) ;
#300 = SURFACE_STYLE_USAGE ( .BOTH. , #238 ) ;
#301 =( LENGTH_UNIT ( ) NAMED_UNIT ( * ) SI_UNIT ( $, .METRE. ) );
#302 = CARTESIAN_POINT ( 'NONE',  ( 0.000000000000000000, 0.6250000000000000000, 0.000000000000000000 ) ) ;
#303 = DIRECTION ( 'NONE',  ( -1.000000000000000000, 0.000000000000000000, 0.000000000000000000 ) ) ;
#304 = CYLINDRICAL_SURFACE ( 'NONE', #23, 0.1250000000000000000 ) ;
#305 = CARTESIAN_POINT ( 'NONE',  ( 0.000000000000000000, 0.000000000000000000, 0.000000000000000000 ) ) ;
#306 = VERTEX_POINT ( 'NONE', #183 ) ;
#307 = ORIENTED_EDGE ( 'NONE', *, *, #198, .F. ) ;
#308 = DIRECTION ( 'NONE',  ( 0.000000000000000000, 0.000000000000000000, 1.000000000000000000 ) ) ;
#309 = EDGE_CURVE ( 'NONE', #240, #1, #13, .T. ) ;
ENDSEC;
END-ISO-10303-21;
