ISO-10303-21;
HEADER;
FILE_DESCRIPTION (( 'STEP AP214' ),
    '1' );
FILE_NAME ('48116.STEP',
    '2023-06-22T21:12:18',
    ( '' ),
    ( '' ),
    'SwSTEP 2.0',
    'SolidWorks 2023',
    '' );
FILE_SCHEMA (( 'AUTOMOTIVE_DESIGN' ));
ENDSEC;

DATA;
#1 = EDGE_LOOP ( 'NONE', ( #217, #20 ) ) ;
#2 = FACE_OUTER_BOUND ( 'NONE', #1, .T. ) ;
#3 = SURFACE_STYLE_USAGE ( .BOTH. , #110 ) ;
#4 = SURFACE_STYLE_USAGE ( .BOTH. , #216 ) ;
#5 = ORIENTED_EDGE ( 'NONE', *, *, #232, .F. ) ;
#6 = CLOSED_SHELL ( 'NONE', ( #62, #294, #125, #18 ) ) ;
#7 =( NAMED_UNIT ( * ) SI_UNIT ( $, .STERADIAN. ) SOLID_ANGLE_UNIT ( ) );
#8 = PRESENTATION_STYLE_ASSIGNMENT (( #12 ) ) ;
#9 = APPLICATION_PROTOCOL_DEFINITION ( 'draft international standard', 'automotive_design', 1998, #189 ) ;
#10 = FILL_AREA_STYLE_COLOUR ( '', #173 ) ;
#11 = AXIS2_PLACEMENT_3D ( 'NONE', #117, #33, #200 ) ;
#12 = SURFACE_STYLE_USAGE ( .BOTH. , #219 ) ;
#13 = PRODUCT_DEFINITION_CONTEXT ( 'detailed design', #189, 'design' ) ;
#14 = DIRECTION ( 'NONE',  ( 0.000000000000000000, 0.000000000000000000, -1.000000000000000000 ) ) ;
#15 = FILL_AREA_STYLE ('',( #150 ) ) ;
#16 = UNCERTAINTY_MEASURE_WITH_UNIT (LENGTH_MEASURE( 1.000000000000000082E-05 ), #161, 'distance_accuracy_value', 'NONE');
#17 = EDGE_LOOP ( 'NONE', ( #64, #67 ) ) ;
#18 = ADVANCED_FACE ( 'NONE', ( #2 ), #184, .F. ) ;
#19 = CARTESIAN_POINT ( 'NONE',  ( 1.530808498934191509E-17, 0.000000000000000000, 0.1250000000000000000 ) ) ;
#20 = ORIENTED_EDGE ( 'NONE', *, *, #141, .T. ) ;
#21 = COLOUR_RGB ( '',1.000000000000000000, 0.000000000000000000, 0.000000000000000000 ) ;
#22 = DIRECTION ( 'NONE',  ( -0.000000000000000000, -1.000000000000000000, -0.000000000000000000 ) ) ;
#23 = EDGE_LOOP ( 'NONE', ( #213, #90, #156, #132 ) ) ;
#24 = SURFACE_STYLE_FILL_AREA ( #65 ) ;
#25 = FILL_AREA_STYLE ('',( #240 ) ) ;
#26 =( NAMED_UNIT ( * ) SI_UNIT ( $, .STERADIAN. ) SOLID_ANGLE_UNIT ( ) );
#27 = DIRECTION ( 'NONE',  ( -3.498990854706722745E-17, 1.000000000000000000, -0.000000000000000000 ) ) ;
#28 = DIRECTION ( 'NONE',  ( -1.000000000000000000, 0.000000000000000000, 0.000000000000000000 ) ) ;
#29 = CARTESIAN_POINT ( 'NONE',  ( 0.000000000000000000, 0.000000000000000000, 0.000000000000000000 ) ) ;
#30 = DIRECTION ( 'NONE',  ( -1.000000000000000000, 0.000000000000000000, 0.000000000000000000 ) ) ;
#31 = DIMENSIONAL_EXPONENTS ( 1.000000000000000000, 0.000000000000000000, 0.000000000000000000, 0.000000000000000000, 0.000000000000000000, 0.000000000000000000, 0.000000000000000000 ) ;
#32 = DIRECTION ( 'NONE',  ( -3.498990854706722745E-17, 1.000000000000000000, -0.000000000000000000 ) ) ;
#33 = DIRECTION ( 'NONE',  ( 0.000000000000000000, 0.000000000000000000, 1.000000000000000000 ) ) ;
#34 =( LENGTH_UNIT ( ) NAMED_UNIT ( * ) SI_UNIT ( $, .METRE. ) );
#35 = DIRECTION ( 'NONE',  ( 0.000000000000000000, 0.000000000000000000, -1.000000000000000000 ) ) ;
#36 = LINE ( 'NONE', #210, #45 ) ;
#37 =( GEOMETRIC_REPRESENTATION_CONTEXT ( 3 ) GLOBAL_UNCERTAINTY_ASSIGNED_CONTEXT ( ( #185 ) ) GLOBAL_UNIT_ASSIGNED_CONTEXT ( ( #42, #263, #26 ) ) REPRESENTATION_CONTEXT ( 'NONE', 'WORKASPACE' ) );
#38 = EDGE_CURVE ( 'NONE', #287, #280, #253, .T. ) ;
#39 = FACE_OUTER_BOUND ( 'NONE', #187, .T. ) ;
#40 = ADVANCED_BREP_SHAPE_REPRESENTATION ( '48116', ( #205, #196, #11 ), #97 ) ;
#41 = CARTESIAN_POINT ( 'NONE',  ( 0.000000000000000000, 0.000000000000000000, 0.000000000000000000 ) ) ;
#42 =( CONVERSION_BASED_UNIT ( 'INCH', #59 ) LENGTH_UNIT ( ) NAMED_UNIT ( #104 ) );
#43 = PRODUCT_DEFINITION ( 'UNKNOWN', '', #159, #13 ) ;
#44 = DIRECTION ( 'NONE',  ( 0.000000000000000000, 0.000000000000000000, -1.000000000000000000 ) ) ;
#45 = VECTOR ( 'NONE', #305, 39.37007874015748143 ) ;
#46 =( NAMED_UNIT ( * ) PLANE_ANGLE_UNIT ( ) SI_UNIT ( $, .RADIAN. ) );
#47 = CYLINDRICAL_SURFACE ( 'NONE', #68, 0.1250000000000000278 ) ;
#48 = DIRECTION ( 'NONE',  ( -1.000000000000000000, -3.498990854706722745E-17, 0.000000000000000000 ) ) ;
#49 = SURFACE_STYLE_FILL_AREA ( #163 ) ;
#50 = CARTESIAN_POINT ( 'NONE',  ( -0.1249999999999999861, 0.7499999999999998890, 0.000000000000000000 ) ) ;
#51 = DIMENSIONAL_EXPONENTS ( 1.000000000000000000, 0.000000000000000000, 0.000000000000000000, 0.000000000000000000, 0.000000000000000000, 0.000000000000000000, 0.000000000000000000 ) ;
#52 = CARTESIAN_POINT ( 'NONE',  ( -6.123233995736766036E-17, 2.500000000000000000, 0.000000000000000000 ) ) ;
#53 = AXIS2_PLACEMENT_3D ( 'NONE', #214, #131, #236 ) ;
#54 = DIRECTION ( 'NONE',  ( 0.000000000000000000, -0.000000000000000000, 1.000000000000000000 ) ) ;
#55 = CARTESIAN_POINT ( 'NONE',  ( -6.123233995736766036E-17, 2.500000000000000000, 0.000000000000000000 ) ) ;
#56 = UNCERTAINTY_MEASURE_WITH_UNIT (LENGTH_MEASURE( 1.000000000000000082E-05 ), #140, 'distance_accuracy_value', 'NONE');
#57 = PRESENTATION_LAYER_ASSIGNMENT (  '', '', ( #198 ) ) ;
#58 =( GEOMETRIC_REPRESENTATION_CONTEXT ( 3 ) GLOBAL_UNCERTAINTY_ASSIGNED_CONTEXT ( ( #272 ) ) GLOBAL_UNIT_ASSIGNED_CONTEXT ( ( #106, #61, #257 ) ) REPRESENTATION_CONTEXT ( 'NONE', 'WORKASPACE' ) );
#59 = LENGTH_MEASURE_WITH_UNIT ( LENGTH_MEASURE( 0.02539999999999999897 ), #298 );
#60 = PRESENTATION_STYLE_ASSIGNMENT (( #207 ) ) ;
#61 =( NAMED_UNIT ( * ) PLANE_ANGLE_UNIT ( ) SI_UNIT ( $, .RADIAN. ) );
#62 = ADVANCED_FACE ( 'NONE', ( #202 ), #269, .T. ) ;
#63 = MECHANICAL_DESIGN_GEOMETRIC_PRESENTATION_REPRESENTATION (  '', ( #127 ), #37 ) ;
#64 = ORIENTED_EDGE ( 'NONE', *, *, #274, .T. ) ;
#65 = FILL_AREA_STYLE ('',( #284 ) ) ;
#66 = EDGE_LOOP ( 'NONE', ( #191, #238 ) ) ;
#67 = ORIENTED_EDGE ( 'NONE', *, *, #118, .T. ) ;
#68 = AXIS2_PLACEMENT_3D ( 'NONE', #297, #32, #28 ) ;
#69 = COLOUR_RGB ( '',1.000000000000000000, 0.000000000000000000, 0.000000000000000000 ) ;
#70 = ORIENTED_EDGE ( 'NONE', *, *, #113, .T. ) ;
#71 = STYLED_ITEM ( 'NONE', ( #89 ), #196 ) ;
#72 = CARTESIAN_POINT ( 'NONE',  ( 0.000000000000000000, 0.000000000000000000, -0.1250000000000000000 ) ) ;
#73 = EDGE_CURVE ( 'NONE', #280, #287, #186, .T. ) ;
#74 = DIRECTION ( 'NONE',  ( 3.498990854706722745E-17, -1.000000000000000000, 0.000000000000000000 ) ) ;
#75 = PRESENTATION_STYLE_ASSIGNMENT (( #296 ) ) ;
#76 = CARTESIAN_POINT ( 'NONE',  ( 0.000000000000000000, 0.000000000000000000, 0.000000000000000000 ) ) ;
#77 = UNCERTAINTY_MEASURE_WITH_UNIT (LENGTH_MEASURE( 1.000000000000000082E-05 ), #246, 'distance_accuracy_value', 'NONE');
#78 = PRODUCT_RELATED_PRODUCT_CATEGORY ( 'part', '', ( #265 ) ) ;
#79 = COLOUR_RGB ( '',1.000000000000000000, 0.000000000000000000, 0.000000000000000000 ) ;
#80 = CARTESIAN_POINT ( 'NONE',  ( 0.1250000000000000000, 0.7499999999999998890, 1.530808498934192125E-17 ) ) ;
#81 = CIRCLE ( 'NONE', #120, 0.1249999999999999861 ) ;
#82 = VERTEX_POINT ( 'NONE', #50 ) ;
#83 = AXIS2_PLACEMENT_3D ( 'NONE', #203, #291, #168 ) ;
#84 = LINE ( 'NONE', #19, #188 ) ;
#85 =( CONVERSION_BASED_UNIT ( 'INCH', #256 ) LENGTH_UNIT ( ) NAMED_UNIT ( #225 ) );
#86 = EDGE_LOOP ( 'NONE', ( #162, #70, #181, #137 ) ) ;
#87 = EDGE_CURVE ( 'NONE', #280, #235, #273, .T. ) ;
#88 = PRESENTATION_STYLE_ASSIGNMENT (( #3 ) ) ;
#89 = PRESENTATION_STYLE_ASSIGNMENT (( #4 ) ) ;
#90 = ORIENTED_EDGE ( 'NONE', *, *, #276, .T. ) ;
#91 = AXIS2_PLACEMENT_3D ( 'NONE', #169, #204, #54 ) ;
#92 = ORIENTED_EDGE ( 'NONE', *, *, #113, .F. ) ;
#93 = CARTESIAN_POINT ( 'NONE',  ( -0.1250000000000001110, 2.500000000000000000, 0.000000000000000000 ) ) ;
#94 = DIRECTION ( 'NONE',  ( -3.498990854706722745E-17, 1.000000000000000000, -0.000000000000000000 ) ) ;
#95 = LENGTH_MEASURE_WITH_UNIT ( LENGTH_MEASURE( 0.02539999999999999897 ), #111 );
#96 =( NAMED_UNIT ( * ) SI_UNIT ( $, .STERADIAN. ) SOLID_ANGLE_UNIT ( ) );
#97 =( GEOMETRIC_REPRESENTATION_CONTEXT ( 3 ) GLOBAL_UNCERTAINTY_ASSIGNED_CONTEXT ( ( #208 ) ) GLOBAL_UNIT_ASSIGNED_CONTEXT ( ( #145, #193, #7 ) ) REPRESENTATION_CONTEXT ( 'NONE', 'WORKASPACE' ) );
#98 =( NAMED_UNIT ( * ) PLANE_ANGLE_UNIT ( ) SI_UNIT ( $, .RADIAN. ) );
#99 = CARTESIAN_POINT ( 'NONE',  ( -6.123233995736766036E-17, 2.500000000000000000, 0.000000000000000000 ) ) ;
#100 = LENGTH_MEASURE_WITH_UNIT ( LENGTH_MEASURE( 0.02539999999999999897 ), #268 );
#101 = FACE_OUTER_BOUND ( 'NONE', #86, .T. ) ;
#102 = AXIS2_PLACEMENT_3D ( 'NONE', #167, #229, #14 ) ;
#103 = CYLINDRICAL_SURFACE ( 'NONE', #209, 0.1250000000000000000 ) ;
#104 = DIMENSIONAL_EXPONENTS ( 1.000000000000000000, 0.000000000000000000, 0.000000000000000000, 0.000000000000000000, 0.000000000000000000, 0.000000000000000000, 0.000000000000000000 ) ;
#105 = UNCERTAINTY_MEASURE_WITH_UNIT (LENGTH_MEASURE( 1.000000000000000082E-05 ), #85, 'distance_accuracy_value', 'NONE');
#106 =( CONVERSION_BASED_UNIT ( 'INCH', #143 ) LENGTH_UNIT ( ) NAMED_UNIT ( #31 ) );
#107 =( GEOMETRIC_REPRESENTATION_CONTEXT ( 3 ) GLOBAL_UNCERTAINTY_ASSIGNED_CONTEXT ( ( #16 ) ) GLOBAL_UNIT_ASSIGNED_CONTEXT ( ( #161, #98, #262 ) ) REPRESENTATION_CONTEXT ( 'NONE', 'WORKASPACE' ) );
#108 = EDGE_LOOP ( 'NONE', ( #211, #241, #289, #283 ) ) ;
#109 = VERTEX_POINT ( 'NONE', #300 ) ;
#110 = SURFACE_SIDE_STYLE ('',( #24 ) ) ;
#111 =( LENGTH_UNIT ( ) NAMED_UNIT ( * ) SI_UNIT ( $, .METRE. ) );
#112 = MECHANICAL_DESIGN_GEOMETRIC_PRESENTATION_REPRESENTATION (  '', ( #199 ), #255 ) ;
#113 = EDGE_CURVE ( 'NONE', #154, #82, #81, .T. ) ;
#114 = CARTESIAN_POINT ( 'NONE',  ( 7.651835625825799802E-35, 0.7500000000000001110, 0.000000000000000000 ) ) ;
#115 = CYLINDRICAL_SURFACE ( 'NONE', #53, 0.1250000000000000000 ) ;
#116 = DIRECTION ( 'NONE',  ( 0.000000000000000000, 0.000000000000000000, -1.000000000000000000 ) ) ;
#117 = CARTESIAN_POINT ( 'NONE',  ( 0.000000000000000000, 0.000000000000000000, 0.000000000000000000 ) ) ;
#118 = EDGE_CURVE ( 'NONE', #264, #235, #303, .T. ) ;
#119 = DIRECTION ( 'NONE',  ( -1.000000000000000000, 0.000000000000000000, 0.000000000000000000 ) ) ;
#120 = AXIS2_PLACEMENT_3D ( 'NONE', #164, #247, #267 ) ;
#121 = DIRECTION ( 'NONE',  ( -3.498990854706722745E-17, 1.000000000000000000, -0.000000000000000000 ) ) ;
#122 = DIMENSIONAL_EXPONENTS ( 1.000000000000000000, 0.000000000000000000, 0.000000000000000000, 0.000000000000000000, 0.000000000000000000, 0.000000000000000000, 0.000000000000000000 ) ;
#123 = SURFACE_SIDE_STYLE ('',( #201 ) ) ;
#124 = DIRECTION ( 'NONE',  ( -1.000000000000000000, 0.000000000000000000, 0.000000000000000000 ) ) ;
#125 = ADVANCED_FACE ( 'NONE', ( #101 ), #47, .T. ) ;
#126 = CIRCLE ( 'NONE', #251, 0.1250000000000000555 ) ;
#127 = STYLED_ITEM ( 'NONE', ( #88 ), #288 ) ;
#128 = DIMENSIONAL_EXPONENTS ( 1.000000000000000000, 0.000000000000000000, 0.000000000000000000, 0.000000000000000000, 0.000000000000000000, 0.000000000000000000, 0.000000000000000000 ) ;
#129 = MECHANICAL_DESIGN_GEOMETRIC_PRESENTATION_REPRESENTATION (  '', ( #179 ), #261 ) ;
#130 = DIRECTION ( 'NONE',  ( 0.000000000000000000, 0.000000000000000000, -1.000000000000000000 ) ) ;
#131 = DIRECTION ( 'NONE',  ( -0.000000000000000000, -1.000000000000000000, -0.000000000000000000 ) ) ;
#132 = ORIENTED_EDGE ( 'NONE', *, *, #87, .F. ) ;
#133 = AXIS2_PLACEMENT_3D ( 'NONE', #41, #22, #130 ) ;
#134 = CARTESIAN_POINT ( 'NONE',  ( 0.000000000000000000, 0.000000000000000000, 0.000000000000000000 ) ) ;
#135 = ORIENTED_EDGE ( 'NONE', *, *, #38, .T. ) ;
#136 = LINE ( 'NONE', #242, #138 ) ;
#137 = ORIENTED_EDGE ( 'NONE', *, *, #141, .F. ) ;
#138 = VECTOR ( 'NONE', #27, 39.37007874015748143 ) ;
#139 = PLANE ( 'NONE',  #254 ) ;
#140 =( CONVERSION_BASED_UNIT ( 'INCH', #250 ) LENGTH_UNIT ( ) NAMED_UNIT ( #122 ) );
#141 = EDGE_CURVE ( 'NONE', #109, #306, #126, .T. ) ;
#142 = SHAPE_DEFINITION_REPRESENTATION ( #192, #40 ) ;
#143 = LENGTH_MEASURE_WITH_UNIT ( LENGTH_MEASURE( 0.02539999999999999897 ), #194 );
#144 = SURFACE_SIDE_STYLE ('',( #228 ) ) ;
#145 =( CONVERSION_BASED_UNIT ( 'INCH', #95 ) LENGTH_UNIT ( ) NAMED_UNIT ( #171 ) );
#146 =( LENGTH_UNIT ( ) NAMED_UNIT ( * ) SI_UNIT ( $, .METRE. ) );
#147 = COLOUR_RGB ( '',1.000000000000000000, 0.000000000000000000, 0.000000000000000000 ) ;
#148 = DIRECTION ( 'NONE',  ( -3.498990854706722745E-17, 1.000000000000000000, -0.000000000000000000 ) ) ;
#149 = CIRCLE ( 'NONE', #157, 0.1250000000000000555 ) ;
#150 = FILL_AREA_STYLE_COLOUR ( '', #69 ) ;
#151 = AXIS2_PLACEMENT_3D ( 'NONE', #76, #220, #35 ) ;
#152 = CIRCLE ( 'NONE', #83, 0.1249999999999999861 ) ;
#153 = CARTESIAN_POINT ( 'NONE',  ( 1.530808498934191509E-17, 0.000000000000000000, 0.1250000000000000000 ) ) ;
#154 = VERTEX_POINT ( 'NONE', #80 ) ;
#155 = EDGE_CURVE ( 'NONE', #306, #109, #149, .T. ) ;
#156 = ORIENTED_EDGE ( 'NONE', *, *, #274, .F. ) ;
#157 = AXIS2_PLACEMENT_3D ( 'NONE', #99, #121, #124 ) ;
#158 = EDGE_LOOP ( 'NONE', ( #5, #92 ) ) ;
#159 = PRODUCT_DEFINITION_FORMATION_WITH_SPECIFIED_SOURCE ( 'ANY', '', #265, .NOT_KNOWN. ) ;
#160 = DIRECTION ( 'NONE',  ( 0.000000000000000000, -1.000000000000000000, -0.000000000000000000 ) ) ;
#161 =( CONVERSION_BASED_UNIT ( 'INCH', #299 ) LENGTH_UNIT ( ) NAMED_UNIT ( #128 ) );
#162 = ORIENTED_EDGE ( 'NONE', *, *, #222, .F. ) ;
#163 = FILL_AREA_STYLE ('',( #227 ) ) ;
#164 = CARTESIAN_POINT ( 'NONE',  ( -7.582401355855259480E-33, 0.7499999999999998890, 0.000000000000000000 ) ) ;
#165 = COLOUR_RGB ( '',0.7921568627450980005, 0.8196078431372548767, 0.9333333333333333481 ) ;
#166 = PLANE ( 'NONE',  #212 ) ;
#167 = CARTESIAN_POINT ( 'NONE',  ( 0.000000000000000000, 0.7500000000000001110, 0.000000000000000000 ) ) ;
#168 = DIRECTION ( 'NONE',  ( -1.000000000000000000, 0.000000000000000000, 0.000000000000000000 ) ) ;
#169 = CARTESIAN_POINT ( 'NONE',  ( 0.000000000000000000, 0.7500000000000001110, 0.000000000000000000 ) ) ;
#170 = PRESENTATION_STYLE_ASSIGNMENT (( #290 ) ) ;
#171 = DIMENSIONAL_EXPONENTS ( 1.000000000000000000, 0.000000000000000000, 0.000000000000000000, 0.000000000000000000, 0.000000000000000000, 0.000000000000000000, 0.000000000000000000 ) ;
#172 = AXIS2_PLACEMENT_3D ( 'NONE', #285, #74, #224 ) ;
#173 = COLOUR_RGB ( '',0.7921568627450980005, 0.8196078431372548767, 0.9333333333333333481 ) ;
#174 = ADVANCED_FACE ( 'NONE', ( #206 ), #302, .T. ) ;
#175 = FILL_AREA_STYLE_COLOUR ( '', #21 ) ;
#176 = PRESENTATION_LAYER_ASSIGNMENT (  '', '', ( #233 ) ) ;
#177 = EDGE_CURVE ( 'NONE', #82, #306, #36, .T. ) ;
#178 = SURFACE_STYLE_FILL_AREA ( #15 ) ;
#179 = STYLED_ITEM ( 'NONE', ( #60 ), #180 ) ;
#180 = ADVANCED_FACE ( 'NONE', ( #39 ), #103, .T. ) ;
#181 = ORIENTED_EDGE ( 'NONE', *, *, #177, .T. ) ;
#182 = CARTESIAN_POINT ( 'NONE',  ( 0.000000000000000000, 0.7500000000000001110, -0.1249999999999999861 ) ) ;
#183 = ORIENTED_EDGE ( 'NONE', *, *, #276, .F. ) ;
#184 = PLANE ( 'NONE',  #172 ) ;
#185 = UNCERTAINTY_MEASURE_WITH_UNIT (LENGTH_MEASURE( 1.000000000000000082E-05 ), #42, 'distance_accuracy_value', 'NONE');
#186 = CIRCLE ( 'NONE', #237, 0.1249999999999999861 ) ;
#187 = EDGE_LOOP ( 'NONE', ( #183, #135, #215, #260 ) ) ;
#188 = VECTOR ( 'NONE', #308, 39.37007874015748143 ) ;
#189 = APPLICATION_CONTEXT ( 'automotive_design' ) ;
#190 =( NAMED_UNIT ( * ) PLANE_ANGLE_UNIT ( ) SI_UNIT ( $, .RADIAN. ) );
#191 = ORIENTED_EDGE ( 'NONE', *, *, #73, .F. ) ;
#192 = PRODUCT_DEFINITION_SHAPE ( 'NONE', 'NONE',  #43 ) ;
#193 =( NAMED_UNIT ( * ) PLANE_ANGLE_UNIT ( ) SI_UNIT ( $, .RADIAN. ) );
#194 =( LENGTH_UNIT ( ) NAMED_UNIT ( * ) SI_UNIT ( $, .METRE. ) );
#195 = FILL_AREA_STYLE ('',( #175 ) ) ;
#196 = MANIFOLD_SOLID_BREP ( 'Revolve - Tool Body (Straight Shanked)', #6 ) ;
#197 =( NAMED_UNIT ( * ) SI_UNIT ( $, .STERADIAN. ) SOLID_ANGLE_UNIT ( ) );
#198 = STYLED_ITEM ( 'NONE', ( #170 ), #174 ) ;
#199 = STYLED_ITEM ( 'NONE', ( #75 ), #205 ) ;
#200 = DIRECTION ( 'NONE',  ( 1.000000000000000000, 0.000000000000000000, 0.000000000000000000 ) ) ;
#201 = SURFACE_STYLE_FILL_AREA ( #223 ) ;
#202 = FACE_OUTER_BOUND ( 'NONE', #108, .T. ) ;
#203 = CARTESIAN_POINT ( 'NONE',  ( -7.582401355855259480E-33, 0.7499999999999998890, 0.000000000000000000 ) ) ;
#204 = DIRECTION ( 'NONE',  ( 0.000000000000000000, 1.000000000000000000, 0.000000000000000000 ) ) ;
#205 = MANIFOLD_SOLID_BREP ( 'Revolve - Cutting Edge', #307 ) ;
#206 = FACE_OUTER_BOUND ( 'NONE', #66, .T. ) ;
#207 = SURFACE_STYLE_USAGE ( .BOTH. , #278 ) ;
#208 = UNCERTAINTY_MEASURE_WITH_UNIT (LENGTH_MEASURE( 1.000000000000000082E-05 ), #145, 'distance_accuracy_value', 'NONE');
#209 = AXIS2_PLACEMENT_3D ( 'NONE', #134, #282, #44 ) ;
#210 = CARTESIAN_POINT ( 'NONE',  ( -0.1250000000000000833, 2.500000000000000000, 0.000000000000000000 ) ) ;
#211 = ORIENTED_EDGE ( 'NONE', *, *, #232, .T. ) ;
#212 = AXIS2_PLACEMENT_3D ( 'NONE', #29, #160, #248 ) ;
#213 = ORIENTED_EDGE ( 'NONE', *, *, #73, .T. ) ;
#214 = CARTESIAN_POINT ( 'NONE',  ( 0.000000000000000000, 0.000000000000000000, 0.000000000000000000 ) ) ;
#215 = ORIENTED_EDGE ( 'NONE', *, *, #87, .T. ) ;
#216 = SURFACE_SIDE_STYLE ('',( #234 ) ) ;
#217 = ORIENTED_EDGE ( 'NONE', *, *, #155, .T. ) ;
#218 = DIRECTION ( 'NONE',  ( -3.498990854706722745E-17, 1.000000000000000000, 0.000000000000000000 ) ) ;
#219 = SURFACE_SIDE_STYLE ('',( #49 ) ) ;
#220 = DIRECTION ( 'NONE',  ( -0.000000000000000000, -1.000000000000000000, -0.000000000000000000 ) ) ;
#221 = PRODUCT_CONTEXT ( 'NONE', #277, 'mechanical' ) ;
#222 = EDGE_CURVE ( 'NONE', #154, #109, #136, .T. ) ;
#223 = FILL_AREA_STYLE ('',( #10 ) ) ;
#224 = DIRECTION ( 'NONE',  ( 1.000000000000000000, 3.498990854706722745E-17, 0.000000000000000000 ) ) ;
#225 = DIMENSIONAL_EXPONENTS ( 1.000000000000000000, 0.000000000000000000, 0.000000000000000000, 0.000000000000000000, 0.000000000000000000, 0.000000000000000000, 0.000000000000000000 ) ;
#226 = CIRCLE ( 'NONE', #133, 0.1250000000000000000 ) ;
#227 = FILL_AREA_STYLE_COLOUR ( '', #147 ) ;
#228 = SURFACE_STYLE_FILL_AREA ( #195 ) ;
#229 = DIRECTION ( 'NONE',  ( -0.000000000000000000, -1.000000000000000000, -0.000000000000000000 ) ) ;
#230 = VECTOR ( 'NONE', #244, 39.37007874015748143 ) ;
#231 = PRESENTATION_LAYER_ASSIGNMENT (  '', '', ( #199 ) ) ;
#232 = EDGE_CURVE ( 'NONE', #82, #154, #152, .T. ) ;
#233 = STYLED_ITEM ( 'NONE', ( #8 ), #258 ) ;
#234 = SURFACE_STYLE_FILL_AREA ( #25 ) ;
#235 = VERTEX_POINT ( 'NONE', #270 ) ;
#236 = DIRECTION ( 'NONE',  ( 0.000000000000000000, 0.000000000000000000, -1.000000000000000000 ) ) ;
#237 = AXIS2_PLACEMENT_3D ( 'NONE', #252, #293, #116 ) ;
#238 = ORIENTED_EDGE ( 'NONE', *, *, #38, .F. ) ;
#239 = FACE_OUTER_BOUND ( 'NONE', #17, .T. ) ;
#240 = FILL_AREA_STYLE_COLOUR ( '', #165 ) ;
#241 = ORIENTED_EDGE ( 'NONE', *, *, #222, .T. ) ;
#242 = CARTESIAN_POINT ( 'NONE',  ( 0.1249999999999999445, 2.500000000000000000, 1.530808498934191817E-17 ) ) ;
#243 = PRESENTATION_LAYER_ASSIGNMENT (  '', '', ( #71 ) ) ;
#244 = DIRECTION ( 'NONE',  ( -0.000000000000000000, -1.000000000000000000, -0.000000000000000000 ) ) ;
#245 =( NAMED_UNIT ( * ) PLANE_ANGLE_UNIT ( ) SI_UNIT ( $, .RADIAN. ) );
#246 =( CONVERSION_BASED_UNIT ( 'INCH', #100 ) LENGTH_UNIT ( ) NAMED_UNIT ( #51 ) );
#247 = DIRECTION ( 'NONE',  ( -3.498990854706722745E-17, 1.000000000000000000, -0.000000000000000000 ) ) ;
#248 = DIRECTION ( 'NONE',  ( 0.000000000000000000, 0.000000000000000000, -1.000000000000000000 ) ) ;
#249 = FACE_OUTER_BOUND ( 'NONE', #23, .T. ) ;
#250 = LENGTH_MEASURE_WITH_UNIT ( LENGTH_MEASURE( 0.02539999999999999897 ), #146 );
#251 = AXIS2_PLACEMENT_3D ( 'NONE', #52, #148, #119 ) ;
#252 = CARTESIAN_POINT ( 'NONE',  ( 0.000000000000000000, 0.7500000000000001110, 0.000000000000000000 ) ) ;
#253 = CIRCLE ( 'NONE', #102, 0.1249999999999999861 ) ;
#254 = AXIS2_PLACEMENT_3D ( 'NONE', #114, #218, #48 ) ;
#255 =( GEOMETRIC_REPRESENTATION_CONTEXT ( 3 ) GLOBAL_UNCERTAINTY_ASSIGNED_CONTEXT ( ( #77 ) ) GLOBAL_UNIT_ASSIGNED_CONTEXT ( ( #246, #46, #197 ) ) REPRESENTATION_CONTEXT ( 'NONE', 'WORKASPACE' ) );
#256 = LENGTH_MEASURE_WITH_UNIT ( LENGTH_MEASURE( 0.02539999999999999897 ), #309 );
#257 =( NAMED_UNIT ( * ) SI_UNIT ( $, .STERADIAN. ) SOLID_ANGLE_UNIT ( ) );
#258 = ADVANCED_FACE ( 'NONE', ( #249 ), #115, .T. ) ;
#259 =( NAMED_UNIT ( * ) SI_UNIT ( $, .STERADIAN. ) SOLID_ANGLE_UNIT ( ) );
#260 = ORIENTED_EDGE ( 'NONE', *, *, #118, .F. ) ;
#261 =( GEOMETRIC_REPRESENTATION_CONTEXT ( 3 ) GLOBAL_UNCERTAINTY_ASSIGNED_CONTEXT ( ( #105 ) ) GLOBAL_UNIT_ASSIGNED_CONTEXT ( ( #85, #190, #259 ) ) REPRESENTATION_CONTEXT ( 'NONE', 'WORKASPACE' ) );
#262 =( NAMED_UNIT ( * ) SI_UNIT ( $, .STERADIAN. ) SOLID_ANGLE_UNIT ( ) );
#263 =( NAMED_UNIT ( * ) PLANE_ANGLE_UNIT ( ) SI_UNIT ( $, .RADIAN. ) );
#264 = VERTEX_POINT ( 'NONE', #153 ) ;
#265 = PRODUCT ( '48116', '48116', '', ( #221 ) ) ;
#266 = APPLICATION_PROTOCOL_DEFINITION ( 'draft international standard', 'automotive_design', 1998, #277 ) ;
#267 = DIRECTION ( 'NONE',  ( -1.000000000000000000, 0.000000000000000000, 0.000000000000000000 ) ) ;
#268 =( LENGTH_UNIT ( ) NAMED_UNIT ( * ) SI_UNIT ( $, .METRE. ) );
#269 = CYLINDRICAL_SURFACE ( 'NONE', #301, 0.1250000000000000278 ) ;
#270 = CARTESIAN_POINT ( 'NONE',  ( 0.000000000000000000, 0.000000000000000000, -0.1250000000000000000 ) ) ;
#271 = MECHANICAL_DESIGN_GEOMETRIC_PRESENTATION_REPRESENTATION (  '', ( #71 ), #107 ) ;
#272 = UNCERTAINTY_MEASURE_WITH_UNIT (LENGTH_MEASURE( 1.000000000000000082E-05 ), #106, 'distance_accuracy_value', 'NONE');
#273 = LINE ( 'NONE', #72, #230 ) ;
#274 = EDGE_CURVE ( 'NONE', #235, #264, #226, .T. ) ;
#275 = MECHANICAL_DESIGN_GEOMETRIC_PRESENTATION_REPRESENTATION (  '', ( #198 ), #286 ) ;
#276 = EDGE_CURVE ( 'NONE', #287, #264, #84, .T. ) ;
#277 = APPLICATION_CONTEXT ( 'automotive_design' ) ;
#278 = SURFACE_SIDE_STYLE ('',( #178 ) ) ;
#279 = PRESENTATION_LAYER_ASSIGNMENT (  '', '', ( #127 ) ) ;
#280 = VERTEX_POINT ( 'NONE', #182 ) ;
#281 = CARTESIAN_POINT ( 'NONE',  ( 1.530808498934191201E-17, 0.7500000000000001110, 0.1249999999999999861 ) ) ;
#282 = DIRECTION ( 'NONE',  ( -0.000000000000000000, -1.000000000000000000, -0.000000000000000000 ) ) ;
#283 = ORIENTED_EDGE ( 'NONE', *, *, #177, .F. ) ;
#284 = FILL_AREA_STYLE_COLOUR ( '', #79 ) ;
#285 = CARTESIAN_POINT ( 'NONE',  ( 0.1249999999999999861, 2.500000000000000000, 0.000000000000000000 ) ) ;
#286 =( GEOMETRIC_REPRESENTATION_CONTEXT ( 3 ) GLOBAL_UNCERTAINTY_ASSIGNED_CONTEXT ( ( #56 ) ) GLOBAL_UNIT_ASSIGNED_CONTEXT ( ( #140, #245, #96 ) ) REPRESENTATION_CONTEXT ( 'NONE', 'WORKASPACE' ) );
#287 = VERTEX_POINT ( 'NONE', #281 ) ;
#288 = ADVANCED_FACE ( 'NONE', ( #239 ), #166, .T. ) ;
#289 = ORIENTED_EDGE ( 'NONE', *, *, #155, .F. ) ;
#290 = SURFACE_STYLE_USAGE ( .BOTH. , #144 ) ;
#291 = DIRECTION ( 'NONE',  ( -3.498990854706722745E-17, 1.000000000000000000, -0.000000000000000000 ) ) ;
#292 = MECHANICAL_DESIGN_GEOMETRIC_PRESENTATION_REPRESENTATION (  '', ( #233 ), #58 ) ;
#293 = DIRECTION ( 'NONE',  ( -0.000000000000000000, -1.000000000000000000, -0.000000000000000000 ) ) ;
#294 = ADVANCED_FACE ( 'NONE', ( #295 ), #139, .F. ) ;
#295 = FACE_OUTER_BOUND ( 'NONE', #158, .T. ) ;
#296 = SURFACE_STYLE_USAGE ( .BOTH. , #123 ) ;
#297 = CARTESIAN_POINT ( 'NONE',  ( -6.123233995736766036E-17, 2.500000000000000000, 0.000000000000000000 ) ) ;
#298 =( LENGTH_UNIT ( ) NAMED_UNIT ( * ) SI_UNIT ( $, .METRE. ) );
#299 = LENGTH_MEASURE_WITH_UNIT ( LENGTH_MEASURE( 0.02539999999999999897 ), #34 );
#300 = CARTESIAN_POINT ( 'NONE',  ( 0.1250000000000000000, 2.500000000000000000, 1.530808498934192125E-17 ) ) ;
#301 = AXIS2_PLACEMENT_3D ( 'NONE', #55, #94, #30 ) ;
#302 = PLANE ( 'NONE',  #91 ) ;
#303 = CIRCLE ( 'NONE', #151, 0.1250000000000000000 ) ;
#304 = PRESENTATION_LAYER_ASSIGNMENT (  '', '', ( #179 ) ) ;
#305 = DIRECTION ( 'NONE',  ( -3.498990854706722745E-17, 1.000000000000000000, -0.000000000000000000 ) ) ;
#306 = VERTEX_POINT ( 'NONE', #93 ) ;
#307 = CLOSED_SHELL ( 'NONE', ( #258, #174, #180, #288 ) ) ;
#308 = DIRECTION ( 'NONE',  ( -0.000000000000000000, -1.000000000000000000, -0.000000000000000000 ) ) ;
#309 =( LENGTH_UNIT ( ) NAMED_UNIT ( * ) SI_UNIT ( $, .METRE. ) );
ENDSEC;
END-ISO-10303-21;
