ISO-10303-21;
HEADER;
FILE_DESCRIPTION (( 'STEP AP214' ),
    '1' );
FILE_NAME ('86031.STEP',
    '2023-06-23T15:37:18',
    ( '' ),
    ( '' ),
    'SwSTEP 2.0',
    'SolidWorks 2023',
    '' );
FILE_SCHEMA (( 'AUTOMOTIVE_DESIGN' ));
ENDSEC;

DATA;
#1 =( CONVERSION_BASED_UNIT ( 'INCH', #146 ) LENGTH_UNIT ( ) NAMED_UNIT ( #220 ) );
#2 = AXIS2_PLACEMENT_3D ( 'NONE', #69, #273, #162 ) ;
#3 = CARTESIAN_POINT ( 'NONE',  ( -0.1562499999999997224, 2.000000000000000000, 0.000000000000000000 ) ) ;
#4 = ORIENTED_EDGE ( 'NONE', *, *, #94, .T. ) ;
#5 = MANIFOLD_SOLID_BREP ( 'Revolve - Cutting Edge', #53 ) ;
#6 = EDGE_CURVE ( 'NONE', #83, #88, #19, .T. ) ;
#7 = EDGE_LOOP ( 'NONE', ( #135, #139, #178, #277 ) ) ;
#8 = SURFACE_STYLE_FILL_AREA ( #246 ) ;
#9 =( LENGTH_UNIT ( ) NAMED_UNIT ( * ) SI_UNIT ( $, .METRE. ) );
#10 = ORIENTED_EDGE ( 'NONE', *, *, #6, .T. ) ;
#11 =( NAMED_UNIT ( * ) PLANE_ANGLE_UNIT ( ) SI_UNIT ( $, .RADIAN. ) );
#12 = MECHANICAL_DESIGN_GEOMETRIC_PRESENTATION_REPRESENTATION (  '', ( #163 ), #55 ) ;
#13 = LENGTH_MEASURE_WITH_UNIT ( LENGTH_MEASURE( 0.02539999999999999897 ), #9 );
#14 = ORIENTED_EDGE ( 'NONE', *, *, #54, .F. ) ;
#15 = FILL_AREA_STYLE_COLOUR ( '', #42 ) ;
#16 =( CONVERSION_BASED_UNIT ( 'INCH', #223 ) LENGTH_UNIT ( ) NAMED_UNIT ( #57 ) );
#17 = CYLINDRICAL_SURFACE ( 'NONE', #89, 0.1562500000000000000 ) ;
#18 =( LENGTH_UNIT ( ) NAMED_UNIT ( * ) SI_UNIT ( $, .METRE. ) );
#19 = CIRCLE ( 'NONE', #221, 0.1562499999999998612 ) ;
#20 = SURFACE_STYLE_FILL_AREA ( #227 ) ;
#21 = CYLINDRICAL_SURFACE ( 'NONE', #214, 0.1562499999999999445 ) ;
#22 = PRESENTATION_LAYER_ASSIGNMENT (  '', '', ( #304 ) ) ;
#23 = UNCERTAINTY_MEASURE_WITH_UNIT (LENGTH_MEASURE( 1.000000000000000082E-05 ), #33, 'distance_accuracy_value', 'NONE');
#24 = DIRECTION ( 'NONE',  ( 7.837739514543064125E-17, 1.000000000000000000, -0.000000000000000000 ) ) ;
#25 = FACE_OUTER_BOUND ( 'NONE', #109, .T. ) ;
#26 = PRESENTATION_LAYER_ASSIGNMENT (  '', '', ( #163 ) ) ;
#27 = CARTESIAN_POINT ( 'NONE',  ( 0.000000000000000000, 0.4374999999999998890, 0.000000000000000000 ) ) ;
#28 = PRESENTATION_STYLE_ASSIGNMENT (( #78 ) ) ;
#29 =( NAMED_UNIT ( * ) SI_UNIT ( $, .STERADIAN. ) SOLID_ANGLE_UNIT ( ) );
#30 = PRODUCT ( '86031', '86031', '', ( #193 ) ) ;
#31 = COLOUR_RGB ( '',0.7921568627450980005, 0.8196078431372548767, 0.9333333333333333481 ) ;
#32 = EDGE_LOOP ( 'NONE', ( #4, #268, #104, #204 ) ) ;
#33 =( CONVERSION_BASED_UNIT ( 'INCH', #13 ) LENGTH_UNIT ( ) NAMED_UNIT ( #173 ) );
#34 =( CONVERSION_BASED_UNIT ( 'INCH', #222 ) LENGTH_UNIT ( ) NAMED_UNIT ( #294 ) );
#35 = DIRECTION ( 'NONE',  ( -1.000000000000000000, 0.000000000000000000, 0.000000000000000000 ) ) ;
#36 = VERTEX_POINT ( 'NONE', #86 ) ;
#37 = VECTOR ( 'NONE', #216, 39.37007874015748143 ) ;
#38 = VECTOR ( 'NONE', #24, 39.37007874015748143 ) ;
#39 = VERTEX_POINT ( 'NONE', #177 ) ;
#40 = FILL_AREA_STYLE_COLOUR ( '', #150 ) ;
#41 = FACE_OUTER_BOUND ( 'NONE', #114, .T. ) ;
#42 = COLOUR_RGB ( '',1.000000000000000000, 0.000000000000000000, 0.000000000000000000 ) ;
#43 = MECHANICAL_DESIGN_GEOMETRIC_PRESENTATION_REPRESENTATION (  '', ( #67 ), #159 ) ;
#44 = LINE ( 'NONE', #121, #38 ) ;
#45 = UNCERTAINTY_MEASURE_WITH_UNIT (LENGTH_MEASURE( 1.000000000000000082E-05 ), #34, 'distance_accuracy_value', 'NONE');
#46 = DIRECTION ( 'NONE',  ( 1.000000000000000000, -7.837739514543064125E-17, 0.000000000000000000 ) ) ;
#47 = DIRECTION ( 'NONE',  ( -1.000000000000000000, 0.000000000000000000, 0.000000000000000000 ) ) ;
#48 = AXIS2_PLACEMENT_3D ( 'NONE', #152, #179, #275 ) ;
#49 = CYLINDRICAL_SURFACE ( 'NONE', #66, 0.1562500000000000000 ) ;
#50 = CARTESIAN_POINT ( 'NONE',  ( 0.000000000000000000, 0.4374999999999998890, 0.000000000000000000 ) ) ;
#51 = PRODUCT_RELATED_PRODUCT_CATEGORY ( 'part', '', ( #30 ) ) ;
#52 = CARTESIAN_POINT ( 'NONE',  ( 1.913510623667739463E-17, 0.4374999999999998890, 0.1562500000000000000 ) ) ;
#53 = CLOSED_SHELL ( 'NONE', ( #237, #263, #153, #258 ) ) ;
#54 = EDGE_CURVE ( 'NONE', #39, #225, #108, .T. ) ;
#55 =( GEOMETRIC_REPRESENTATION_CONTEXT ( 3 ) GLOBAL_UNCERTAINTY_ASSIGNED_CONTEXT ( ( #234 ) ) GLOBAL_UNIT_ASSIGNED_CONTEXT ( ( #16, #91, #226 ) ) REPRESENTATION_CONTEXT ( 'NONE', 'WORKASPACE' ) );
#56 = DIRECTION ( 'NONE',  ( 0.000000000000000000, 0.000000000000000000, -1.000000000000000000 ) ) ;
#57 = DIMENSIONAL_EXPONENTS ( 1.000000000000000000, 0.000000000000000000, 0.000000000000000000, 0.000000000000000000, 0.000000000000000000, 0.000000000000000000, 0.000000000000000000 ) ;
#58 = CARTESIAN_POINT ( 'NONE',  ( 0.1562500000000000000, 2.000000000000000000, 1.913510623667738847E-17 ) ) ;
#59 = AXIS2_PLACEMENT_3D ( 'NONE', #27, #96, #286 ) ;
#60 =( GEOMETRIC_REPRESENTATION_CONTEXT ( 3 ) GLOBAL_UNCERTAINTY_ASSIGNED_CONTEXT ( ( #229 ) ) GLOBAL_UNIT_ASSIGNED_CONTEXT ( ( #230, #233, #74 ) ) REPRESENTATION_CONTEXT ( 'NONE', 'WORKASPACE' ) );
#61 = DIRECTION ( 'NONE',  ( 0.000000000000000000, 0.000000000000000000, -1.000000000000000000 ) ) ;
#62 = ORIENTED_EDGE ( 'NONE', *, *, #217, .T. ) ;
#63 = PRODUCT_DEFINITION_SHAPE ( 'NONE', 'NONE',  #103 ) ;
#64 = SURFACE_SIDE_STYLE ('',( #20 ) ) ;
#65 = DIRECTION ( 'NONE',  ( -0.000000000000000000, -1.000000000000000000, -0.000000000000000000 ) ) ;
#66 = AXIS2_PLACEMENT_3D ( 'NONE', #291, #192, #288 ) ;
#67 = STYLED_ITEM ( 'NONE', ( #228 ), #263 ) ;
#68 = FACE_OUTER_BOUND ( 'NONE', #112, .T. ) ;
#69 = CARTESIAN_POINT ( 'NONE',  ( 0.000000000000000000, 0.000000000000000000, 0.000000000000000000 ) ) ;
#70 = PRESENTATION_LAYER_ASSIGNMENT (  '', '', ( #145 ) ) ;
#71 = SURFACE_STYLE_USAGE ( .BOTH. , #64 ) ;
#72 = UNCERTAINTY_MEASURE_WITH_UNIT (LENGTH_MEASURE( 1.000000000000000082E-05 ), #309, 'distance_accuracy_value', 'NONE');
#73 = CARTESIAN_POINT ( 'NONE',  ( 1.224646799147353700E-16, 2.000000000000000000, 0.000000000000000000 ) ) ;
#74 =( NAMED_UNIT ( * ) SI_UNIT ( $, .STERADIAN. ) SOLID_ANGLE_UNIT ( ) );
#75 = SURFACE_STYLE_USAGE ( .BOTH. , #285 ) ;
#76 = PRODUCT_DEFINITION_CONTEXT ( 'detailed design', #113, 'design' ) ;
#77 = PRESENTATION_STYLE_ASSIGNMENT (( #75 ) ) ;
#78 = SURFACE_STYLE_USAGE ( .BOTH. , #265 ) ;
#79 = CLOSED_SHELL ( 'NONE', ( #302, #252, #117, #306 ) ) ;
#80 =( GEOMETRIC_REPRESENTATION_CONTEXT ( 3 ) GLOBAL_UNCERTAINTY_ASSIGNED_CONTEXT ( ( #23 ) ) GLOBAL_UNIT_ASSIGNED_CONTEXT ( ( #33, #87, #203 ) ) REPRESENTATION_CONTEXT ( 'NONE', 'WORKASPACE' ) );
#81 = CARTESIAN_POINT ( 'NONE',  ( -0.1562500000000000000, 0.4374999999999998890, 0.000000000000000000 ) ) ;
#82 = LINE ( 'NONE', #125, #37 ) ;
#83 = VERTEX_POINT ( 'NONE', #58 ) ;
#84 = DIRECTION ( 'NONE',  ( -0.000000000000000000, -1.000000000000000000, -0.000000000000000000 ) ) ;
#85 = CIRCLE ( 'NONE', #48, 0.1562500000000000000 ) ;
#86 = CARTESIAN_POINT ( 'NONE',  ( 0.1562500000000000000, 0.4374999999999998890, 1.913510623667738847E-17 ) ) ;
#87 =( NAMED_UNIT ( * ) PLANE_ANGLE_UNIT ( ) SI_UNIT ( $, .RADIAN. ) );
#88 = VERTEX_POINT ( 'NONE', #3 ) ;
#89 = AXIS2_PLACEMENT_3D ( 'NONE', #200, #84, #61 ) ;
#90 =( NAMED_UNIT ( * ) SI_UNIT ( $, .STERADIAN. ) SOLID_ANGLE_UNIT ( ) );
#91 =( NAMED_UNIT ( * ) PLANE_ANGLE_UNIT ( ) SI_UNIT ( $, .RADIAN. ) );
#92 = DIRECTION ( 'NONE',  ( 0.000000000000000000, -0.000000000000000000, 1.000000000000000000 ) ) ;
#93 = EDGE_CURVE ( 'NONE', #151, #88, #267, .T. ) ;
#94 = EDGE_CURVE ( 'NONE', #151, #36, #140, .T. ) ;
#95 = PRESENTATION_LAYER_ASSIGNMENT (  '', '', ( #158 ) ) ;
#96 = DIRECTION ( 'NONE',  ( -0.000000000000000000, -1.000000000000000000, -0.000000000000000000 ) ) ;
#97 = APPLICATION_PROTOCOL_DEFINITION ( 'draft international standard', 'automotive_design', 1998, #113 ) ;
#98 = EDGE_CURVE ( 'NONE', #225, #39, #260, .T. ) ;
#99 = PRESENTATION_LAYER_ASSIGNMENT (  '', '', ( #210 ) ) ;
#100 = FILL_AREA_STYLE ('',( #122 ) ) ;
#101 = ORIENTED_EDGE ( 'NONE', *, *, #98, .T. ) ;
#102 = FILL_AREA_STYLE_COLOUR ( '', #166 ) ;
#103 = PRODUCT_DEFINITION ( 'UNKNOWN', '', #201, #76 ) ;
#104 = ORIENTED_EDGE ( 'NONE', *, *, #283, .F. ) ;
#105 = PRESENTATION_STYLE_ASSIGNMENT (( #157 ) ) ;
#106 = SURFACE_STYLE_USAGE ( .BOTH. , #245 ) ;
#107 = DIMENSIONAL_EXPONENTS ( 1.000000000000000000, 0.000000000000000000, 0.000000000000000000, 0.000000000000000000, 0.000000000000000000, 0.000000000000000000, 0.000000000000000000 ) ;
#108 = CIRCLE ( 'NONE', #270, 0.1562500000000000000 ) ;
#109 = EDGE_LOOP ( 'NONE', ( #174, #62, #181, #133 ) ) ;
#110 = FACE_OUTER_BOUND ( 'NONE', #297, .T. ) ;
#111 = CARTESIAN_POINT ( 'NONE',  ( -0.1562499999999998057, 2.000000000000000000, 0.000000000000000000 ) ) ;
#112 = EDGE_LOOP ( 'NONE', ( #248, #101 ) ) ;
#113 = APPLICATION_CONTEXT ( 'automotive_design' ) ;
#114 = EDGE_LOOP ( 'NONE', ( #272, #156 ) ) ;
#115 = DIRECTION ( 'NONE',  ( 7.837739514543064125E-17, 1.000000000000000000, -0.000000000000000000 ) ) ;
#116 = MANIFOLD_SOLID_BREP ( 'Revolve - Tool Body (Straight Shanked)', #79 ) ;
#117 = ADVANCED_FACE ( 'NONE', ( #25 ), #149, .T. ) ;
#118 =( NAMED_UNIT ( * ) SI_UNIT ( $, .STERADIAN. ) SOLID_ANGLE_UNIT ( ) );
#119 = MECHANICAL_DESIGN_GEOMETRIC_PRESENTATION_REPRESENTATION (  '', ( #145 ), #241 ) ;
#120 = CIRCLE ( 'NONE', #250, 0.1562499999999998612 ) ;
#121 = CARTESIAN_POINT ( 'NONE',  ( 0.1562500000000000833, 2.000000000000000000, 1.913510623667738539E-17 ) ) ;
#122 = FILL_AREA_STYLE_COLOUR ( '', #194 ) ;
#123 = CARTESIAN_POINT ( 'NONE',  ( 0.000000000000000000, 0.4374999999999998890, 0.000000000000000000 ) ) ;
#124 = PRESENTATION_STYLE_ASSIGNMENT (( #168 ) ) ;
#125 = CARTESIAN_POINT ( 'NONE',  ( 0.000000000000000000, 0.000000000000000000, -0.1562500000000000000 ) ) ;
#126 = MECHANICAL_DESIGN_GEOMETRIC_PRESENTATION_REPRESENTATION (  '', ( #210 ), #298 ) ;
#127 =( LENGTH_UNIT ( ) NAMED_UNIT ( * ) SI_UNIT ( $, .METRE. ) );
#128 = ORIENTED_EDGE ( 'NONE', *, *, #289, .T. ) ;
#129 = SURFACE_STYLE_FILL_AREA ( #224 ) ;
#130 = FILL_AREA_STYLE_COLOUR ( '', #142 ) ;
#131 = DIRECTION ( 'NONE',  ( 0.000000000000000000, 0.000000000000000000, -1.000000000000000000 ) ) ;
#132 = VECTOR ( 'NONE', #155, 39.37007874015748143 ) ;
#133 = ORIENTED_EDGE ( 'NONE', *, *, #6, .F. ) ;
#134 = DIRECTION ( 'NONE',  ( -1.000000000000000000, 0.000000000000000000, 0.000000000000000000 ) ) ;
#135 = ORIENTED_EDGE ( 'NONE', *, *, #289, .F. ) ;
#136 =( GEOMETRIC_REPRESENTATION_CONTEXT ( 3 ) GLOBAL_UNCERTAINTY_ASSIGNED_CONTEXT ( ( #186 ) ) GLOBAL_UNIT_ASSIGNED_CONTEXT ( ( #1, #239, #235 ) ) REPRESENTATION_CONTEXT ( 'NONE', 'WORKASPACE' ) );
#137 = PLANE ( 'NONE',  #305 ) ;
#138 = CARTESIAN_POINT ( 'NONE',  ( 1.913510623667739463E-17, 0.000000000000000000, 0.1562500000000000000 ) ) ;
#139 = ORIENTED_EDGE ( 'NONE', *, *, #188, .T. ) ;
#140 = CIRCLE ( 'NONE', #278, 0.1562500000000000000 ) ;
#141 = DIRECTION ( 'NONE',  ( -7.837739514543064125E-17, -1.000000000000000000, 0.000000000000000000 ) ) ;
#142 = COLOUR_RGB ( '',1.000000000000000000, 0.000000000000000000, 0.000000000000000000 ) ;
#143 = APPLICATION_PROTOCOL_DEFINITION ( 'draft international standard', 'automotive_design', 1998, #299 ) ;
#144 = FILL_AREA_STYLE ('',( #243 ) ) ;
#145 = STYLED_ITEM ( 'NONE', ( #124 ), #153 ) ;
#146 = LENGTH_MEASURE_WITH_UNIT ( LENGTH_MEASURE( 0.02539999999999999897 ), #266 );
#147 = DIMENSIONAL_EXPONENTS ( 1.000000000000000000, 0.000000000000000000, 0.000000000000000000, 0.000000000000000000, 0.000000000000000000, 0.000000000000000000, 0.000000000000000000 ) ;
#148 = SURFACE_STYLE_FILL_AREA ( #100 ) ;
#149 = CYLINDRICAL_SURFACE ( 'NONE', #308, 0.1562499999999999445 ) ;
#150 = COLOUR_RGB ( '',1.000000000000000000, 0.000000000000000000, 0.000000000000000000 ) ;
#151 = VERTEX_POINT ( 'NONE', #81 ) ;
#152 = CARTESIAN_POINT ( 'NONE',  ( 0.000000000000000000, 0.4374999999999998890, 0.000000000000000000 ) ) ;
#153 = ADVANCED_FACE ( 'NONE', ( #262 ), #49, .T. ) ;
#154 = VERTEX_POINT ( 'NONE', #264 ) ;
#155 = DIRECTION ( 'NONE',  ( 7.837739514543064125E-17, 1.000000000000000000, -0.000000000000000000 ) ) ;
#156 = ORIENTED_EDGE ( 'NONE', *, *, #188, .F. ) ;
#157 = SURFACE_STYLE_USAGE ( .BOTH. , #244 ) ;
#158 = STYLED_ITEM ( 'NONE', ( #249 ), #5 ) ;
#159 =( GEOMETRIC_REPRESENTATION_CONTEXT ( 3 ) GLOBAL_UNCERTAINTY_ASSIGNED_CONTEXT ( ( #167 ) ) GLOBAL_UNIT_ASSIGNED_CONTEXT ( ( #257, #259, #118 ) ) REPRESENTATION_CONTEXT ( 'NONE', 'WORKASPACE' ) );
#160 = VERTEX_POINT ( 'NONE', #52 ) ;
#161 = PLANE ( 'NONE',  #2 ) ;
#162 = DIRECTION ( 'NONE',  ( 0.000000000000000000, 0.000000000000000000, -1.000000000000000000 ) ) ;
#163 = STYLED_ITEM ( 'NONE', ( #77 ), #258 ) ;
#164 = CARTESIAN_POINT ( 'NONE',  ( 1.224646799147353700E-16, 2.000000000000000000, 0.000000000000000000 ) ) ;
#165 = DIRECTION ( 'NONE',  ( -1.000000000000000000, 0.000000000000000000, 0.000000000000000000 ) ) ;
#166 = COLOUR_RGB ( '',0.7921568627450980005, 0.8196078431372548767, 0.9333333333333333481 ) ;
#167 = UNCERTAINTY_MEASURE_WITH_UNIT (LENGTH_MEASURE( 1.000000000000000082E-05 ), #257, 'distance_accuracy_value', 'NONE');
#168 = SURFACE_STYLE_USAGE ( .BOTH. , #169 ) ;
#169 = SURFACE_SIDE_STYLE ('',( #148 ) ) ;
#170 = SHAPE_DEFINITION_REPRESENTATION ( #63, #255 ) ;
#171 = CIRCLE ( 'NONE', #59, 0.1562500000000000000 ) ;
#172 = DIRECTION ( 'NONE',  ( -0.000000000000000000, -1.000000000000000000, -0.000000000000000000 ) ) ;
#173 = DIMENSIONAL_EXPONENTS ( 1.000000000000000000, 0.000000000000000000, 0.000000000000000000, 0.000000000000000000, 0.000000000000000000, 0.000000000000000000, 0.000000000000000000 ) ;
#174 = ORIENTED_EDGE ( 'NONE', *, *, #280, .F. ) ;
#175 = AXIS2_PLACEMENT_3D ( 'NONE', #123, #172, #56 ) ;
#176 = EDGE_LOOP ( 'NONE', ( #199, #128, #14, #293 ) ) ;
#177 = CARTESIAN_POINT ( 'NONE',  ( 0.000000000000000000, 0.000000000000000000, -0.1562500000000000000 ) ) ;
#178 = ORIENTED_EDGE ( 'NONE', *, *, #205, .T. ) ;
#179 = DIRECTION ( 'NONE',  ( 7.837739514543064125E-17, 1.000000000000000000, -0.000000000000000000 ) ) ;
#180 = DIRECTION ( 'NONE',  ( 0.000000000000000000, 0.000000000000000000, -1.000000000000000000 ) ) ;
#181 = ORIENTED_EDGE ( 'NONE', *, *, #93, .T. ) ;
#182 = DIRECTION ( 'NONE',  ( -1.000000000000000000, 7.837739514543064125E-17, 0.000000000000000000 ) ) ;
#183 = FILL_AREA_STYLE ('',( #40 ) ) ;
#184 = DIRECTION ( 'NONE',  ( 7.837739514543064125E-17, 1.000000000000000000, -0.000000000000000000 ) ) ;
#185 =( LENGTH_UNIT ( ) NAMED_UNIT ( * ) SI_UNIT ( $, .METRE. ) );
#186 = UNCERTAINTY_MEASURE_WITH_UNIT (LENGTH_MEASURE( 1.000000000000000082E-05 ), #1, 'distance_accuracy_value', 'NONE');
#187 = LENGTH_MEASURE_WITH_UNIT ( LENGTH_MEASURE( 0.02539999999999999897 ), #307 );
#188 = EDGE_CURVE ( 'NONE', #160, #154, #171, .T. ) ;
#189 = DIRECTION ( 'NONE',  ( 0.000000000000000000, 1.000000000000000000, 0.000000000000000000 ) ) ;
#190 = AXIS2_PLACEMENT_3D ( 'NONE', #303, #141, #46 ) ;
#191 =( NAMED_UNIT ( * ) PLANE_ANGLE_UNIT ( ) SI_UNIT ( $, .RADIAN. ) );
#192 = DIRECTION ( 'NONE',  ( -0.000000000000000000, -1.000000000000000000, -0.000000000000000000 ) ) ;
#193 = PRODUCT_CONTEXT ( 'NONE', #299, 'mechanical' ) ;
#194 = COLOUR_RGB ( '',1.000000000000000000, 0.000000000000000000, 0.000000000000000000 ) ;
#195 = LENGTH_MEASURE_WITH_UNIT ( LENGTH_MEASURE( 0.02539999999999999897 ), #127 );
#196 = CARTESIAN_POINT ( 'NONE',  ( 0.000000000000000000, 0.4374999999999998890, 0.000000000000000000 ) ) ;
#197 = EDGE_CURVE ( 'NONE', #154, #160, #287, .T. ) ;
#198 = ORIENTED_EDGE ( 'NONE', *, *, #94, .F. ) ;
#199 = ORIENTED_EDGE ( 'NONE', *, *, #197, .T. ) ;
#200 = CARTESIAN_POINT ( 'NONE',  ( 0.000000000000000000, 0.000000000000000000, 0.000000000000000000 ) ) ;
#201 = PRODUCT_DEFINITION_FORMATION_WITH_SPECIFIED_SOURCE ( 'ANY', '', #30, .NOT_KNOWN. ) ;
#202 = CARTESIAN_POINT ( 'NONE',  ( 4.799231304517948929E-34, 0.4374999999999998890, 0.000000000000000000 ) ) ;
#203 =( NAMED_UNIT ( * ) SI_UNIT ( $, .STERADIAN. ) SOLID_ANGLE_UNIT ( ) );
#204 = ORIENTED_EDGE ( 'NONE', *, *, #93, .F. ) ;
#205 = EDGE_CURVE ( 'NONE', #154, #39, #82, .T. ) ;
#206 = ORIENTED_EDGE ( 'NONE', *, *, #217, .F. ) ;
#207 = FACE_OUTER_BOUND ( 'NONE', #176, .T. ) ;
#208 = DIRECTION ( 'NONE',  ( 1.000000000000000000, 0.000000000000000000, 0.000000000000000000 ) ) ;
#209 = FACE_OUTER_BOUND ( 'NONE', #32, .T. ) ;
#210 = STYLED_ITEM ( 'NONE', ( #105 ), #237 ) ;
#211 = DIRECTION ( 'NONE',  ( 7.837739514543064125E-17, 1.000000000000000000, -0.000000000000000000 ) ) ;
#212 = DIRECTION ( 'NONE',  ( 0.000000000000000000, 0.000000000000000000, 1.000000000000000000 ) ) ;
#213 = MECHANICAL_DESIGN_GEOMETRIC_PRESENTATION_REPRESENTATION (  '', ( #158 ), #80 ) ;
#214 = AXIS2_PLACEMENT_3D ( 'NONE', #164, #211, #47 ) ;
#215 = DIMENSIONAL_EXPONENTS ( 1.000000000000000000, 0.000000000000000000, 0.000000000000000000, 0.000000000000000000, 0.000000000000000000, 0.000000000000000000, 0.000000000000000000 ) ;
#216 = DIRECTION ( 'NONE',  ( -0.000000000000000000, -1.000000000000000000, -0.000000000000000000 ) ) ;
#217 = EDGE_CURVE ( 'NONE', #36, #151, #85, .T. ) ;
#218 = SURFACE_STYLE_FILL_AREA ( #144 ) ;
#219 = DIRECTION ( 'NONE',  ( 7.837739514543064125E-17, 1.000000000000000000, -0.000000000000000000 ) ) ;
#220 = DIMENSIONAL_EXPONENTS ( 1.000000000000000000, 0.000000000000000000, 0.000000000000000000, 0.000000000000000000, 0.000000000000000000, 0.000000000000000000, 0.000000000000000000 ) ;
#221 = AXIS2_PLACEMENT_3D ( 'NONE', #295, #219, #134 ) ;
#222 = LENGTH_MEASURE_WITH_UNIT ( LENGTH_MEASURE( 0.02539999999999999897 ), #18 );
#223 = LENGTH_MEASURE_WITH_UNIT ( LENGTH_MEASURE( 0.02539999999999999897 ), #290 );
#224 = FILL_AREA_STYLE ('',( #102 ) ) ;
#225 = VERTEX_POINT ( 'NONE', #269 ) ;
#226 =( NAMED_UNIT ( * ) SI_UNIT ( $, .STERADIAN. ) SOLID_ANGLE_UNIT ( ) );
#227 = FILL_AREA_STYLE ('',( #130 ) ) ;
#228 = PRESENTATION_STYLE_ASSIGNMENT (( #71 ) ) ;
#229 = UNCERTAINTY_MEASURE_WITH_UNIT (LENGTH_MEASURE( 1.000000000000000082E-05 ), #230, 'distance_accuracy_value', 'NONE');
#230 =( CONVERSION_BASED_UNIT ( 'INCH', #261 ) LENGTH_UNIT ( ) NAMED_UNIT ( #107 ) );
#231 = AXIS2_PLACEMENT_3D ( 'NONE', #296, #292, #180 ) ;
#232 = VECTOR ( 'NONE', #300, 39.37007874015748143 ) ;
#233 =( NAMED_UNIT ( * ) PLANE_ANGLE_UNIT ( ) SI_UNIT ( $, .RADIAN. ) );
#234 = UNCERTAINTY_MEASURE_WITH_UNIT (LENGTH_MEASURE( 1.000000000000000082E-05 ), #16, 'distance_accuracy_value', 'NONE');
#235 =( NAMED_UNIT ( * ) SI_UNIT ( $, .STERADIAN. ) SOLID_ANGLE_UNIT ( ) );
#236 = CARTESIAN_POINT ( 'NONE',  ( 0.000000000000000000, 0.000000000000000000, 0.000000000000000000 ) ) ;
#237 = ADVANCED_FACE ( 'NONE', ( #207 ), #17, .T. ) ;
#238 = DIRECTION ( 'NONE',  ( 7.837739514543064125E-17, 1.000000000000000000, -0.000000000000000000 ) ) ;
#239 =( NAMED_UNIT ( * ) PLANE_ANGLE_UNIT ( ) SI_UNIT ( $, .RADIAN. ) );
#240 = DIRECTION ( 'NONE',  ( -1.000000000000000000, 0.000000000000000000, 0.000000000000000000 ) ) ;
#241 =( GEOMETRIC_REPRESENTATION_CONTEXT ( 3 ) GLOBAL_UNCERTAINTY_ASSIGNED_CONTEXT ( ( #72 ) ) GLOBAL_UNIT_ASSIGNED_CONTEXT ( ( #309, #191, #29 ) ) REPRESENTATION_CONTEXT ( 'NONE', 'WORKASPACE' ) );
#242 = AXIS2_PLACEMENT_3D ( 'NONE', #236, #212, #208 ) ;
#243 = FILL_AREA_STYLE_COLOUR ( '', #31 ) ;
#244 = SURFACE_SIDE_STYLE ('',( #8 ) ) ;
#245 = SURFACE_SIDE_STYLE ('',( #129 ) ) ;
#246 = FILL_AREA_STYLE ('',( #15 ) ) ;
#247 = DIRECTION ( 'NONE',  ( 7.837739514543064125E-17, 1.000000000000000000, -0.000000000000000000 ) ) ;
#248 = ORIENTED_EDGE ( 'NONE', *, *, #54, .T. ) ;
#249 = PRESENTATION_STYLE_ASSIGNMENT (( #106 ) ) ;
#250 = AXIS2_PLACEMENT_3D ( 'NONE', #281, #184, #165 ) ;
#251 = EDGE_LOOP ( 'NONE', ( #301, #10 ) ) ;
#252 = ADVANCED_FACE ( 'NONE', ( #110 ), #276, .F. ) ;
#253 = SURFACE_STYLE_FILL_AREA ( #183 ) ;
#254 = MECHANICAL_DESIGN_GEOMETRIC_PRESENTATION_REPRESENTATION (  '', ( #304 ), #136 ) ;
#255 = ADVANCED_BREP_SHAPE_REPRESENTATION ( '86031', ( #5, #116, #242 ), #60 ) ;
#256 = FACE_OUTER_BOUND ( 'NONE', #251, .T. ) ;
#257 =( CONVERSION_BASED_UNIT ( 'INCH', #187 ) LENGTH_UNIT ( ) NAMED_UNIT ( #215 ) );
#258 = ADVANCED_FACE ( 'NONE', ( #68 ), #161, .T. ) ;
#259 =( NAMED_UNIT ( * ) PLANE_ANGLE_UNIT ( ) SI_UNIT ( $, .RADIAN. ) );
#260 = CIRCLE ( 'NONE', #231, 0.1562500000000000000 ) ;
#261 = LENGTH_MEASURE_WITH_UNIT ( LENGTH_MEASURE( 0.02539999999999999897 ), #185 );
#262 = FACE_OUTER_BOUND ( 'NONE', #7, .T. ) ;
#263 = ADVANCED_FACE ( 'NONE', ( #41 ), #137, .T. ) ;
#264 = CARTESIAN_POINT ( 'NONE',  ( 0.000000000000000000, 0.4374999999999998890, -0.1562500000000000000 ) ) ;
#265 = SURFACE_SIDE_STYLE ('',( #218 ) ) ;
#266 =( LENGTH_UNIT ( ) NAMED_UNIT ( * ) SI_UNIT ( $, .METRE. ) );
#267 = LINE ( 'NONE', #111, #132 ) ;
#268 = ORIENTED_EDGE ( 'NONE', *, *, #280, .T. ) ;
#269 = CARTESIAN_POINT ( 'NONE',  ( 1.913510623667739463E-17, 0.000000000000000000, 0.1562500000000000000 ) ) ;
#270 = AXIS2_PLACEMENT_3D ( 'NONE', #274, #65, #131 ) ;
#271 = PRESENTATION_LAYER_ASSIGNMENT (  '', '', ( #67 ) ) ;
#272 = ORIENTED_EDGE ( 'NONE', *, *, #197, .F. ) ;
#273 = DIRECTION ( 'NONE',  ( 0.000000000000000000, -1.000000000000000000, -0.000000000000000000 ) ) ;
#274 = CARTESIAN_POINT ( 'NONE',  ( 0.000000000000000000, 0.000000000000000000, 0.000000000000000000 ) ) ;
#275 = DIRECTION ( 'NONE',  ( -1.000000000000000000, 0.000000000000000000, 0.000000000000000000 ) ) ;
#276 = PLANE ( 'NONE',  #282 ) ;
#277 = ORIENTED_EDGE ( 'NONE', *, *, #98, .F. ) ;
#278 = AXIS2_PLACEMENT_3D ( 'NONE', #196, #247, #35 ) ;
#279 = PLANE ( 'NONE',  #190 ) ;
#280 = EDGE_CURVE ( 'NONE', #36, #83, #44, .T. ) ;
#281 = CARTESIAN_POINT ( 'NONE',  ( 1.224646799147353700E-16, 2.000000000000000000, 0.000000000000000000 ) ) ;
#282 = AXIS2_PLACEMENT_3D ( 'NONE', #202, #115, #182 ) ;
#283 = EDGE_CURVE ( 'NONE', #88, #83, #120, .T. ) ;
#284 = LINE ( 'NONE', #138, #232 ) ;
#285 = SURFACE_SIDE_STYLE ('',( #253 ) ) ;
#286 = DIRECTION ( 'NONE',  ( 0.000000000000000000, 0.000000000000000000, -1.000000000000000000 ) ) ;
#287 = CIRCLE ( 'NONE', #175, 0.1562500000000000000 ) ;
#288 = DIRECTION ( 'NONE',  ( 0.000000000000000000, 0.000000000000000000, -1.000000000000000000 ) ) ;
#289 = EDGE_CURVE ( 'NONE', #160, #225, #284, .T. ) ;
#290 =( LENGTH_UNIT ( ) NAMED_UNIT ( * ) SI_UNIT ( $, .METRE. ) );
#291 = CARTESIAN_POINT ( 'NONE',  ( 0.000000000000000000, 0.000000000000000000, 0.000000000000000000 ) ) ;
#292 = DIRECTION ( 'NONE',  ( -0.000000000000000000, -1.000000000000000000, -0.000000000000000000 ) ) ;
#293 = ORIENTED_EDGE ( 'NONE', *, *, #205, .F. ) ;
#294 = DIMENSIONAL_EXPONENTS ( 1.000000000000000000, 0.000000000000000000, 0.000000000000000000, 0.000000000000000000, 0.000000000000000000, 0.000000000000000000, 0.000000000000000000 ) ;
#295 = CARTESIAN_POINT ( 'NONE',  ( 1.224646799147353700E-16, 2.000000000000000000, 0.000000000000000000 ) ) ;
#296 = CARTESIAN_POINT ( 'NONE',  ( 0.000000000000000000, 0.000000000000000000, 0.000000000000000000 ) ) ;
#297 = EDGE_LOOP ( 'NONE', ( #198, #206 ) ) ;
#298 =( GEOMETRIC_REPRESENTATION_CONTEXT ( 3 ) GLOBAL_UNCERTAINTY_ASSIGNED_CONTEXT ( ( #45 ) ) GLOBAL_UNIT_ASSIGNED_CONTEXT ( ( #34, #11, #90 ) ) REPRESENTATION_CONTEXT ( 'NONE', 'WORKASPACE' ) );
#299 = APPLICATION_CONTEXT ( 'automotive_design' ) ;
#300 = DIRECTION ( 'NONE',  ( -0.000000000000000000, -1.000000000000000000, -0.000000000000000000 ) ) ;
#301 = ORIENTED_EDGE ( 'NONE', *, *, #283, .T. ) ;
#302 = ADVANCED_FACE ( 'NONE', ( #209 ), #21, .T. ) ;
#303 = CARTESIAN_POINT ( 'NONE',  ( 0.1562500000000000000, 2.000000000000000000, 0.000000000000000000 ) ) ;
#304 = STYLED_ITEM ( 'NONE', ( #28 ), #116 ) ;
#305 = AXIS2_PLACEMENT_3D ( 'NONE', #50, #189, #92 ) ;
#306 = ADVANCED_FACE ( 'NONE', ( #256 ), #279, .F. ) ;
#307 =( LENGTH_UNIT ( ) NAMED_UNIT ( * ) SI_UNIT ( $, .METRE. ) );
#308 = AXIS2_PLACEMENT_3D ( 'NONE', #73, #238, #240 ) ;
#309 =( CONVERSION_BASED_UNIT ( 'INCH', #195 ) LENGTH_UNIT ( ) NAMED_UNIT ( #147 ) );
ENDSEC;
END-ISO-10303-21;
