ISO-10303-21;
HEADER;
FILE_DESCRIPTION (( 'STEP AP214' ),
    '1' );
FILE_NAME ('82400.STEP',
    '2023-06-23T05:51:15',
    ( '' ),
    ( '' ),
    'SwSTEP 2.0',
    'SolidWorks 2023',
    '' );
FILE_SCHEMA (( 'AUTOMOTIVE_DESIGN' ));
ENDSEC;

DATA;
#1 = COLOUR_RGB ( '',0.7921568627450980005, 0.8196078431372548767, 0.9333333333333333481 ) ;
#2 = AXIS2_PLACEMENT_3D ( 'NONE', #225, #46, #48 ) ;
#3 = PRESENTATION_STYLE_ASSIGNMENT (( #286 ) ) ;
#4 = CARTESIAN_POINT ( 'NONE',  ( 0.000000000000000000, 0.000000000000000000, 0.000000000000000000 ) ) ;
#5 = APPLICATION_CONTEXT ( 'automotive_design' ) ;
#6 = DIRECTION ( 'NONE',  ( 1.224646799147353700E-16, 1.000000000000000000, -0.000000000000000000 ) ) ;
#7 = AXIS2_PLACEMENT_3D ( 'NONE', #138, #249, #167 ) ;
#8 = DIRECTION ( 'NONE',  ( 0.000000000000000000, 0.000000000000000000, -1.000000000000000000 ) ) ;
#9 = CARTESIAN_POINT ( 'NONE',  ( 0.000000000000000000, 2.000000000000000000, -0.3125000000000000000 ) ) ;
#10 = VERTEX_POINT ( 'NONE', #129 ) ;
#11 = CARTESIAN_POINT ( 'NONE',  ( 0.000000000000000000, 0.000000000000000000, 0.000000000000000000 ) ) ;
#12 = ORIENTED_EDGE ( 'NONE', *, *, #150, .F. ) ;
#13 = COLOUR_RGB ( '',0.7921568627450980005, 0.8196078431372548767, 0.9333333333333333481 ) ;
#14 = DIRECTION ( 'NONE',  ( -0.000000000000000000, -1.000000000000000000, -0.000000000000000000 ) ) ;
#15 = FILL_AREA_STYLE_COLOUR ( '', #181 ) ;
#16 = EDGE_LOOP ( 'NONE', ( #183, #269 ) ) ;
#17 = UNCERTAINTY_MEASURE_WITH_UNIT (LENGTH_MEASURE( 1.000000000000000082E-05 ), #203, 'distance_accuracy_value', 'NONE');
#18 = PRESENTATION_STYLE_ASSIGNMENT (( #285 ) ) ;
#19 = AXIS2_PLACEMENT_3D ( 'NONE', #220, #118, #246 ) ;
#20 = DIRECTION ( 'NONE',  ( -1.000000000000000000, 0.000000000000000000, 0.000000000000000000 ) ) ;
#21 = SURFACE_STYLE_FILL_AREA ( #122 ) ;
#22 = FILL_AREA_STYLE_COLOUR ( '', #1 ) ;
#23 = ADVANCED_FACE ( 'NONE', ( #282 ), #250, .T. ) ;
#24 = CYLINDRICAL_SURFACE ( 'NONE', #70, 0.3124999999999998890 ) ;
#25 = PRESENTATION_LAYER_ASSIGNMENT (  '', '', ( #153 ) ) ;
#26 =( NAMED_UNIT ( * ) SI_UNIT ( $, .STERADIAN. ) SOLID_ANGLE_UNIT ( ) );
#27 = ORIENTED_EDGE ( 'NONE', *, *, #168, .T. ) ;
#28 = PRESENTATION_STYLE_ASSIGNMENT (( #241 ) ) ;
#29 = PLANE ( 'NONE',  #19 ) ;
#30 = VERTEX_POINT ( 'NONE', #308 ) ;
#31 = DIRECTION ( 'NONE',  ( -0.000000000000000000, -1.000000000000000000, -0.000000000000000000 ) ) ;
#32 = CARTESIAN_POINT ( 'NONE',  ( -0.3124999999999996114, 4.000000000000000000, 0.000000000000000000 ) ) ;
#33 =( GEOMETRIC_REPRESENTATION_CONTEXT ( 3 ) GLOBAL_UNCERTAINTY_ASSIGNED_CONTEXT ( ( #68 ) ) GLOBAL_UNIT_ASSIGNED_CONTEXT ( ( #222, #298, #184 ) ) REPRESENTATION_CONTEXT ( 'NONE', 'WORKASPACE' ) );
#34 =( CONVERSION_BASED_UNIT ( 'INCH', #177 ) LENGTH_UNIT ( ) NAMED_UNIT ( #214 ) );
#35 =( CONVERSION_BASED_UNIT ( 'INCH', #248 ) LENGTH_UNIT ( ) NAMED_UNIT ( #163 ) );
#36 = ORIENTED_EDGE ( 'NONE', *, *, #102, .F. ) ;
#37 = CIRCLE ( 'NONE', #114, 0.3125000000000000000 ) ;
#38 =( CONVERSION_BASED_UNIT ( 'INCH', #156 ) LENGTH_UNIT ( ) NAMED_UNIT ( #272 ) );
#39 = CARTESIAN_POINT ( 'NONE',  ( 3.032960542342103792E-32, 2.000000000000000000, 0.000000000000000000 ) ) ;
#40 =( NAMED_UNIT ( * ) SI_UNIT ( $, .STERADIAN. ) SOLID_ANGLE_UNIT ( ) );
#41 =( GEOMETRIC_REPRESENTATION_CONTEXT ( 3 ) GLOBAL_UNCERTAINTY_ASSIGNED_CONTEXT ( ( #258 ) ) GLOBAL_UNIT_ASSIGNED_CONTEXT ( ( #35, #97, #180 ) ) REPRESENTATION_CONTEXT ( 'NONE', 'WORKASPACE' ) );
#42 =( GEOMETRIC_REPRESENTATION_CONTEXT ( 3 ) GLOBAL_UNCERTAINTY_ASSIGNED_CONTEXT ( ( #54 ) ) GLOBAL_UNIT_ASSIGNED_CONTEXT ( ( #78, #53, #256 ) ) REPRESENTATION_CONTEXT ( 'NONE', 'WORKASPACE' ) );
#43 = EDGE_CURVE ( 'NONE', #60, #166, #238, .T. ) ;
#44 = DIMENSIONAL_EXPONENTS ( 1.000000000000000000, 0.000000000000000000, 0.000000000000000000, 0.000000000000000000, 0.000000000000000000, 0.000000000000000000, 0.000000000000000000 ) ;
#45 = COLOUR_RGB ( '',1.000000000000000000, 0.000000000000000000, 0.000000000000000000 ) ;
#46 = DIRECTION ( 'NONE',  ( 1.224646799147353700E-16, 1.000000000000000000, -0.000000000000000000 ) ) ;
#47 = COLOUR_RGB ( '',1.000000000000000000, 0.000000000000000000, 0.000000000000000000 ) ;
#48 = DIRECTION ( 'NONE',  ( -1.000000000000000000, 0.000000000000000000, 0.000000000000000000 ) ) ;
#49 = ORIENTED_EDGE ( 'NONE', *, *, #135, .T. ) ;
#50 = AXIS2_PLACEMENT_3D ( 'NONE', #211, #91, #192 ) ;
#51 = PRESENTATION_LAYER_ASSIGNMENT (  '', '', ( #273 ) ) ;
#52 = ORIENTED_EDGE ( 'NONE', *, *, #197, .T. ) ;
#53 =( NAMED_UNIT ( * ) PLANE_ANGLE_UNIT ( ) SI_UNIT ( $, .RADIAN. ) );
#54 = UNCERTAINTY_MEASURE_WITH_UNIT (LENGTH_MEASURE( 1.000000000000000082E-05 ), #78, 'distance_accuracy_value', 'NONE');
#55 =( LENGTH_UNIT ( ) NAMED_UNIT ( * ) SI_UNIT ( $, .METRE. ) );
#56 = PRODUCT_DEFINITION_SHAPE ( 'NONE', 'NONE',  #58 ) ;
#57 =( GEOMETRIC_REPRESENTATION_CONTEXT ( 3 ) GLOBAL_UNCERTAINTY_ASSIGNED_CONTEXT ( ( #221 ) ) GLOBAL_UNIT_ASSIGNED_CONTEXT ( ( #38, #107, #187 ) ) REPRESENTATION_CONTEXT ( 'NONE', 'WORKASPACE' ) );
#58 = PRODUCT_DEFINITION ( 'UNKNOWN', '', #208, #230 ) ;
#59 = FILL_AREA_STYLE ('',( #123 ) ) ;
#60 = VERTEX_POINT ( 'NONE', #189 ) ;
#61 = CARTESIAN_POINT ( 'NONE',  ( 2.449293598294707400E-16, 4.000000000000000000, 0.000000000000000000 ) ) ;
#62 = CIRCLE ( 'NONE', #292, 0.3125000000000000000 ) ;
#63 = ORIENTED_EDGE ( 'NONE', *, *, #135, .F. ) ;
#64 =( LENGTH_UNIT ( ) NAMED_UNIT ( * ) SI_UNIT ( $, .METRE. ) );
#65 = DIRECTION ( 'NONE',  ( -0.000000000000000000, -1.000000000000000000, -0.000000000000000000 ) ) ;
#66 = APPLICATION_CONTEXT ( 'automotive_design' ) ;
#67 =( NAMED_UNIT ( * ) SI_UNIT ( $, .STERADIAN. ) SOLID_ANGLE_UNIT ( ) );
#68 = UNCERTAINTY_MEASURE_WITH_UNIT (LENGTH_MEASURE( 1.000000000000000082E-05 ), #222, 'distance_accuracy_value', 'NONE');
#69 =( CONVERSION_BASED_UNIT ( 'INCH', #260 ) LENGTH_UNIT ( ) NAMED_UNIT ( #144 ) );
#70 = AXIS2_PLACEMENT_3D ( 'NONE', #239, #210, #157 ) ;
#71 = CIRCLE ( 'NONE', #121, 0.3124999999999997224 ) ;
#72 =( LENGTH_UNIT ( ) NAMED_UNIT ( * ) SI_UNIT ( $, .METRE. ) );
#73 = ADVANCED_FACE ( 'NONE', ( #186 ), #213, .F. ) ;
#74 = FACE_OUTER_BOUND ( 'NONE', #175, .T. ) ;
#75 = PRODUCT_CONTEXT ( 'NONE', #66, 'mechanical' ) ;
#76 = ORIENTED_EDGE ( 'NONE', *, *, #168, .F. ) ;
#77 = SURFACE_SIDE_STYLE ('',( #79 ) ) ;
#78 =( CONVERSION_BASED_UNIT ( 'INCH', #268 ) LENGTH_UNIT ( ) NAMED_UNIT ( #219 ) );
#79 = SURFACE_STYLE_FILL_AREA ( #247 ) ;
#80 = CIRCLE ( 'NONE', #132, 0.3125000000000000000 ) ;
#81 = FACE_OUTER_BOUND ( 'NONE', #16, .T. ) ;
#82 = AXIS2_PLACEMENT_3D ( 'NONE', #133, #136, #237 ) ;
#83 = MECHANICAL_DESIGN_GEOMETRIC_PRESENTATION_REPRESENTATION (  '', ( #147 ), #255 ) ;
#84 = ORIENTED_EDGE ( 'NONE', *, *, #231, .F. ) ;
#85 = DIRECTION ( 'NONE',  ( 1.224646799147353700E-16, 1.000000000000000000, -0.000000000000000000 ) ) ;
#86 = SURFACE_SIDE_STYLE ('',( #205 ) ) ;
#87 = ADVANCED_FACE ( 'NONE', ( #74 ), #290, .T. ) ;
#88 = AXIS2_PLACEMENT_3D ( 'NONE', #232, #284, #206 ) ;
#89 = FACE_OUTER_BOUND ( 'NONE', #194, .T. ) ;
#90 = DIRECTION ( 'NONE',  ( 1.224646799147353700E-16, 1.000000000000000000, -0.000000000000000000 ) ) ;
#91 = DIRECTION ( 'NONE',  ( -1.224646799147353700E-16, -1.000000000000000000, 0.000000000000000000 ) ) ;
#92 = FACE_OUTER_BOUND ( 'NONE', #101, .T. ) ;
#93 = ADVANCED_FACE ( 'NONE', ( #92 ), #24, .T. ) ;
#94 = PLANE ( 'NONE',  #174 ) ;
#95 = CARTESIAN_POINT ( 'NONE',  ( 0.000000000000000000, 2.000000000000000000, 0.000000000000000000 ) ) ;
#96 = CARTESIAN_POINT ( 'NONE',  ( 3.827021247335478926E-17, 0.000000000000000000, 0.3125000000000000000 ) ) ;
#97 =( NAMED_UNIT ( * ) PLANE_ANGLE_UNIT ( ) SI_UNIT ( $, .RADIAN. ) );
#98 = FACE_OUTER_BOUND ( 'NONE', #124, .T. ) ;
#99 = CIRCLE ( 'NONE', #288, 0.3124999999999997224 ) ;
#100 =( LENGTH_UNIT ( ) NAMED_UNIT ( * ) SI_UNIT ( $, .METRE. ) );
#101 = EDGE_LOOP ( 'NONE', ( #276, #270, #274, #76 ) ) ;
#102 = EDGE_CURVE ( 'NONE', #226, #200, #289, .T. ) ;
#103 = FILL_AREA_STYLE ('',( #15 ) ) ;
#104 = FILL_AREA_STYLE ('',( #188 ) ) ;
#105 = DIRECTION ( 'NONE',  ( -1.000000000000000000, 0.000000000000000000, 0.000000000000000000 ) ) ;
#106 = PRESENTATION_STYLE_ASSIGNMENT (( #202 ) ) ;
#107 =( NAMED_UNIT ( * ) PLANE_ANGLE_UNIT ( ) SI_UNIT ( $, .RADIAN. ) );
#108 = VECTOR ( 'NONE', #209, 39.37007874015748143 ) ;
#109 = FILL_AREA_STYLE ('',( #22 ) ) ;
#110 = DIRECTION ( 'NONE',  ( -1.000000000000000000, 0.000000000000000000, 0.000000000000000000 ) ) ;
#111 = ADVANCED_BREP_SHAPE_REPRESENTATION ( '82400', ( #227, #113, #137 ), #160 ) ;
#112 = STYLED_ITEM ( 'NONE', ( #155 ), #23 ) ;
#113 = MANIFOLD_SOLID_BREP ( 'Revolve - Tool Body (Straight Shanked)', #130 ) ;
#114 = AXIS2_PLACEMENT_3D ( 'NONE', #39, #90, #20 ) ;
#115 = CARTESIAN_POINT ( 'NONE',  ( 0.000000000000000000, 0.000000000000000000, 0.000000000000000000 ) ) ;
#116 = DIRECTION ( 'NONE',  ( -1.000000000000000000, 0.000000000000000000, 0.000000000000000000 ) ) ;
#117 = DIRECTION ( 'NONE',  ( 1.000000000000000000, 0.000000000000000000, 0.000000000000000000 ) ) ;
#118 = DIRECTION ( 'NONE',  ( 1.224646799147353700E-16, 1.000000000000000000, -0.000000000000000000 ) ) ;
#119 = PRESENTATION_LAYER_ASSIGNMENT (  '', '', ( #173 ) ) ;
#120 = LENGTH_MEASURE_WITH_UNIT ( LENGTH_MEASURE( 0.02539999999999999897 ), #148 );
#121 = AXIS2_PLACEMENT_3D ( 'NONE', #303, #281, #105 ) ;
#122 = FILL_AREA_STYLE ('',( #142 ) ) ;
#123 = FILL_AREA_STYLE_COLOUR ( '', #152 ) ;
#124 = EDGE_LOOP ( 'NONE', ( #49, #242 ) ) ;
#125 = EDGE_CURVE ( 'NONE', #10, #279, #37, .T. ) ;
#126 = MECHANICAL_DESIGN_GEOMETRIC_PRESENTATION_REPRESENTATION (  '', ( #217 ), #164 ) ;
#127 = AXIS2_PLACEMENT_3D ( 'NONE', #61, #85, #110 ) ;
#128 = SURFACE_SIDE_STYLE ('',( #259 ) ) ;
#129 = CARTESIAN_POINT ( 'NONE',  ( -0.3125000000000000000, 2.000000000000000000, 0.000000000000000000 ) ) ;
#130 = CLOSED_SHELL ( 'NONE', ( #265, #146, #93, #73 ) ) ;
#131 = LINE ( 'NONE', #154, #108 ) ;
#132 = AXIS2_PLACEMENT_3D ( 'NONE', #95, #169, #172 ) ;
#133 = CARTESIAN_POINT ( 'NONE',  ( 0.000000000000000000, 2.000000000000000000, 0.000000000000000000 ) ) ;
#134 = SURFACE_SIDE_STYLE ('',( #21 ) ) ;
#135 = EDGE_CURVE ( 'NONE', #200, #166, #62, .T. ) ;
#136 = DIRECTION ( 'NONE',  ( 0.000000000000000000, 1.000000000000000000, 0.000000000000000000 ) ) ;
#137 = AXIS2_PLACEMENT_3D ( 'NONE', #115, #190, #117 ) ;
#138 = CARTESIAN_POINT ( 'NONE',  ( 0.000000000000000000, 2.000000000000000000, 0.000000000000000000 ) ) ;
#139 = EDGE_CURVE ( 'NONE', #226, #60, #80, .T. ) ;
#140 = CARTESIAN_POINT ( 'NONE',  ( -0.3124999999999994449, 4.000000000000000000, 0.000000000000000000 ) ) ;
#141 = ORIENTED_EDGE ( 'NONE', *, *, #43, .F. ) ;
#142 = FILL_AREA_STYLE_COLOUR ( '', #47 ) ;
#143 = ORIENTED_EDGE ( 'NONE', *, *, #139, .F. ) ;
#144 = DIMENSIONAL_EXPONENTS ( 1.000000000000000000, 0.000000000000000000, 0.000000000000000000, 0.000000000000000000, 0.000000000000000000, 0.000000000000000000, 0.000000000000000000 ) ;
#145 = ORIENTED_EDGE ( 'NONE', *, *, #43, .T. ) ;
#146 = ADVANCED_FACE ( 'NONE', ( #81 ), #29, .F. ) ;
#147 = STYLED_ITEM ( 'NONE', ( #106 ), #176 ) ;
#148 =( LENGTH_UNIT ( ) NAMED_UNIT ( * ) SI_UNIT ( $, .METRE. ) );
#149 = CARTESIAN_POINT ( 'NONE',  ( 0.000000000000000000, 0.000000000000000000, 0.000000000000000000 ) ) ;
#150 = EDGE_CURVE ( 'NONE', #10, #170, #297, .T. ) ;
#151 = MECHANICAL_DESIGN_GEOMETRIC_PRESENTATION_REPRESENTATION (  '', ( #112 ), #41 ) ;
#152 = COLOUR_RGB ( '',1.000000000000000000, 0.000000000000000000, 0.000000000000000000 ) ;
#153 = STYLED_ITEM ( 'NONE', ( #228 ), #302 ) ;
#154 = CARTESIAN_POINT ( 'NONE',  ( 0.3125000000000001665, 4.000000000000000000, 3.827021247335477078E-17 ) ) ;
#155 = PRESENTATION_STYLE_ASSIGNMENT (( #185 ) ) ;
#156 = LENGTH_MEASURE_WITH_UNIT ( LENGTH_MEASURE( 0.02539999999999999897 ), #100 );
#157 = DIRECTION ( 'NONE',  ( -1.000000000000000000, 0.000000000000000000, 0.000000000000000000 ) ) ;
#158 = VECTOR ( 'NONE', #263, 39.37007874015748143 ) ;
#159 = APPLICATION_PROTOCOL_DEFINITION ( 'draft international standard', 'automotive_design', 1998, #5 ) ;
#160 =( GEOMETRIC_REPRESENTATION_CONTEXT ( 3 ) GLOBAL_UNCERTAINTY_ASSIGNED_CONTEXT ( ( #17 ) ) GLOBAL_UNIT_ASSIGNED_CONTEXT ( ( #203, #261, #40 ) ) REPRESENTATION_CONTEXT ( 'NONE', 'WORKASPACE' ) );
#161 =( NAMED_UNIT ( * ) PLANE_ANGLE_UNIT ( ) SI_UNIT ( $, .RADIAN. ) );
#162 = SURFACE_STYLE_FILL_AREA ( #104 ) ;
#163 = DIMENSIONAL_EXPONENTS ( 1.000000000000000000, 0.000000000000000000, 0.000000000000000000, 0.000000000000000000, 0.000000000000000000, 0.000000000000000000, 0.000000000000000000 ) ;
#164 =( GEOMETRIC_REPRESENTATION_CONTEXT ( 3 ) GLOBAL_UNCERTAINTY_ASSIGNED_CONTEXT ( ( #215 ) ) GLOBAL_UNIT_ASSIGNED_CONTEXT ( ( #69, #161, #67 ) ) REPRESENTATION_CONTEXT ( 'NONE', 'WORKASPACE' ) );
#165 = CIRCLE ( 'NONE', #2, 0.3125000000000000000 ) ;
#166 = VERTEX_POINT ( 'NONE', #96 ) ;
#167 = DIRECTION ( 'NONE',  ( 0.000000000000000000, 0.000000000000000000, -1.000000000000000000 ) ) ;
#168 = EDGE_CURVE ( 'NONE', #30, #170, #71, .T. ) ;
#169 = DIRECTION ( 'NONE',  ( -0.000000000000000000, -1.000000000000000000, -0.000000000000000000 ) ) ;
#170 = VERTEX_POINT ( 'NONE', #140 ) ;
#171 = DIRECTION ( 'NONE',  ( 0.000000000000000000, 0.000000000000000000, -1.000000000000000000 ) ) ;
#172 = DIRECTION ( 'NONE',  ( 0.000000000000000000, 0.000000000000000000, -1.000000000000000000 ) ) ;
#173 = STYLED_ITEM ( 'NONE', ( #18 ), #113 ) ;
#174 = AXIS2_PLACEMENT_3D ( 'NONE', #149, #278, #171 ) ;
#175 = EDGE_LOOP ( 'NONE', ( #143, #195 ) ) ;
#176 = ADVANCED_FACE ( 'NONE', ( #98 ), #94, .T. ) ;
#177 = LENGTH_MEASURE_WITH_UNIT ( LENGTH_MEASURE( 0.02539999999999999897 ), #280 );
#178 = PRODUCT_RELATED_PRODUCT_CATEGORY ( 'part', '', ( #275 ) ) ;
#179 =( NAMED_UNIT ( * ) PLANE_ANGLE_UNIT ( ) SI_UNIT ( $, .RADIAN. ) );
#180 =( NAMED_UNIT ( * ) SI_UNIT ( $, .STERADIAN. ) SOLID_ANGLE_UNIT ( ) );
#181 = COLOUR_RGB ( '',1.000000000000000000, 0.000000000000000000, 0.000000000000000000 ) ;
#182 = CYLINDRICAL_SURFACE ( 'NONE', #88, 0.3125000000000000000 ) ;
#183 = ORIENTED_EDGE ( 'NONE', *, *, #125, .F. ) ;
#184 =( NAMED_UNIT ( * ) SI_UNIT ( $, .STERADIAN. ) SOLID_ANGLE_UNIT ( ) );
#185 = SURFACE_STYLE_USAGE ( .BOTH. , #86 ) ;
#186 = FACE_OUTER_BOUND ( 'NONE', #271, .T. ) ;
#187 =( NAMED_UNIT ( * ) SI_UNIT ( $, .STERADIAN. ) SOLID_ANGLE_UNIT ( ) );
#188 = FILL_AREA_STYLE_COLOUR ( '', #45 ) ;
#189 = CARTESIAN_POINT ( 'NONE',  ( 3.827021247335478926E-17, 2.000000000000000000, 0.3125000000000000000 ) ) ;
#190 = DIRECTION ( 'NONE',  ( 0.000000000000000000, 0.000000000000000000, 1.000000000000000000 ) ) ;
#191 = EDGE_CURVE ( 'NONE', #279, #10, #165, .T. ) ;
#192 = DIRECTION ( 'NONE',  ( 1.000000000000000000, -1.224646799147353700E-16, 0.000000000000000000 ) ) ;
#193 = MECHANICAL_DESIGN_GEOMETRIC_PRESENTATION_REPRESENTATION (  '', ( #273 ), #33 ) ;
#194 = EDGE_LOOP ( 'NONE', ( #295, #300, #233, #12 ) ) ;
#195 = ORIENTED_EDGE ( 'NONE', *, *, #197, .F. ) ;
#196 = EDGE_LOOP ( 'NONE', ( #244, #145, #63, #36 ) ) ;
#197 = EDGE_CURVE ( 'NONE', #60, #226, #301, .T. ) ;
#198 = AXIS2_PLACEMENT_3D ( 'NONE', #11, #229, #264 ) ;
#199 = MECHANICAL_DESIGN_GEOMETRIC_PRESENTATION_REPRESENTATION (  '', ( #153 ), #57 ) ;
#200 = VERTEX_POINT ( 'NONE', #216 ) ;
#201 = CARTESIAN_POINT ( 'NONE',  ( 2.449293598294707400E-16, 4.000000000000000000, 0.000000000000000000 ) ) ;
#202 = SURFACE_STYLE_USAGE ( .BOTH. , #134 ) ;
#203 =( CONVERSION_BASED_UNIT ( 'INCH', #305 ) LENGTH_UNIT ( ) NAMED_UNIT ( #44 ) );
#204 = DIRECTION ( 'NONE',  ( 0.000000000000000000, 0.000000000000000000, -1.000000000000000000 ) ) ;
#205 = SURFACE_STYLE_FILL_AREA ( #103 ) ;
#206 = DIRECTION ( 'NONE',  ( 0.000000000000000000, 0.000000000000000000, -1.000000000000000000 ) ) ;
#207 = EDGE_CURVE ( 'NONE', #170, #30, #99, .T. ) ;
#208 = PRODUCT_DEFINITION_FORMATION_WITH_SPECIFIED_SOURCE ( 'ANY', '', #275, .NOT_KNOWN. ) ;
#209 = DIRECTION ( 'NONE',  ( 1.224646799147353700E-16, 1.000000000000000000, -0.000000000000000000 ) ) ;
#210 = DIRECTION ( 'NONE',  ( 1.224646799147353700E-16, 1.000000000000000000, -0.000000000000000000 ) ) ;
#211 = CARTESIAN_POINT ( 'NONE',  ( 0.3125000000000000000, 4.000000000000000000, 0.000000000000000000 ) ) ;
#212 = PRESENTATION_LAYER_ASSIGNMENT (  '', '', ( #147 ) ) ;
#213 = PLANE ( 'NONE',  #50 ) ;
#214 = DIMENSIONAL_EXPONENTS ( 1.000000000000000000, 0.000000000000000000, 0.000000000000000000, 0.000000000000000000, 0.000000000000000000, 0.000000000000000000, 0.000000000000000000 ) ;
#215 = UNCERTAINTY_MEASURE_WITH_UNIT (LENGTH_MEASURE( 1.000000000000000082E-05 ), #69, 'distance_accuracy_value', 'NONE');
#216 = CARTESIAN_POINT ( 'NONE',  ( 0.000000000000000000, 0.000000000000000000, -0.3125000000000000000 ) ) ;
#217 = STYLED_ITEM ( 'NONE', ( #3 ), #87 ) ;
#218 = UNCERTAINTY_MEASURE_WITH_UNIT (LENGTH_MEASURE( 1.000000000000000082E-05 ), #34, 'distance_accuracy_value', 'NONE');
#219 = DIMENSIONAL_EXPONENTS ( 1.000000000000000000, 0.000000000000000000, 0.000000000000000000, 0.000000000000000000, 0.000000000000000000, 0.000000000000000000, 0.000000000000000000 ) ;
#220 = CARTESIAN_POINT ( 'NONE',  ( 2.343374660409154223E-33, 2.000000000000000000, 0.000000000000000000 ) ) ;
#221 = UNCERTAINTY_MEASURE_WITH_UNIT (LENGTH_MEASURE( 1.000000000000000082E-05 ), #38, 'distance_accuracy_value', 'NONE');
#222 =( CONVERSION_BASED_UNIT ( 'INCH', #120 ) LENGTH_UNIT ( ) NAMED_UNIT ( #245 ) );
#223 = PRESENTATION_LAYER_ASSIGNMENT (  '', '', ( #217 ) ) ;
#224 = AXIS2_PLACEMENT_3D ( 'NONE', #4, #14, #204 ) ;
#225 = CARTESIAN_POINT ( 'NONE',  ( 3.032960542342103792E-32, 2.000000000000000000, 0.000000000000000000 ) ) ;
#226 = VERTEX_POINT ( 'NONE', #9 ) ;
#227 = MANIFOLD_SOLID_BREP ( 'Revolve - Cutting Edge', #266 ) ;
#228 = PRESENTATION_STYLE_ASSIGNMENT (( #235 ) ) ;
#229 = DIRECTION ( 'NONE',  ( -0.000000000000000000, -1.000000000000000000, -0.000000000000000000 ) ) ;
#230 = PRODUCT_DEFINITION_CONTEXT ( 'detailed design', #5, 'design' ) ;
#231 = EDGE_CURVE ( 'NONE', #166, #200, #296, .T. ) ;
#232 = CARTESIAN_POINT ( 'NONE',  ( 0.000000000000000000, 0.000000000000000000, 0.000000000000000000 ) ) ;
#233 = ORIENTED_EDGE ( 'NONE', *, *, #207, .F. ) ;
#234 = SURFACE_STYLE_FILL_AREA ( #109 ) ;
#235 = SURFACE_STYLE_USAGE ( .BOTH. , #128 ) ;
#236 =( LENGTH_UNIT ( ) NAMED_UNIT ( * ) SI_UNIT ( $, .METRE. ) );
#237 = DIRECTION ( 'NONE',  ( 0.000000000000000000, -0.000000000000000000, 1.000000000000000000 ) ) ;
#238 = LINE ( 'NONE', #307, #287 ) ;
#239 = CARTESIAN_POINT ( 'NONE',  ( 2.449293598294707400E-16, 4.000000000000000000, 0.000000000000000000 ) ) ;
#240 = DIRECTION ( 'NONE',  ( 1.224646799147353700E-16, 1.000000000000000000, -0.000000000000000000 ) ) ;
#241 = SURFACE_STYLE_USAGE ( .BOTH. , #77 ) ;
#242 = ORIENTED_EDGE ( 'NONE', *, *, #231, .T. ) ;
#243 = MECHANICAL_DESIGN_GEOMETRIC_PRESENTATION_REPRESENTATION (  '', ( #173 ), #42 ) ;
#244 = ORIENTED_EDGE ( 'NONE', *, *, #139, .T. ) ;
#245 = DIMENSIONAL_EXPONENTS ( 1.000000000000000000, 0.000000000000000000, 0.000000000000000000, 0.000000000000000000, 0.000000000000000000, 0.000000000000000000, 0.000000000000000000 ) ;
#246 = DIRECTION ( 'NONE',  ( -1.000000000000000000, 1.224646799147353700E-16, 0.000000000000000000 ) ) ;
#247 = FILL_AREA_STYLE ('',( #291 ) ) ;
#248 = LENGTH_MEASURE_WITH_UNIT ( LENGTH_MEASURE( 0.02539999999999999897 ), #55 );
#249 = DIRECTION ( 'NONE',  ( -0.000000000000000000, -1.000000000000000000, -0.000000000000000000 ) ) ;
#250 = CYLINDRICAL_SURFACE ( 'NONE', #198, 0.3125000000000000000 ) ;
#251 = APPLICATION_PROTOCOL_DEFINITION ( 'draft international standard', 'automotive_design', 1998, #66 ) ;
#252 = CARTESIAN_POINT ( 'NONE',  ( 0.3125000000000000000, 2.000000000000000000, 3.827021247335477694E-17 ) ) ;
#253 = EDGE_LOOP ( 'NONE', ( #141, #52, #299, #84 ) ) ;
#254 = PRESENTATION_LAYER_ASSIGNMENT (  '', '', ( #112 ) ) ;
#255 =( GEOMETRIC_REPRESENTATION_CONTEXT ( 3 ) GLOBAL_UNCERTAINTY_ASSIGNED_CONTEXT ( ( #218 ) ) GLOBAL_UNIT_ASSIGNED_CONTEXT ( ( #34, #179, #26 ) ) REPRESENTATION_CONTEXT ( 'NONE', 'WORKASPACE' ) );
#256 =( NAMED_UNIT ( * ) SI_UNIT ( $, .STERADIAN. ) SOLID_ANGLE_UNIT ( ) );
#257 = FACE_OUTER_BOUND ( 'NONE', #196, .T. ) ;
#258 = UNCERTAINTY_MEASURE_WITH_UNIT (LENGTH_MEASURE( 1.000000000000000082E-05 ), #35, 'distance_accuracy_value', 'NONE');
#259 = SURFACE_STYLE_FILL_AREA ( #59 ) ;
#260 = LENGTH_MEASURE_WITH_UNIT ( LENGTH_MEASURE( 0.02539999999999999897 ), #72 );
#261 =( NAMED_UNIT ( * ) PLANE_ANGLE_UNIT ( ) SI_UNIT ( $, .RADIAN. ) );
#262 = SURFACE_SIDE_STYLE ('',( #234 ) ) ;
#263 = DIRECTION ( 'NONE',  ( -0.000000000000000000, -1.000000000000000000, -0.000000000000000000 ) ) ;
#264 = DIRECTION ( 'NONE',  ( 0.000000000000000000, 0.000000000000000000, -1.000000000000000000 ) ) ;
#265 = ADVANCED_FACE ( 'NONE', ( #89 ), #304, .T. ) ;
#266 = CLOSED_SHELL ( 'NONE', ( #302, #87, #23, #176 ) ) ;
#267 = VECTOR ( 'NONE', #6, 39.37007874015748143 ) ;
#268 = LENGTH_MEASURE_WITH_UNIT ( LENGTH_MEASURE( 0.02539999999999999897 ), #236 );
#269 = ORIENTED_EDGE ( 'NONE', *, *, #191, .F. ) ;
#270 = ORIENTED_EDGE ( 'NONE', *, *, #191, .T. ) ;
#271 = EDGE_LOOP ( 'NONE', ( #277, #27 ) ) ;
#272 = DIMENSIONAL_EXPONENTS ( 1.000000000000000000, 0.000000000000000000, 0.000000000000000000, 0.000000000000000000, 0.000000000000000000, 0.000000000000000000, 0.000000000000000000 ) ;
#273 = STYLED_ITEM ( 'NONE', ( #28 ), #227 ) ;
#274 = ORIENTED_EDGE ( 'NONE', *, *, #150, .T. ) ;
#275 = PRODUCT ( '82400', '82400', '', ( #75 ) ) ;
#276 = ORIENTED_EDGE ( 'NONE', *, *, #283, .F. ) ;
#277 = ORIENTED_EDGE ( 'NONE', *, *, #207, .T. ) ;
#278 = DIRECTION ( 'NONE',  ( 0.000000000000000000, -1.000000000000000000, -0.000000000000000000 ) ) ;
#279 = VERTEX_POINT ( 'NONE', #252 ) ;
#280 =( LENGTH_UNIT ( ) NAMED_UNIT ( * ) SI_UNIT ( $, .METRE. ) );
#281 = DIRECTION ( 'NONE',  ( 1.224646799147353700E-16, 1.000000000000000000, -0.000000000000000000 ) ) ;
#282 = FACE_OUTER_BOUND ( 'NONE', #253, .T. ) ;
#283 = EDGE_CURVE ( 'NONE', #279, #30, #131, .T. ) ;
#284 = DIRECTION ( 'NONE',  ( -0.000000000000000000, -1.000000000000000000, -0.000000000000000000 ) ) ;
#285 = SURFACE_STYLE_USAGE ( .BOTH. , #262 ) ;
#286 = SURFACE_STYLE_USAGE ( .BOTH. , #309 ) ;
#287 = VECTOR ( 'NONE', #65, 39.37007874015748143 ) ;
#288 = AXIS2_PLACEMENT_3D ( 'NONE', #201, #240, #116 ) ;
#289 = LINE ( 'NONE', #306, #158 ) ;
#290 = PLANE ( 'NONE',  #82 ) ;
#291 = FILL_AREA_STYLE_COLOUR ( '', #13 ) ;
#292 = AXIS2_PLACEMENT_3D ( 'NONE', #294, #31, #8 ) ;
#293 = SHAPE_DEFINITION_REPRESENTATION ( #56, #111 ) ;
#294 = CARTESIAN_POINT ( 'NONE',  ( 0.000000000000000000, 0.000000000000000000, 0.000000000000000000 ) ) ;
#295 = ORIENTED_EDGE ( 'NONE', *, *, #125, .T. ) ;
#296 = CIRCLE ( 'NONE', #224, 0.3125000000000000000 ) ;
#297 = LINE ( 'NONE', #32, #267 ) ;
#298 =( NAMED_UNIT ( * ) PLANE_ANGLE_UNIT ( ) SI_UNIT ( $, .RADIAN. ) );
#299 = ORIENTED_EDGE ( 'NONE', *, *, #102, .T. ) ;
#300 = ORIENTED_EDGE ( 'NONE', *, *, #283, .T. ) ;
#301 = CIRCLE ( 'NONE', #7, 0.3125000000000000000 ) ;
#302 = ADVANCED_FACE ( 'NONE', ( #257 ), #182, .T. ) ;
#303 = CARTESIAN_POINT ( 'NONE',  ( 2.449293598294707400E-16, 4.000000000000000000, 0.000000000000000000 ) ) ;
#304 = CYLINDRICAL_SURFACE ( 'NONE', #127, 0.3124999999999998890 ) ;
#305 = LENGTH_MEASURE_WITH_UNIT ( LENGTH_MEASURE( 0.02539999999999999897 ), #64 );
#306 = CARTESIAN_POINT ( 'NONE',  ( 0.000000000000000000, 0.000000000000000000, -0.3125000000000000000 ) ) ;
#307 = CARTESIAN_POINT ( 'NONE',  ( 3.827021247335478926E-17, 0.000000000000000000, 0.3125000000000000000 ) ) ;
#308 = CARTESIAN_POINT ( 'NONE',  ( 0.3125000000000000000, 4.000000000000000000, 3.827021247335477694E-17 ) ) ;
#309 = SURFACE_SIDE_STYLE ('',( #162 ) ) ;
ENDSEC;
END-ISO-10303-21;
