ISO-10303-21;
HEADER;
FILE_DESCRIPTION (( 'STEP AP214' ),
    '1' );
FILE_NAME ('Micro_GEL-375-2.STEP',
    '2021-09-01T18:11:40',
    ( '' ),
    ( '' ),
    'SwSTEP 2.0',
    'SolidWorks 2020',
    '' );
FILE_SCHEMA (( 'AUTOMOTIVE_DESIGN' ));
ENDSEC;

DATA;
#1 = DIRECTION ( 'NONE',  ( -0.0000000000000000000, -0.0000000000000000000, -1.000000000000000000 ) ) ;
#2 = ORIENTED_EDGE ( 'NONE', *, *, #213, .F. ) ;
#3 = CARTESIAN_POINT ( 'NONE',  ( 2.809237542898491532E-33, 0.0000000000000000000, 2.293916535652885596E-17 ) ) ;
#4 = UNCERTAINTY_MEASURE_WITH_UNIT (LENGTH_MEASURE( 1.000000000000000082E-05 ), #190, 'distance_accuracy_value', 'NONE');
#5 = LINE ( 'NONE', #58, #52 ) ;
#6 = AXIS2_PLACEMENT_3D ( 'NONE', #201, #90, #108 ) ;
#7 = FACE_OUTER_BOUND ( 'NONE', #180, .T. ) ;
#8 = PRODUCT_DEFINITION ( 'UNKNOWN', '', #100, #283 ) ;
#9 = CARTESIAN_POINT ( 'NONE',  ( -0.1873124999999999929, 0.0000000000000000000, 4.587833071305771192E-17 ) ) ;
#10 = AXIS2_PLACEMENT_3D ( 'NONE', #163, #239, #117 ) ;
#11 = PRESENTATION_STYLE_ASSIGNMENT (( #126 ) ) ;
#12 = DIRECTION ( 'NONE',  ( -0.1736481776669312194, 2.126576849575783625E-17, 0.9848077530122080203 ) ) ;
#13 = ORIENTED_EDGE ( 'NONE', *, *, #77, .F. ) ;
#14 = DIRECTION ( 'NONE',  ( 0.0000000000000000000, 0.0000000000000000000, 1.000000000000000000 ) ) ;
#15 = AXIS2_PLACEMENT_3D ( 'NONE', #76, #31, #290 ) ;
#16 = FACE_OUTER_BOUND ( 'NONE', #249, .T. ) ;
#17 = STYLED_ITEM ( 'NONE', ( #139 ), #198 ) ;
#18 = CARTESIAN_POINT ( 'NONE',  ( 0.0000000000000000000, 0.0000000000000000000, 4.000000000000000000 ) ) ;
#19 = FILL_AREA_STYLE_COLOUR ( '', #258 ) ;
#20 = VERTEX_POINT ( 'NONE', #216 ) ;
#21 = AXIS2_PLACEMENT_3D ( 'NONE', #133, #233, #270 ) ;
#22 = VECTOR ( 'NONE', #41, 39.37007874015748854 ) ;
#23 = EDGE_CURVE ( 'NONE', #119, #134, #123, .T. ) ;
#24 = SURFACE_SIDE_STYLE ('',( #210 ) ) ;
#25 = SHAPE_DEFINITION_REPRESENTATION ( #227, #198 ) ;
#26 = ORIENTED_EDGE ( 'NONE', *, *, #46, .F. ) ;
#27 = VECTOR ( 'NONE', #12, 39.37007874015747433 ) ;
#28 = CARTESIAN_POINT ( 'NONE',  ( 0.1873124999999999929, 2.293916535652885596E-17, 0.0000000000000000000 ) ) ;
#29 = CLOSED_SHELL ( 'NONE', ( #232, #30, #154, #285, #51, #36, #128, #138, #252, #256 ) ) ;
#30 = ADVANCED_FACE ( 'NONE', ( #188 ), #83, .T. ) ;
#31 = DIRECTION ( 'NONE',  ( -1.224646799147353207E-16, -0.0000000000000000000, -1.000000000000000000 ) ) ;
#32 = APPLICATION_CONTEXT ( 'automotive_design' ) ;
#33 = VECTOR ( 'NONE', #173, 39.37007874015748143 ) ;
#34 = ORIENTED_EDGE ( 'NONE', *, *, #110, .T. ) ;
#35 = DIMENSIONAL_EXPONENTS ( 1.000000000000000000, 0.0000000000000000000, 0.0000000000000000000, 0.0000000000000000000, 0.0000000000000000000, 0.0000000000000000000, 0.0000000000000000000 ) ;
#36 = ADVANCED_FACE ( 'NONE', ( #200 ), #172, .T. ) ;
#37 = FACE_OUTER_BOUND ( 'NONE', #107, .T. ) ;
#38 = ORIENTED_EDGE ( 'NONE', *, *, #220, .T. ) ;
#39 = DIRECTION ( 'NONE',  ( -1.000000000000000000, 0.0000000000000000000, 0.0000000000000000000 ) ) ;
#40 = VERTEX_POINT ( 'NONE', #9 ) ;
#41 = DIRECTION ( 'NONE',  ( -0.7071067811865321406, 0.0000000000000000000, -0.7071067811865627828 ) ) ;
#42 = ORIENTED_EDGE ( 'NONE', *, *, #77, .T. ) ;
#43 =( NAMED_UNIT ( * ) PLANE_ANGLE_UNIT ( ) SI_UNIT ( $, .RADIAN. ) );
#44 = VERTEX_POINT ( 'NONE', #28 ) ;
#45 =( GEOMETRIC_REPRESENTATION_CONTEXT ( 3 ) GLOBAL_UNCERTAINTY_ASSIGNED_CONTEXT ( ( #4 ) ) GLOBAL_UNIT_ASSIGNED_CONTEXT ( ( #190, #72, #93 ) ) REPRESENTATION_CONTEXT ( 'NONE', 'WORKASPACE' ) );
#46 = EDGE_CURVE ( 'NONE', #183, #85, #286, .T. ) ;
#47 = DIRECTION ( 'NONE',  ( 1.000000000000000000, 0.0000000000000000000, 0.0000000000000000000 ) ) ;
#48 = APPLICATION_PROTOCOL_DEFINITION ( 'draft international standard', 'automotive_design', 1998, #54 ) ;
#49 = VERTEX_POINT ( 'NONE', #287 ) ;
#50 = UNCERTAINTY_MEASURE_WITH_UNIT (LENGTH_MEASURE( 1.000000000000000082E-05 ), #186, 'distance_accuracy_value', 'NONE');
#51 = ADVANCED_FACE ( 'NONE', ( #98 ), #266, .T. ) ;
#52 = VECTOR ( 'NONE', #284, 39.37007874015748143 ) ;
#53 = CIRCLE ( 'NONE', #105, 0.1875000000000000278 ) ;
#54 = APPLICATION_CONTEXT ( 'automotive_design' ) ;
#55 = CARTESIAN_POINT ( 'NONE',  ( -0.1724999999999998757, 0.0000000000000000000, 4.000000000000000000 ) ) ;
#56 = DIRECTION ( 'NONE',  ( -1.224646799147353207E-16, -0.0000000000000000000, -1.000000000000000000 ) ) ;
#57 = LINE ( 'NONE', #103, #127 ) ;
#58 = CARTESIAN_POINT ( 'NONE',  ( -0.1875000000000000278, 0.0000000000000000000, 4.000000000000000000 ) ) ;
#59 = DIRECTION ( 'NONE',  ( 0.0000000000000000000, 0.0000000000000000000, -1.000000000000000000 ) ) ;
#60 = EDGE_CURVE ( 'NONE', #299, #242, #5, .T. ) ;
#61 = CIRCLE ( 'NONE', #238, 0.1873124999999999929 ) ;
#62 = FACE_OUTER_BOUND ( 'NONE', #91, .T. ) ;
#63 = CARTESIAN_POINT ( 'NONE',  ( -0.1874999999999998057, 0.0000000000000000000, 1.751063365341178457 ) ) ;
#64 = EDGE_CURVE ( 'NONE', #85, #242, #275, .T. ) ;
#65 = DIRECTION ( 'NONE',  ( -1.000000000000000000, 0.0000000000000000000, 1.224646799147352961E-16 ) ) ;
#66 = AXIS2_PLACEMENT_3D ( 'NONE', #217, #147, #264 ) ;
#67 = FILL_AREA_STYLE_COLOUR ( '', #152 ) ;
#68 = EDGE_LOOP ( 'NONE', ( #150, #135, #212, #13 ) ) ;
#69 = ORIENTED_EDGE ( 'NONE', *, *, #288, .F. ) ;
#70 = CARTESIAN_POINT ( 'NONE',  ( 2.144434145469266544E-16, 0.0000000000000000000, 1.751063365341178457 ) ) ;
#71 = ORIENTED_EDGE ( 'NONE', *, *, #288, .T. ) ;
#72 =( NAMED_UNIT ( * ) PLANE_ANGLE_UNIT ( ) SI_UNIT ( $, .RADIAN. ) );
#73 = LENGTH_MEASURE_WITH_UNIT ( LENGTH_MEASURE( 0.02539999999999999897 ), #115 );
#74 = EDGE_LOOP ( 'NONE', ( #155, #204, #69, #211 ) ) ;
#75 = MECHANICAL_DESIGN_GEOMETRIC_PRESENTATION_REPRESENTATION (  '', ( #225 ), #178 ) ;
#76 = CARTESIAN_POINT ( 'NONE',  ( 2.144434145469266544E-16, 0.0000000000000000000, 1.751063365341178457 ) ) ;
#77 = EDGE_CURVE ( 'NONE', #20, #40, #246, .T. ) ;
#78 = LINE ( 'NONE', #222, #92 ) ;
#79 = MECHANICAL_DESIGN_GEOMETRIC_PRESENTATION_REPRESENTATION (  '', ( #17 ), #174 ) ;
#80 = DIRECTION ( 'NONE',  ( 0.0000000000000000000, 0.0000000000000000000, -1.000000000000000000 ) ) ;
#81 = LENGTH_MEASURE_WITH_UNIT ( LENGTH_MEASURE( 0.02539999999999999897 ), #176 );
#82 = CARTESIAN_POINT ( 'NONE',  ( 2.809237542898491532E-33, 0.0000000000000000000, 2.293916535652885596E-17 ) ) ;
#83 = CONICAL_SURFACE ( 'NONE', #224, 0.1873124999999999929, 0.1745329251994339192 ) ;
#84 =( NAMED_UNIT ( * ) SI_UNIT ( $, .STERADIAN. ) SOLID_ANGLE_UNIT ( ) );
#85 = VERTEX_POINT ( 'NONE', #125 ) ;
#86 = EDGE_CURVE ( 'NONE', #119, #183, #78, .T. ) ;
#87 = DIRECTION ( 'NONE',  ( -1.224646799147353207E-16, -0.0000000000000000000, -1.000000000000000000 ) ) ;
#88 = ORIENTED_EDGE ( 'NONE', *, *, #280, .F. ) ;
#89 = PRODUCT ( 'Micro_GEL-375-2', 'Micro_GEL-375-2', '', ( #260 ) ) ;
#90 = DIRECTION ( 'NONE',  ( -1.224646799147353207E-16, -0.0000000000000000000, -1.000000000000000000 ) ) ;
#91 = EDGE_LOOP ( 'NONE', ( #276, #230, #42, #236 ) ) ;
#92 = VECTOR ( 'NONE', #263, 39.37007874015748854 ) ;
#93 =( NAMED_UNIT ( * ) SI_UNIT ( $, .STERADIAN. ) SOLID_ANGLE_UNIT ( ) );
#94 = CARTESIAN_POINT ( 'NONE',  ( -0.1724999999999998757, 0.0000000000000000000, 4.000000000000000000 ) ) ;
#95 = AXIS2_PLACEMENT_3D ( 'NONE', #203, #206, #106 ) ;
#96 = EDGE_CURVE ( 'NONE', #183, #299, #261, .T. ) ;
#97 = CARTESIAN_POINT ( 'NONE',  ( 0.0000000000000000000, 0.0000000000000000000, 4.000000000000000000 ) ) ;
#98 = FACE_OUTER_BOUND ( 'NONE', #207, .T. ) ;
#99 = CIRCLE ( 'NONE', #95, 0.1875000000000000278 ) ;
#100 = PRODUCT_DEFINITION_FORMATION_WITH_SPECIFIED_SOURCE ( 'ANY', '', #89, .NOT_KNOWN. ) ;
#101 = DIRECTION ( 'NONE',  ( 1.224646799147353207E-16, 0.0000000000000000000, 1.000000000000000000 ) ) ;
#102 = EDGE_CURVE ( 'NONE', #44, #40, #177, .T. ) ;
#103 = CARTESIAN_POINT ( 'NONE',  ( 0.1873125000000001872, 0.0000000000000000000, 1.750000000000000000 ) ) ;
#104 = AXIS2_PLACEMENT_3D ( 'NONE', #267, #175, #218 ) ;
#105 = AXIS2_PLACEMENT_3D ( 'NONE', #70, #192, #295 ) ;
#106 = DIRECTION ( 'NONE',  ( 1.000000000000000000, 0.0000000000000000000, 0.0000000000000000000 ) ) ;
#107 = EDGE_LOOP ( 'NONE', ( #38, #234 ) ) ;
#108 = DIRECTION ( 'NONE',  ( -1.000000000000000000, 0.0000000000000000000, 1.224646799147352961E-16 ) ) ;
#109 = ORIENTED_EDGE ( 'NONE', *, *, #96, .T. ) ;
#110 = EDGE_CURVE ( 'NONE', #49, #85, #57, .T. ) ;
#111 = DIRECTION ( 'NONE',  ( 0.0000000000000000000, 0.0000000000000000000, 1.000000000000000000 ) ) ;
#112 = CARTESIAN_POINT ( 'NONE',  ( 0.1873124999999999929, 2.293916535652885596E-17, -2.293916535652885596E-17 ) ) ;
#113 = ORIENTED_EDGE ( 'NONE', *, *, #280, .T. ) ;
#114 = AXIS2_PLACEMENT_3D ( 'NONE', #274, #111, #294 ) ;
#115 =( LENGTH_UNIT ( ) NAMED_UNIT ( * ) SI_UNIT ( $, .METRE. ) );
#116 = ORIENTED_EDGE ( 'NONE', *, *, #86, .F. ) ;
#117 = DIRECTION ( 'NONE',  ( 1.000000000000000000, 0.0000000000000000000, 0.0000000000000000000 ) ) ;
#118 = EDGE_LOOP ( 'NONE', ( #2, #140, #34, #157 ) ) ;
#119 = VERTEX_POINT ( 'NONE', #262 ) ;
#120 = CONICAL_SURFACE ( 'NONE', #289, 0.1873124999999999929, 0.1745329251994339192 ) ;
#121 = UNCERTAINTY_MEASURE_WITH_UNIT (LENGTH_MEASURE( 1.000000000000000082E-05 ), #291, 'distance_accuracy_value', 'NONE');
#122 = DIRECTION ( 'NONE',  ( 1.000000000000000000, 0.0000000000000000000, 0.0000000000000000000 ) ) ;
#123 = CIRCLE ( 'NONE', #184, 0.1724999999999998757 ) ;
#124 = FACE_OUTER_BOUND ( 'NONE', #118, .T. ) ;
#125 = CARTESIAN_POINT ( 'NONE',  ( 0.1875000000000002220, 2.296212748401290191E-17, 1.751063365341178457 ) ) ;
#126 = SURFACE_STYLE_USAGE ( .BOTH. , #229 ) ;
#127 = VECTOR ( 'NONE', #144, 39.37007874015748143 ) ;
#128 = ADVANCED_FACE ( 'NONE', ( #7 ), #265, .T. ) ;
#129 = PLANE ( 'NONE',  #146 ) ;
#130 = DIRECTION ( 'NONE',  ( -1.000000000000000000, 0.0000000000000000000, 0.0000000000000000000 ) ) ;
#131 = AXIS2_PLACEMENT_3D ( 'NONE', #199, #80, #219 ) ;
#132 = PRESENTATION_LAYER_ASSIGNMENT (  '', '', ( #225 ) ) ;
#133 = CARTESIAN_POINT ( 'NONE',  ( 2.143131898507868051E-16, 0.0000000000000000000, 1.750000000000000000 ) ) ;
#134 = VERTEX_POINT ( 'NONE', #55 ) ;
#135 = ORIENTED_EDGE ( 'NONE', *, *, #165, .T. ) ;
#136 =( NAMED_UNIT ( * ) SI_UNIT ( $, .STERADIAN. ) SOLID_ANGLE_UNIT ( ) );
#137 = ORIENTED_EDGE ( 'NONE', *, *, #161, .F. ) ;
#138 = ADVANCED_FACE ( 'NONE', ( #124 ), #120, .T. ) ;
#139 = PRESENTATION_STYLE_ASSIGNMENT (( #298 ) ) ;
#140 = ORIENTED_EDGE ( 'NONE', *, *, #197, .F. ) ;
#141 = AXIS2_PLACEMENT_3D ( 'NONE', #97, #1, #162 ) ;
#142 = CARTESIAN_POINT ( 'NONE',  ( 2.143131898507868051E-16, 0.0000000000000000000, 1.750000000000000000 ) ) ;
#143 = DIRECTION ( 'NONE',  ( 0.0000000000000000000, 0.0000000000000000000, -1.000000000000000000 ) ) ;
#144 = DIRECTION ( 'NONE',  ( 0.1736481776669314137, 0.0000000000000000000, 0.9848077530122077983 ) ) ;
#145 = AXIS2_PLACEMENT_3D ( 'NONE', #170, #143, #122 ) ;
#146 = AXIS2_PLACEMENT_3D ( 'NONE', #231, #14, #278 ) ;
#147 = DIRECTION ( 'NONE',  ( 0.0000000000000000000, 0.0000000000000000000, 1.000000000000000000 ) ) ;
#148 = CARTESIAN_POINT ( 'NONE',  ( 0.1875000000000000278, 2.296212748401287726E-17, 4.000000000000000000 ) ) ;
#149 = CARTESIAN_POINT ( 'NONE',  ( -0.1873124999999997708, 2.293916535652885596E-17, 1.750000000000000000 ) ) ;
#150 = ORIENTED_EDGE ( 'NONE', *, *, #193, .T. ) ;
#151 = CIRCLE ( 'NONE', #21, 0.1873124999999999929 ) ;
#152 = COLOUR_RGB ( '',0.7921568627450980005, 0.8196078431372548767, 0.9333333333333333481 ) ;
#153 = CYLINDRICAL_SURFACE ( 'NONE', #185, 0.1873124999999999929 ) ;
#154 = ADVANCED_FACE ( 'NONE', ( #16 ), #250, .T. ) ;
#155 = ORIENTED_EDGE ( 'NONE', *, *, #228, .T. ) ;
#156 = CARTESIAN_POINT ( 'NONE',  ( 0.1875000000000000278, 2.296212748401287726E-17, 3.984999999999998987 ) ) ;
#157 = ORIENTED_EDGE ( 'NONE', *, *, #64, .T. ) ;
#158 = CIRCLE ( 'NONE', #195, 0.1873124999999999929 ) ;
#159 = DIRECTION ( 'NONE',  ( -1.224646799147353207E-16, -0.0000000000000000000, -1.000000000000000000 ) ) ;
#160 = EDGE_LOOP ( 'NONE', ( #245, #273 ) ) ;
#161 = EDGE_CURVE ( 'NONE', #134, #119, #257, .T. ) ;
#162 = DIRECTION ( 'NONE',  ( -1.000000000000000000, 0.0000000000000000000, 0.0000000000000000000 ) ) ;
#163 = CARTESIAN_POINT ( 'NONE',  ( 0.0000000000000000000, 0.0000000000000000000, 0.0000000000000000000 ) ) ;
#164 = ORIENTED_EDGE ( 'NONE', *, *, #60, .T. ) ;
#165 = EDGE_CURVE ( 'NONE', #49, #44, #205, .T. ) ;
#166 = FILL_AREA_STYLE ('',( #19 ) ) ;
#167 = DIRECTION ( 'NONE',  ( 0.0000000000000000000, 0.0000000000000000000, 1.000000000000000000 ) ) ;
#168 = LINE ( 'NONE', #94, #22 ) ;
#169 = DIRECTION ( 'NONE',  ( 1.000000000000000000, 0.0000000000000000000, 0.0000000000000000000 ) ) ;
#170 = CARTESIAN_POINT ( 'NONE',  ( 0.0000000000000000000, 0.0000000000000000000, 3.984999999999998987 ) ) ;
#171 = DIMENSIONAL_EXPONENTS ( 1.000000000000000000, 0.0000000000000000000, 0.0000000000000000000, 0.0000000000000000000, 0.0000000000000000000, 0.0000000000000000000, 0.0000000000000000000 ) ;
#172 = PLANE ( 'NONE',  #66 ) ;
#173 = DIRECTION ( 'NONE',  ( -1.224646799147353207E-16, -0.0000000000000000000, -1.000000000000000000 ) ) ;
#174 =( GEOMETRIC_REPRESENTATION_CONTEXT ( 3 ) GLOBAL_UNCERTAINTY_ASSIGNED_CONTEXT ( ( #50 ) ) GLOBAL_UNIT_ASSIGNED_CONTEXT ( ( #186, #43, #136 ) ) REPRESENTATION_CONTEXT ( 'NONE', 'WORKASPACE' ) );
#175 = DIRECTION ( 'NONE',  ( -0.0000000000000000000, -0.0000000000000000000, -1.000000000000000000 ) ) ;
#176 =( LENGTH_UNIT ( ) NAMED_UNIT ( * ) SI_UNIT ( $, .METRE. ) );
#177 = CIRCLE ( 'NONE', #279, 0.1873124999999999929 ) ;
#178 =( GEOMETRIC_REPRESENTATION_CONTEXT ( 3 ) GLOBAL_UNCERTAINTY_ASSIGNED_CONTEXT ( ( #121 ) ) GLOBAL_UNIT_ASSIGNED_CONTEXT ( ( #291, #248, #84 ) ) REPRESENTATION_CONTEXT ( 'NONE', 'WORKASPACE' ) );
#179 = FACE_OUTER_BOUND ( 'NONE', #68, .T. ) ;
#180 = EDGE_LOOP ( 'NONE', ( #116, #137, #113, #237 ) ) ;
#181 = DIRECTION ( 'NONE',  ( -1.224646799147353207E-16, -0.0000000000000000000, -1.000000000000000000 ) ) ;
#182 = DIRECTION ( 'NONE',  ( -1.000000000000000000, 0.0000000000000000000, 1.224646799147352961E-16 ) ) ;
#183 = VERTEX_POINT ( 'NONE', #156 ) ;
#184 = AXIS2_PLACEMENT_3D ( 'NONE', #296, #167, #47 ) ;
#185 = AXIS2_PLACEMENT_3D ( 'NONE', #251, #87, #182 ) ;
#186 =( CONVERSION_BASED_UNIT ( 'INCH', #215 ) LENGTH_UNIT ( ) NAMED_UNIT ( #171 ) );
#187 = ORIENTED_EDGE ( 'NONE', *, *, #110, .F. ) ;
#188 = FACE_OUTER_BOUND ( 'NONE', #277, .T. ) ;
#189 = PRESENTATION_LAYER_ASSIGNMENT (  '', '', ( #17 ) ) ;
#190 =( CONVERSION_BASED_UNIT ( 'INCH', #73 ) LENGTH_UNIT ( ) NAMED_UNIT ( #226 ) );
#191 = ORIENTED_EDGE ( 'NONE', *, *, #64, .F. ) ;
#192 = DIRECTION ( 'NONE',  ( -1.224646799147353207E-16, -0.0000000000000000000, -1.000000000000000000 ) ) ;
#193 = EDGE_CURVE ( 'NONE', #20, #49, #151, .T. ) ;
#194 = CARTESIAN_POINT ( 'NONE',  ( -0.1873124999999999929, 0.0000000000000000000, 2.293916535652885596E-17 ) ) ;
#195 = AXIS2_PLACEMENT_3D ( 'NONE', #268, #181, #39 ) ;
#196 = DIRECTION ( 'NONE',  ( -0.0000000000000000000, -0.0000000000000000000, -1.000000000000000000 ) ) ;
#197 = EDGE_CURVE ( 'NONE', #49, #20, #158, .T. ) ;
#198 = ADVANCED_BREP_SHAPE_REPRESENTATION ( 'Micro_GEL-375-2', ( #243, #10 ), #45 ) ;
#199 = CARTESIAN_POINT ( 'NONE',  ( 0.0000000000000000000, 0.0000000000000000000, 4.000000000000000000 ) ) ;
#200 = FACE_OUTER_BOUND ( 'NONE', #160, .T. ) ;
#201 = CARTESIAN_POINT ( 'NONE',  ( 0.0000000000000000000, 0.0000000000000000000, 0.0000000000000000000 ) ) ;
#202 = FILL_AREA_STYLE ('',( #67 ) ) ;
#203 = CARTESIAN_POINT ( 'NONE',  ( 0.0000000000000000000, 0.0000000000000000000, 3.984999999999998987 ) ) ;
#204 = ORIENTED_EDGE ( 'NONE', *, *, #46, .T. ) ;
#205 = LINE ( 'NONE', #112, #253 ) ;
#206 = DIRECTION ( 'NONE',  ( 0.0000000000000000000, 0.0000000000000000000, -1.000000000000000000 ) ) ;
#207 = EDGE_LOOP ( 'NONE', ( #26, #109, #164, #191 ) ) ;
#208 =( LENGTH_UNIT ( ) NAMED_UNIT ( * ) SI_UNIT ( $, .METRE. ) );
#209 = AXIS2_PLACEMENT_3D ( 'NONE', #18, #59, #130 ) ;
#210 = SURFACE_STYLE_FILL_AREA ( #166 ) ;
#211 = ORIENTED_EDGE ( 'NONE', *, *, #60, .F. ) ;
#212 = ORIENTED_EDGE ( 'NONE', *, *, #220, .F. ) ;
#213 = EDGE_CURVE ( 'NONE', #20, #242, #272, .T. ) ;
#214 = CYLINDRICAL_SURFACE ( 'NONE', #141, 0.1875000000000000278 ) ;
#215 = LENGTH_MEASURE_WITH_UNIT ( LENGTH_MEASURE( 0.02539999999999999897 ), #208 );
#216 = CARTESIAN_POINT ( 'NONE',  ( -0.1873124999999997708, 2.295064642027086507E-17, 1.750000000000000000 ) ) ;
#217 = CARTESIAN_POINT ( 'NONE',  ( 0.0000000000000000000, 0.0000000000000000000, 4.000000000000000000 ) ) ;
#218 = DIRECTION ( 'NONE',  ( -1.000000000000000000, 0.0000000000000000000, 0.0000000000000000000 ) ) ;
#219 = DIRECTION ( 'NONE',  ( -1.000000000000000000, 0.0000000000000000000, 0.0000000000000000000 ) ) ;
#220 = EDGE_CURVE ( 'NONE', #40, #44, #61, .T. ) ;
#221 = DIRECTION ( 'NONE',  ( 1.000000000000000000, 0.0000000000000000000, 0.0000000000000000000 ) ) ;
#222 = CARTESIAN_POINT ( 'NONE',  ( 0.1724999999999998757, 2.112515728529182686E-17, 4.000000000000000000 ) ) ;
#223 = DIRECTION ( 'NONE',  ( -1.224646799147353207E-16, -0.0000000000000000000, -1.000000000000000000 ) ) ;
#224 = AXIS2_PLACEMENT_3D ( 'NONE', #240, #241, #169 ) ;
#225 = STYLED_ITEM ( 'NONE', ( #11 ), #243 ) ;
#226 = DIMENSIONAL_EXPONENTS ( 1.000000000000000000, 0.0000000000000000000, 0.0000000000000000000, 0.0000000000000000000, 0.0000000000000000000, 0.0000000000000000000, 0.0000000000000000000 ) ;
#227 = PRODUCT_DEFINITION_SHAPE ( 'NONE', 'NONE',  #8 ) ;
#228 = EDGE_CURVE ( 'NONE', #299, #183, #99, .T. ) ;
#229 = SURFACE_SIDE_STYLE ('',( #254 ) ) ;
#230 = ORIENTED_EDGE ( 'NONE', *, *, #197, .T. ) ;
#231 = CARTESIAN_POINT ( 'NONE',  ( 0.0000000000000000000, 0.0000000000000000000, 0.0000000000000000000 ) ) ;
#232 = ADVANCED_FACE ( 'NONE', ( #179 ), #293, .T. ) ;
#233 = DIRECTION ( 'NONE',  ( -1.224646799147353207E-16, -0.0000000000000000000, -1.000000000000000000 ) ) ;
#234 = ORIENTED_EDGE ( 'NONE', *, *, #102, .T. ) ;
#235 = FACE_OUTER_BOUND ( 'NONE', #74, .T. ) ;
#236 = ORIENTED_EDGE ( 'NONE', *, *, #102, .F. ) ;
#237 = ORIENTED_EDGE ( 'NONE', *, *, #96, .F. ) ;
#238 = AXIS2_PLACEMENT_3D ( 'NONE', #82, #159, #65 ) ;
#239 = DIRECTION ( 'NONE',  ( 0.0000000000000000000, 0.0000000000000000000, 1.000000000000000000 ) ) ;
#240 = CARTESIAN_POINT ( 'NONE',  ( 2.143131898507868051E-16, 0.0000000000000000000, 1.750000000000000000 ) ) ;
#241 = DIRECTION ( 'NONE',  ( 1.224646799147353207E-16, 0.0000000000000000000, 1.000000000000000000 ) ) ;
#242 = VERTEX_POINT ( 'NONE', #63 ) ;
#243 = MANIFOLD_SOLID_BREP ( 'Cut-Revolve1', #29 ) ;
#244 = VECTOR ( 'NONE', #196, 39.37007874015748143 ) ;
#245 = ORIENTED_EDGE ( 'NONE', *, *, #161, .T. ) ;
#246 = LINE ( 'NONE', #194, #33 ) ;
#247 = DIRECTION ( 'NONE',  ( -1.000000000000000000, 0.0000000000000000000, 1.224646799147352961E-16 ) ) ;
#248 =( NAMED_UNIT ( * ) PLANE_ANGLE_UNIT ( ) SI_UNIT ( $, .RADIAN. ) );
#249 = EDGE_LOOP ( 'NONE', ( #292, #297, #255, #88 ) ) ;
#250 = CONICAL_SURFACE ( 'NONE', #209, 0.1724999999999998757, 0.7853981633974266297 ) ;
#251 = CARTESIAN_POINT ( 'NONE',  ( 0.0000000000000000000, 0.0000000000000000000, 0.0000000000000000000 ) ) ;
#252 = ADVANCED_FACE ( 'NONE', ( #62 ), #153, .T. ) ;
#253 = VECTOR ( 'NONE', #223, 39.37007874015748143 ) ;
#254 = SURFACE_STYLE_FILL_AREA ( #202 ) ;
#255 = ORIENTED_EDGE ( 'NONE', *, *, #228, .F. ) ;
#256 = ADVANCED_FACE ( 'NONE', ( #37 ), #129, .F. ) ;
#257 = CIRCLE ( 'NONE', #114, 0.1724999999999998757 ) ;
#258 = COLOUR_RGB ( '',0.7921568627450980005, 0.8196078431372548767, 0.9333333333333333481 ) ;
#259 = ORIENTED_EDGE ( 'NONE', *, *, #193, .F. ) ;
#260 = PRODUCT_CONTEXT ( 'NONE', #32, 'mechanical' ) ;
#261 = CIRCLE ( 'NONE', #145, 0.1875000000000000278 ) ;
#262 = CARTESIAN_POINT ( 'NONE',  ( 0.1724999999999998757, 2.204364238465235514E-17, 4.000000000000000000 ) ) ;
#263 = DIRECTION ( 'NONE',  ( 0.7071067811865321406, 8.659560562354744271E-17, -0.7071067811865627828 ) ) ;
#264 = DIRECTION ( 'NONE',  ( 1.000000000000000000, 0.0000000000000000000, -0.0000000000000000000 ) ) ;
#265 = CONICAL_SURFACE ( 'NONE', #131, 0.1724999999999998757, 0.7853981633974266297 ) ;
#266 = CYLINDRICAL_SURFACE ( 'NONE', #104, 0.1875000000000000278 ) ;
#267 = CARTESIAN_POINT ( 'NONE',  ( 0.0000000000000000000, 0.0000000000000000000, 4.000000000000000000 ) ) ;
#268 = CARTESIAN_POINT ( 'NONE',  ( 2.143131898507868051E-16, 0.0000000000000000000, 1.750000000000000000 ) ) ;
#269 = PRODUCT_RELATED_PRODUCT_CATEGORY ( 'part', '', ( #89 ) ) ;
#270 = DIRECTION ( 'NONE',  ( -1.000000000000000000, 0.0000000000000000000, 0.0000000000000000000 ) ) ;
#271 = ORIENTED_EDGE ( 'NONE', *, *, #213, .T. ) ;
#272 = LINE ( 'NONE', #149, #27 ) ;
#273 = ORIENTED_EDGE ( 'NONE', *, *, #23, .T. ) ;
#274 = CARTESIAN_POINT ( 'NONE',  ( 0.0000000000000000000, 0.0000000000000000000, 4.000000000000000000 ) ) ;
#275 = CIRCLE ( 'NONE', #15, 0.1875000000000000278 ) ;
#276 = ORIENTED_EDGE ( 'NONE', *, *, #165, .F. ) ;
#277 = EDGE_LOOP ( 'NONE', ( #259, #271, #71, #187 ) ) ;
#278 = DIRECTION ( 'NONE',  ( 1.000000000000000000, 0.0000000000000000000, -0.0000000000000000000 ) ) ;
#279 = AXIS2_PLACEMENT_3D ( 'NONE', #3, #56, #247 ) ;
#280 = EDGE_CURVE ( 'NONE', #134, #299, #168, .T. ) ;
#281 = APPLICATION_PROTOCOL_DEFINITION ( 'draft international standard', 'automotive_design', 1998, #32 ) ;
#282 = CARTESIAN_POINT ( 'NONE',  ( -0.1875000000000000278, 0.0000000000000000000, 3.984999999999998987 ) ) ;
#283 = PRODUCT_DEFINITION_CONTEXT ( 'detailed design', #54, 'design' ) ;
#284 = DIRECTION ( 'NONE',  ( -0.0000000000000000000, -0.0000000000000000000, -1.000000000000000000 ) ) ;
#285 = ADVANCED_FACE ( 'NONE', ( #235 ), #214, .T. ) ;
#286 = LINE ( 'NONE', #148, #244 ) ;
#287 = CARTESIAN_POINT ( 'NONE',  ( 0.1873125000000001872, 0.0000000000000000000, 1.750000000000000000 ) ) ;
#288 = EDGE_CURVE ( 'NONE', #242, #85, #53, .T. ) ;
#289 = AXIS2_PLACEMENT_3D ( 'NONE', #142, #101, #221 ) ;
#290 = DIRECTION ( 'NONE',  ( 1.000000000000000000, 0.0000000000000000000, 0.0000000000000000000 ) ) ;
#291 =( CONVERSION_BASED_UNIT ( 'INCH', #81 ) LENGTH_UNIT ( ) NAMED_UNIT ( #35 ) );
#292 = ORIENTED_EDGE ( 'NONE', *, *, #23, .F. ) ;
#293 = CYLINDRICAL_SURFACE ( 'NONE', #6, 0.1873124999999999929 ) ;
#294 = DIRECTION ( 'NONE',  ( 1.000000000000000000, 0.0000000000000000000, 0.0000000000000000000 ) ) ;
#295 = DIRECTION ( 'NONE',  ( 1.000000000000000000, 0.0000000000000000000, 0.0000000000000000000 ) ) ;
#296 = CARTESIAN_POINT ( 'NONE',  ( 0.0000000000000000000, 0.0000000000000000000, 4.000000000000000000 ) ) ;
#297 = ORIENTED_EDGE ( 'NONE', *, *, #86, .T. ) ;
#298 = SURFACE_STYLE_USAGE ( .BOTH. , #24 ) ;
#299 = VERTEX_POINT ( 'NONE', #282 ) ;
ENDSEC;
END-ISO-10303-21;
