ISO-10303-21;
HEADER;
FILE_DESCRIPTION (( 'STEP AP214' ),
    '1' );
FILE_NAME ('81315.STEP',
    '2023-06-23T00:28:02',
    ( '' ),
    ( '' ),
    'SwSTEP 2.0',
    'SolidWorks 2023',
    '' );
FILE_SCHEMA (( 'AUTOMOTIVE_DESIGN' ));
ENDSEC;

DATA;
#1 = LINE ( 'NONE', #50, #3 ) ;
#2 = LENGTH_MEASURE_WITH_UNIT ( LENGTH_MEASURE( 0.02539999999999999897 ), #38 );
#3 = VECTOR ( 'NONE', #141, 39.37007874015748143 ) ;
#4 = CARTESIAN_POINT ( 'NONE',  ( 0.000000000000000000, 2.000000000000000000, 0.000000000000000000 ) ) ;
#5 = FACE_OUTER_BOUND ( 'NONE', #306, .T. ) ;
#6 = DIRECTION ( 'NONE',  ( -1.000000000000000000, 0.000000000000000000, 0.000000000000000000 ) ) ;
#7 = EDGE_LOOP ( 'NONE', ( #87, #243 ) ) ;
#8 = AXIS2_PLACEMENT_3D ( 'NONE', #194, #154, #39 ) ;
#9 = PRESENTATION_STYLE_ASSIGNMENT (( #244 ) ) ;
#10 =( CONVERSION_BASED_UNIT ( 'INCH', #48 ) LENGTH_UNIT ( ) NAMED_UNIT ( #33 ) );
#11 = EDGE_CURVE ( 'NONE', #234, #280, #140, .T. ) ;
#12 = PRESENTATION_STYLE_ASSIGNMENT (( #121 ) ) ;
#13 = VERTEX_POINT ( 'NONE', #245 ) ;
#14 = UNCERTAINTY_MEASURE_WITH_UNIT (LENGTH_MEASURE( 1.000000000000000082E-05 ), #188, 'distance_accuracy_value', 'NONE');
#15 = PLANE ( 'NONE',  #45 ) ;
#16 = FILL_AREA_STYLE ('',( #42 ) ) ;
#17 = LENGTH_MEASURE_WITH_UNIT ( LENGTH_MEASURE( 0.02539999999999999897 ), #201 );
#18 = COLOUR_RGB ( '',1.000000000000000000, 0.000000000000000000, 0.000000000000000000 ) ;
#19 = CARTESIAN_POINT ( 'NONE',  ( -0.3750000000000004441, 5.000000000000000000, 0.000000000000000000 ) ) ;
#20 = PRODUCT_DEFINITION_SHAPE ( 'NONE', 'NONE',  #151 ) ;
#21 = ADVANCED_FACE ( 'NONE', ( #68 ), #30, .T. ) ;
#22 = CARTESIAN_POINT ( 'NONE',  ( 6.065921084684207584E-32, 2.000000000000000000, 0.000000000000000000 ) ) ;
#23 = MECHANICAL_DESIGN_GEOMETRIC_PRESENTATION_REPRESENTATION (  '', ( #115 ), #233 ) ;
#24 = ADVANCED_FACE ( 'NONE', ( #5 ), #91, .T. ) ;
#25 = ORIENTED_EDGE ( 'NONE', *, *, #11, .T. ) ;
#26 = ADVANCED_BREP_SHAPE_REPRESENTATION ( '81315', ( #266, #147, #64 ), #292 ) ;
#27 = PRESENTATION_LAYER_ASSIGNMENT (  '', '', ( #180 ) ) ;
#28 = SURFACE_STYLE_FILL_AREA ( #97 ) ;
#29 = COLOUR_RGB ( '',0.7921568627450980005, 0.8196078431372548767, 0.9333333333333333481 ) ;
#30 = CYLINDRICAL_SURFACE ( 'NONE', #290, 0.3750000000000000555 ) ;
#31 = PRESENTATION_STYLE_ASSIGNMENT (( #135 ) ) ;
#32 = VERTEX_POINT ( 'NONE', #75 ) ;
#33 = DIMENSIONAL_EXPONENTS ( 1.000000000000000000, 0.000000000000000000, 0.000000000000000000, 0.000000000000000000, 0.000000000000000000, 0.000000000000000000, 0.000000000000000000 ) ;
#34 = CLOSED_SHELL ( 'NONE', ( #117, #221, #240, #83 ) ) ;
#35 = PRODUCT_DEFINITION_FORMATION_WITH_SPECIFIED_SOURCE ( 'ANY', '', #259, .NOT_KNOWN. ) ;
#36 = UNCERTAINTY_MEASURE_WITH_UNIT (LENGTH_MEASURE( 1.000000000000000082E-05 ), #163, 'distance_accuracy_value', 'NONE');
#37 = DIRECTION ( 'NONE',  ( 0.000000000000000000, -0.000000000000000000, 1.000000000000000000 ) ) ;
#38 =( LENGTH_UNIT ( ) NAMED_UNIT ( * ) SI_UNIT ( $, .METRE. ) );
#39 = DIRECTION ( 'NONE',  ( 0.000000000000000000, 0.000000000000000000, -1.000000000000000000 ) ) ;
#40 = AXIS2_PLACEMENT_3D ( 'NONE', #79, #142, #166 ) ;
#41 = CIRCLE ( 'NONE', #257, 0.3750000000000000555 ) ;
#42 = FILL_AREA_STYLE_COLOUR ( '', #177 ) ;
#43 = APPLICATION_PROTOCOL_DEFINITION ( 'draft international standard', 'automotive_design', 1998, #295 ) ;
#44 = EDGE_CURVE ( 'NONE', #84, #32, #170, .T. ) ;
#45 = AXIS2_PLACEMENT_3D ( 'NONE', #226, #191, #164 ) ;
#46 = ORIENTED_EDGE ( 'NONE', *, *, #138, .F. ) ;
#47 = FILL_AREA_STYLE_COLOUR ( '', #29 ) ;
#48 = LENGTH_MEASURE_WITH_UNIT ( LENGTH_MEASURE( 0.02539999999999999897 ), #222 );
#49 = EDGE_LOOP ( 'NONE', ( #144, #309 ) ) ;
#50 = CARTESIAN_POINT ( 'NONE',  ( 0.3749999999999998890, 5.000000000000000000, 4.592425496802576684E-17 ) ) ;
#51 = CARTESIAN_POINT ( 'NONE',  ( -0.3750000000000000555, 2.000000000000000000, 0.000000000000000000 ) ) ;
#52 = AXIS2_PLACEMENT_3D ( 'NONE', #288, #216, #96 ) ;
#53 = ORIENTED_EDGE ( 'NONE', *, *, #175, .F. ) ;
#54 = FILL_AREA_STYLE_COLOUR ( '', #209 ) ;
#55 = ORIENTED_EDGE ( 'NONE', *, *, #261, .F. ) ;
#56 = DIRECTION ( 'NONE',  ( -1.000000000000000000, 0.000000000000000000, 0.000000000000000000 ) ) ;
#57 = CARTESIAN_POINT ( 'NONE',  ( 0.000000000000000000, 0.000000000000000000, -0.3750000000000000555 ) ) ;
#58 = CARTESIAN_POINT ( 'NONE',  ( -3.061616997868383141E-16, 5.000000000000000000, 0.000000000000000000 ) ) ;
#59 = DIRECTION ( 'NONE',  ( -1.020538999289461047E-16, 1.000000000000000000, -0.000000000000000000 ) ) ;
#60 =( GEOMETRIC_REPRESENTATION_CONTEXT ( 3 ) GLOBAL_UNCERTAINTY_ASSIGNED_CONTEXT ( ( #69 ) ) GLOBAL_UNIT_ASSIGNED_CONTEXT ( ( #105, #301, #225 ) ) REPRESENTATION_CONTEXT ( 'NONE', 'WORKASPACE' ) );
#61 = AXIS2_PLACEMENT_3D ( 'NONE', #189, #158, #125 ) ;
#62 = CARTESIAN_POINT ( 'NONE',  ( 0.000000000000000000, 2.000000000000000000, 0.000000000000000000 ) ) ;
#63 = FACE_OUTER_BOUND ( 'NONE', #241, .T. ) ;
#64 = AXIS2_PLACEMENT_3D ( 'NONE', #77, #160, #162 ) ;
#65 = SURFACE_SIDE_STYLE ('',( #183 ) ) ;
#66 = STYLED_ITEM ( 'NONE', ( #165 ), #90 ) ;
#67 =( NAMED_UNIT ( * ) SI_UNIT ( $, .STERADIAN. ) SOLID_ANGLE_UNIT ( ) );
#68 = FACE_OUTER_BOUND ( 'NONE', #102, .T. ) ;
#69 = UNCERTAINTY_MEASURE_WITH_UNIT (LENGTH_MEASURE( 1.000000000000000082E-05 ), #105, 'distance_accuracy_value', 'NONE');
#70 = DIRECTION ( 'NONE',  ( -1.000000000000000000, 0.000000000000000000, 0.000000000000000000 ) ) ;
#71 = FILL_AREA_STYLE_COLOUR ( '', #18 ) ;
#72 = ORIENTED_EDGE ( 'NONE', *, *, #267, .F. ) ;
#73 = AXIS2_PLACEMENT_3D ( 'NONE', #294, #254, #231 ) ;
#74 = PRESENTATION_LAYER_ASSIGNMENT (  '', '', ( #271 ) ) ;
#75 = CARTESIAN_POINT ( 'NONE',  ( 0.000000000000000000, 0.000000000000000000, -0.3750000000000000555 ) ) ;
#76 = FILL_AREA_STYLE ('',( #54 ) ) ;
#77 = CARTESIAN_POINT ( 'NONE',  ( 0.000000000000000000, 0.000000000000000000, 0.000000000000000000 ) ) ;
#78 = FACE_OUTER_BOUND ( 'NONE', #263, .T. ) ;
#79 = CARTESIAN_POINT ( 'NONE',  ( 0.000000000000000000, 0.000000000000000000, 0.000000000000000000 ) ) ;
#80 = STYLED_ITEM ( 'NONE', ( #305 ), #214 ) ;
#81 = DIRECTION ( 'NONE',  ( -1.020538999289461170E-16, 1.000000000000000000, -0.000000000000000000 ) ) ;
#82 = PLANE ( 'NONE',  #150 ) ;
#83 = ADVANCED_FACE ( 'NONE', ( #98 ), #15, .F. ) ;
#84 = VERTEX_POINT ( 'NONE', #274 ) ;
#85 = ORIENTED_EDGE ( 'NONE', *, *, #130, .F. ) ;
#86 = MECHANICAL_DESIGN_GEOMETRIC_PRESENTATION_REPRESENTATION (  '', ( #180 ), #60 ) ;
#87 = ORIENTED_EDGE ( 'NONE', *, *, #291, .F. ) ;
#88 = CIRCLE ( 'NONE', #192, 0.3750000000000002776 ) ;
#89 = CARTESIAN_POINT ( 'NONE',  ( 4.592425496802575451E-17, 0.000000000000000000, 0.3750000000000000555 ) ) ;
#90 = ADVANCED_FACE ( 'NONE', ( #78 ), #276, .T. ) ;
#91 = CYLINDRICAL_SURFACE ( 'NONE', #8, 0.3750000000000000555 ) ;
#92 =( LENGTH_UNIT ( ) NAMED_UNIT ( * ) SI_UNIT ( $, .METRE. ) );
#93 = AXIS2_PLACEMENT_3D ( 'NONE', #186, #100, #6 ) ;
#94 = CARTESIAN_POINT ( 'NONE',  ( 0.000000000000000000, 0.000000000000000000, 0.000000000000000000 ) ) ;
#95 = ORIENTED_EDGE ( 'NONE', *, *, #143, .F. ) ;
#96 = DIRECTION ( 'NONE',  ( 0.000000000000000000, 0.000000000000000000, -1.000000000000000000 ) ) ;
#97 = FILL_AREA_STYLE ('',( #124 ) ) ;
#98 = FACE_OUTER_BOUND ( 'NONE', #49, .T. ) ;
#99 =( NAMED_UNIT ( * ) SI_UNIT ( $, .STERADIAN. ) SOLID_ANGLE_UNIT ( ) );
#100 = DIRECTION ( 'NONE',  ( -1.020538999289461047E-16, 1.000000000000000000, -0.000000000000000000 ) ) ;
#101 = UNCERTAINTY_MEASURE_WITH_UNIT (LENGTH_MEASURE( 1.000000000000000082E-05 ), #284, 'distance_accuracy_value', 'NONE');
#102 = EDGE_LOOP ( 'NONE', ( #112, #184, #95, #46 ) ) ;
#103 = MECHANICAL_DESIGN_GEOMETRIC_PRESENTATION_REPRESENTATION (  '', ( #271 ), #161 ) ;
#104 = ORIENTED_EDGE ( 'NONE', *, *, #44, .T. ) ;
#105 =( CONVERSION_BASED_UNIT ( 'INCH', #17 ) LENGTH_UNIT ( ) NAMED_UNIT ( #171 ) );
#106 = AXIS2_PLACEMENT_3D ( 'NONE', #109, #304, #174 ) ;
#107 = SURFACE_SIDE_STYLE ('',( #153 ) ) ;
#108 = DIMENSIONAL_EXPONENTS ( 1.000000000000000000, 0.000000000000000000, 0.000000000000000000, 0.000000000000000000, 0.000000000000000000, 0.000000000000000000, 0.000000000000000000 ) ;
#109 = CARTESIAN_POINT ( 'NONE',  ( 0.000000000000000000, 0.000000000000000000, 0.000000000000000000 ) ) ;
#110 =( CONVERSION_BASED_UNIT ( 'INCH', #168 ) LENGTH_UNIT ( ) NAMED_UNIT ( #303 ) );
#111 = SURFACE_STYLE_FILL_AREA ( #232 ) ;
#112 = ORIENTED_EDGE ( 'NONE', *, *, #291, .T. ) ;
#113 = SURFACE_STYLE_USAGE ( .BOTH. , #152 ) ;
#114 = ORIENTED_EDGE ( 'NONE', *, *, #11, .F. ) ;
#115 = STYLED_ITEM ( 'NONE', ( #9 ), #147 ) ;
#116 = EDGE_LOOP ( 'NONE', ( #53, #114 ) ) ;
#117 = ADVANCED_FACE ( 'NONE', ( #308 ), #279, .T. ) ;
#118 = ORIENTED_EDGE ( 'NONE', *, *, #130, .T. ) ;
#119 =( NAMED_UNIT ( * ) SI_UNIT ( $, .STERADIAN. ) SOLID_ANGLE_UNIT ( ) );
#120 = LENGTH_MEASURE_WITH_UNIT ( LENGTH_MEASURE( 0.02539999999999999897 ), #190 );
#121 = SURFACE_STYLE_USAGE ( .BOTH. , #127 ) ;
#122 = AXIS2_PLACEMENT_3D ( 'NONE', #302, #260, #195 ) ;
#123 = PLANE ( 'NONE',  #61 ) ;
#124 = FILL_AREA_STYLE_COLOUR ( '', #198 ) ;
#125 = DIRECTION ( 'NONE',  ( -1.000000000000000000, -1.020538999289461170E-16, 0.000000000000000000 ) ) ;
#126 = DIRECTION ( 'NONE',  ( -0.000000000000000000, -1.000000000000000000, -0.000000000000000000 ) ) ;
#127 = SURFACE_SIDE_STYLE ('',( #28 ) ) ;
#128 = ORIENTED_EDGE ( 'NONE', *, *, #157, .T. ) ;
#129 = CLOSED_SHELL ( 'NONE', ( #21, #214, #24, #90 ) ) ;
#130 = EDGE_CURVE ( 'NONE', #280, #146, #293, .T. ) ;
#131 = PRODUCT_DEFINITION_CONTEXT ( 'detailed design', #295, 'design' ) ;
#132 = LINE ( 'NONE', #57, #273 ) ;
#133 = CIRCLE ( 'NONE', #230, 0.3750000000000002776 ) ;
#134 = ORIENTED_EDGE ( 'NONE', *, *, #143, .T. ) ;
#135 = SURFACE_STYLE_USAGE ( .BOTH. , #307 ) ;
#136 = DIRECTION ( 'NONE',  ( 0.000000000000000000, 0.000000000000000000, -1.000000000000000000 ) ) ;
#137 = MECHANICAL_DESIGN_GEOMETRIC_PRESENTATION_REPRESENTATION (  '', ( #66 ), #213 ) ;
#138 = EDGE_CURVE ( 'NONE', #13, #32, #132, .T. ) ;
#139 =( NAMED_UNIT ( * ) PLANE_ANGLE_UNIT ( ) SI_UNIT ( $, .RADIAN. ) );
#140 = CIRCLE ( 'NONE', #93, 0.3750000000000000555 ) ;
#141 = DIRECTION ( 'NONE',  ( -1.020538999289461170E-16, 1.000000000000000000, -0.000000000000000000 ) ) ;
#142 = DIRECTION ( 'NONE',  ( -0.000000000000000000, -1.000000000000000000, -0.000000000000000000 ) ) ;
#143 = EDGE_CURVE ( 'NONE', #32, #84, #286, .T. ) ;
#144 = ORIENTED_EDGE ( 'NONE', *, *, #205, .T. ) ;
#145 = SURFACE_STYLE_FILL_AREA ( #76 ) ;
#146 = VERTEX_POINT ( 'NONE', #277 ) ;
#147 = MANIFOLD_SOLID_BREP ( 'Revolve - Tool Body (Straight Shanked)', #34 ) ;
#148 = DIRECTION ( 'NONE',  ( -0.000000000000000000, -1.000000000000000000, -0.000000000000000000 ) ) ;
#149 = PRESENTATION_LAYER_ASSIGNMENT (  '', '', ( #115 ) ) ;
#150 = AXIS2_PLACEMENT_3D ( 'NONE', #62, #250, #37 ) ;
#151 = PRODUCT_DEFINITION ( 'UNKNOWN', '', #35, #131 ) ;
#152 = SURFACE_SIDE_STYLE ('',( #296 ) ) ;
#153 = SURFACE_STYLE_FILL_AREA ( #247 ) ;
#154 = DIRECTION ( 'NONE',  ( -0.000000000000000000, -1.000000000000000000, -0.000000000000000000 ) ) ;
#155 = CIRCLE ( 'NONE', #52, 0.3750000000000000555 ) ;
#156 = VERTEX_POINT ( 'NONE', #242 ) ;
#157 = EDGE_CURVE ( 'NONE', #187, #13, #155, .T. ) ;
#158 = DIRECTION ( 'NONE',  ( -1.020538999289461170E-16, 1.000000000000000000, 0.000000000000000000 ) ) ;
#159 =( NAMED_UNIT ( * ) PLANE_ANGLE_UNIT ( ) SI_UNIT ( $, .RADIAN. ) );
#160 = DIRECTION ( 'NONE',  ( 0.000000000000000000, 0.000000000000000000, 1.000000000000000000 ) ) ;
#161 =( GEOMETRIC_REPRESENTATION_CONTEXT ( 3 ) GLOBAL_UNCERTAINTY_ASSIGNED_CONTEXT ( ( #101 ) ) GLOBAL_UNIT_ASSIGNED_CONTEXT ( ( #284, #238, #67 ) ) REPRESENTATION_CONTEXT ( 'NONE', 'WORKASPACE' ) );
#162 = DIRECTION ( 'NONE',  ( 1.000000000000000000, 0.000000000000000000, 0.000000000000000000 ) ) ;
#163 =( CONVERSION_BASED_UNIT ( 'INCH', #287 ) LENGTH_UNIT ( ) NAMED_UNIT ( #173 ) );
#164 = DIRECTION ( 'NONE',  ( 1.000000000000000000, 1.020538999289461170E-16, 0.000000000000000000 ) ) ;
#165 = PRESENTATION_STYLE_ASSIGNMENT (( #169 ) ) ;
#166 = DIRECTION ( 'NONE',  ( 0.000000000000000000, 0.000000000000000000, -1.000000000000000000 ) ) ;
#167 = EDGE_CURVE ( 'NONE', #156, #146, #88, .T. ) ;
#168 = LENGTH_MEASURE_WITH_UNIT ( LENGTH_MEASURE( 0.02539999999999999897 ), #252 );
#169 = SURFACE_STYLE_USAGE ( .BOTH. , #246 ) ;
#170 = CIRCLE ( 'NONE', #73, 0.3750000000000000555 ) ;
#171 = DIMENSIONAL_EXPONENTS ( 1.000000000000000000, 0.000000000000000000, 0.000000000000000000, 0.000000000000000000, 0.000000000000000000, 0.000000000000000000, 0.000000000000000000 ) ;
#172 =( NAMED_UNIT ( * ) PLANE_ANGLE_UNIT ( ) SI_UNIT ( $, .RADIAN. ) );
#173 = DIMENSIONAL_EXPONENTS ( 1.000000000000000000, 0.000000000000000000, 0.000000000000000000, 0.000000000000000000, 0.000000000000000000, 0.000000000000000000, 0.000000000000000000 ) ;
#174 = DIRECTION ( 'NONE',  ( 0.000000000000000000, 0.000000000000000000, -1.000000000000000000 ) ) ;
#175 = EDGE_CURVE ( 'NONE', #280, #234, #297, .T. ) ;
#176 = DIRECTION ( 'NONE',  ( -1.000000000000000000, 0.000000000000000000, 0.000000000000000000 ) ) ;
#177 = COLOUR_RGB ( '',1.000000000000000000, 0.000000000000000000, 0.000000000000000000 ) ;
#178 = ORIENTED_EDGE ( 'NONE', *, *, #261, .T. ) ;
#179 = PRODUCT_RELATED_PRODUCT_CATEGORY ( 'part', '', ( #259 ) ) ;
#180 = STYLED_ITEM ( 'NONE', ( #228 ), #24 ) ;
#181 =( GEOMETRIC_REPRESENTATION_CONTEXT ( 3 ) GLOBAL_UNCERTAINTY_ASSIGNED_CONTEXT ( ( #251 ) ) GLOBAL_UNIT_ASSIGNED_CONTEXT ( ( #110, #172, #278 ) ) REPRESENTATION_CONTEXT ( 'NONE', 'WORKASPACE' ) );
#182 = DIRECTION ( 'NONE',  ( -0.000000000000000000, -1.000000000000000000, -0.000000000000000000 ) ) ;
#183 = SURFACE_STYLE_FILL_AREA ( #210 ) ;
#184 = ORIENTED_EDGE ( 'NONE', *, *, #267, .T. ) ;
#185 = LENGTH_MEASURE_WITH_UNIT ( LENGTH_MEASURE( 0.02539999999999999897 ), #92 );
#186 = CARTESIAN_POINT ( 'NONE',  ( 6.065921084684207584E-32, 2.000000000000000000, 0.000000000000000000 ) ) ;
#187 = VERTEX_POINT ( 'NONE', #204 ) ;
#188 =( CONVERSION_BASED_UNIT ( 'INCH', #120 ) LENGTH_UNIT ( ) NAMED_UNIT ( #298 ) );
#189 = CARTESIAN_POINT ( 'NONE',  ( 1.952812217007627778E-33, 2.000000000000000000, 0.000000000000000000 ) ) ;
#190 =( LENGTH_UNIT ( ) NAMED_UNIT ( * ) SI_UNIT ( $, .METRE. ) );
#191 = DIRECTION ( 'NONE',  ( 1.020538999289461170E-16, -1.000000000000000000, 0.000000000000000000 ) ) ;
#192 = AXIS2_PLACEMENT_3D ( 'NONE', #58, #262, #253 ) ;
#193 = SURFACE_STYLE_USAGE ( .BOTH. , #107 ) ;
#194 = CARTESIAN_POINT ( 'NONE',  ( 0.000000000000000000, 0.000000000000000000, 0.000000000000000000 ) ) ;
#195 = DIRECTION ( 'NONE',  ( -1.000000000000000000, 0.000000000000000000, 0.000000000000000000 ) ) ;
#196 = CARTESIAN_POINT ( 'NONE',  ( -3.061616997868383141E-16, 5.000000000000000000, 0.000000000000000000 ) ) ;
#197 = DIMENSIONAL_EXPONENTS ( 1.000000000000000000, 0.000000000000000000, 0.000000000000000000, 0.000000000000000000, 0.000000000000000000, 0.000000000000000000, 0.000000000000000000 ) ;
#198 = COLOUR_RGB ( '',1.000000000000000000, 0.000000000000000000, 0.000000000000000000 ) ;
#199 = VECTOR ( 'NONE', #182, 39.37007874015748143 ) ;
#200 = PRODUCT_CONTEXT ( 'NONE', #255, 'mechanical' ) ;
#201 =( LENGTH_UNIT ( ) NAMED_UNIT ( * ) SI_UNIT ( $, .METRE. ) );
#202 = CYLINDRICAL_SURFACE ( 'NONE', #122, 0.3750000000000001665 ) ;
#203 = SHAPE_DEFINITION_REPRESENTATION ( #20, #26 ) ;
#204 = CARTESIAN_POINT ( 'NONE',  ( 4.592425496802575451E-17, 2.000000000000000000, 0.3750000000000000555 ) ) ;
#205 = EDGE_CURVE ( 'NONE', #146, #156, #133, .T. ) ;
#206 = MECHANICAL_DESIGN_GEOMETRIC_PRESENTATION_REPRESENTATION (  '', ( #248 ), #207 ) ;
#207 =( GEOMETRIC_REPRESENTATION_CONTEXT ( 3 ) GLOBAL_UNCERTAINTY_ASSIGNED_CONTEXT ( ( #215 ) ) GLOBAL_UNIT_ASSIGNED_CONTEXT ( ( #10, #159, #119 ) ) REPRESENTATION_CONTEXT ( 'NONE', 'WORKASPACE' ) );
#208 = LINE ( 'NONE', #89, #199 ) ;
#209 = COLOUR_RGB ( '',1.000000000000000000, 0.000000000000000000, 0.000000000000000000 ) ;
#210 = FILL_AREA_STYLE ('',( #218 ) ) ;
#211 = MECHANICAL_DESIGN_GEOMETRIC_PRESENTATION_REPRESENTATION (  '', ( #80 ), #181 ) ;
#212 = APPLICATION_PROTOCOL_DEFINITION ( 'draft international standard', 'automotive_design', 1998, #255 ) ;
#213 =( GEOMETRIC_REPRESENTATION_CONTEXT ( 3 ) GLOBAL_UNCERTAINTY_ASSIGNED_CONTEXT ( ( #239 ) ) GLOBAL_UNIT_ASSIGNED_CONTEXT ( ( #237, #285, #269 ) ) REPRESENTATION_CONTEXT ( 'NONE', 'WORKASPACE' ) );
#214 = ADVANCED_FACE ( 'NONE', ( #300 ), #82, .T. ) ;
#215 = UNCERTAINTY_MEASURE_WITH_UNIT (LENGTH_MEASURE( 1.000000000000000082E-05 ), #10, 'distance_accuracy_value', 'NONE');
#216 = DIRECTION ( 'NONE',  ( -0.000000000000000000, -1.000000000000000000, -0.000000000000000000 ) ) ;
#217 = DIRECTION ( 'NONE',  ( 0.000000000000000000, 0.000000000000000000, -1.000000000000000000 ) ) ;
#218 = FILL_AREA_STYLE_COLOUR ( '', #256 ) ;
#219 = ORIENTED_EDGE ( 'NONE', *, *, #138, .T. ) ;
#220 =( NAMED_UNIT ( * ) SI_UNIT ( $, .STERADIAN. ) SOLID_ANGLE_UNIT ( ) );
#221 = ADVANCED_FACE ( 'NONE', ( #235 ), #123, .F. ) ;
#222 =( LENGTH_UNIT ( ) NAMED_UNIT ( * ) SI_UNIT ( $, .METRE. ) );
#223 = PRESENTATION_LAYER_ASSIGNMENT (  '', '', ( #248 ) ) ;
#224 = PRESENTATION_LAYER_ASSIGNMENT (  '', '', ( #80 ) ) ;
#225 =( NAMED_UNIT ( * ) SI_UNIT ( $, .STERADIAN. ) SOLID_ANGLE_UNIT ( ) );
#226 = CARTESIAN_POINT ( 'NONE',  ( 0.3750000000000000555, 5.000000000000000000, 0.000000000000000000 ) ) ;
#227 = DIRECTION ( 'NONE',  ( -1.020538999289461047E-16, 1.000000000000000000, -0.000000000000000000 ) ) ;
#228 = PRESENTATION_STYLE_ASSIGNMENT (( #193 ) ) ;
#229 = PRESENTATION_LAYER_ASSIGNMENT (  '', '', ( #66 ) ) ;
#230 = AXIS2_PLACEMENT_3D ( 'NONE', #196, #227, #176 ) ;
#231 = DIRECTION ( 'NONE',  ( 0.000000000000000000, 0.000000000000000000, -1.000000000000000000 ) ) ;
#232 = FILL_AREA_STYLE ('',( #47 ) ) ;
#233 =( GEOMETRIC_REPRESENTATION_CONTEXT ( 3 ) GLOBAL_UNCERTAINTY_ASSIGNED_CONTEXT ( ( #36 ) ) GLOBAL_UNIT_ASSIGNED_CONTEXT ( ( #163, #272, #220 ) ) REPRESENTATION_CONTEXT ( 'NONE', 'WORKASPACE' ) );
#234 = VERTEX_POINT ( 'NONE', #275 ) ;
#235 = FACE_OUTER_BOUND ( 'NONE', #116, .T. ) ;
#236 = ORIENTED_EDGE ( 'NONE', *, *, #205, .F. ) ;
#237 =( CONVERSION_BASED_UNIT ( 'INCH', #2 ) LENGTH_UNIT ( ) NAMED_UNIT ( #108 ) );
#238 =( NAMED_UNIT ( * ) PLANE_ANGLE_UNIT ( ) SI_UNIT ( $, .RADIAN. ) );
#239 = UNCERTAINTY_MEASURE_WITH_UNIT (LENGTH_MEASURE( 1.000000000000000082E-05 ), #237, 'distance_accuracy_value', 'NONE');
#240 = ADVANCED_FACE ( 'NONE', ( #63 ), #202, .T. ) ;
#241 = EDGE_LOOP ( 'NONE', ( #55, #25, #118, #268 ) ) ;
#242 = CARTESIAN_POINT ( 'NONE',  ( 0.3750000000000000555, 5.000000000000000000, 4.592425496802577300E-17 ) ) ;
#243 = ORIENTED_EDGE ( 'NONE', *, *, #157, .F. ) ;
#244 = SURFACE_STYLE_USAGE ( .BOTH. , #65 ) ;
#245 = CARTESIAN_POINT ( 'NONE',  ( 0.000000000000000000, 2.000000000000000000, -0.3750000000000000555 ) ) ;
#246 = SURFACE_SIDE_STYLE ('',( #145 ) ) ;
#247 = FILL_AREA_STYLE ('',( #71 ) ) ;
#248 = STYLED_ITEM ( 'NONE', ( #12 ), #21 ) ;
#249 = AXIS2_PLACEMENT_3D ( 'NONE', #22, #258, #56 ) ;
#250 = DIRECTION ( 'NONE',  ( 0.000000000000000000, 1.000000000000000000, 0.000000000000000000 ) ) ;
#251 = UNCERTAINTY_MEASURE_WITH_UNIT (LENGTH_MEASURE( 1.000000000000000082E-05 ), #110, 'distance_accuracy_value', 'NONE');
#252 =( LENGTH_UNIT ( ) NAMED_UNIT ( * ) SI_UNIT ( $, .METRE. ) );
#253 = DIRECTION ( 'NONE',  ( -1.000000000000000000, 0.000000000000000000, 0.000000000000000000 ) ) ;
#254 = DIRECTION ( 'NONE',  ( -0.000000000000000000, -1.000000000000000000, -0.000000000000000000 ) ) ;
#255 = APPLICATION_CONTEXT ( 'automotive_design' ) ;
#256 = COLOUR_RGB ( '',0.7921568627450980005, 0.8196078431372548767, 0.9333333333333333481 ) ;
#257 = AXIS2_PLACEMENT_3D ( 'NONE', #4, #283, #217 ) ;
#258 = DIRECTION ( 'NONE',  ( -1.020538999289461047E-16, 1.000000000000000000, -0.000000000000000000 ) ) ;
#259 = PRODUCT ( '81315', '81315', '', ( #200 ) ) ;
#260 = DIRECTION ( 'NONE',  ( -1.020538999289461047E-16, 1.000000000000000000, -0.000000000000000000 ) ) ;
#261 = EDGE_CURVE ( 'NONE', #234, #156, #1, .T. ) ;
#262 = DIRECTION ( 'NONE',  ( -1.020538999289461047E-16, 1.000000000000000000, -0.000000000000000000 ) ) ;
#263 = EDGE_LOOP ( 'NONE', ( #134, #104 ) ) ;
#264 = EDGE_LOOP ( 'NONE', ( #299, #178, #236, #85 ) ) ;
#265 = AXIS2_PLACEMENT_3D ( 'NONE', #281, #59, #70 ) ;
#266 = MANIFOLD_SOLID_BREP ( 'Revolve - Cutting Edge', #129 ) ;
#267 = EDGE_CURVE ( 'NONE', #187, #84, #208, .T. ) ;
#268 = ORIENTED_EDGE ( 'NONE', *, *, #167, .F. ) ;
#269 =( NAMED_UNIT ( * ) SI_UNIT ( $, .STERADIAN. ) SOLID_ANGLE_UNIT ( ) );
#270 = VECTOR ( 'NONE', #81, 39.37007874015748143 ) ;
#271 = STYLED_ITEM ( 'NONE', ( #31 ), #266 ) ;
#272 =( NAMED_UNIT ( * ) PLANE_ANGLE_UNIT ( ) SI_UNIT ( $, .RADIAN. ) );
#273 = VECTOR ( 'NONE', #148, 39.37007874015748143 ) ;
#274 = CARTESIAN_POINT ( 'NONE',  ( 4.592425496802575451E-17, 0.000000000000000000, 0.3750000000000000555 ) ) ;
#275 = CARTESIAN_POINT ( 'NONE',  ( 0.3750000000000000555, 2.000000000000000000, 4.592425496802577300E-17 ) ) ;
#276 = PLANE ( 'NONE',  #106 ) ;
#277 = CARTESIAN_POINT ( 'NONE',  ( -0.3750000000000005551, 5.000000000000000000, 0.000000000000000000 ) ) ;
#278 =( NAMED_UNIT ( * ) SI_UNIT ( $, .STERADIAN. ) SOLID_ANGLE_UNIT ( ) );
#279 = CYLINDRICAL_SURFACE ( 'NONE', #265, 0.3750000000000001665 ) ;
#280 = VERTEX_POINT ( 'NONE', #51 ) ;
#281 = CARTESIAN_POINT ( 'NONE',  ( -3.061616997868383141E-16, 5.000000000000000000, 0.000000000000000000 ) ) ;
#282 = ORIENTED_EDGE ( 'NONE', *, *, #44, .F. ) ;
#283 = DIRECTION ( 'NONE',  ( -0.000000000000000000, -1.000000000000000000, -0.000000000000000000 ) ) ;
#284 =( CONVERSION_BASED_UNIT ( 'INCH', #185 ) LENGTH_UNIT ( ) NAMED_UNIT ( #197 ) );
#285 =( NAMED_UNIT ( * ) PLANE_ANGLE_UNIT ( ) SI_UNIT ( $, .RADIAN. ) );
#286 = CIRCLE ( 'NONE', #40, 0.3750000000000000555 ) ;
#287 = LENGTH_MEASURE_WITH_UNIT ( LENGTH_MEASURE( 0.02539999999999999897 ), #289 );
#288 = CARTESIAN_POINT ( 'NONE',  ( 0.000000000000000000, 2.000000000000000000, 0.000000000000000000 ) ) ;
#289 =( LENGTH_UNIT ( ) NAMED_UNIT ( * ) SI_UNIT ( $, .METRE. ) );
#290 = AXIS2_PLACEMENT_3D ( 'NONE', #94, #126, #136 ) ;
#291 = EDGE_CURVE ( 'NONE', #13, #187, #41, .T. ) ;
#292 =( GEOMETRIC_REPRESENTATION_CONTEXT ( 3 ) GLOBAL_UNCERTAINTY_ASSIGNED_CONTEXT ( ( #14 ) ) GLOBAL_UNIT_ASSIGNED_CONTEXT ( ( #188, #139, #99 ) ) REPRESENTATION_CONTEXT ( 'NONE', 'WORKASPACE' ) );
#293 = LINE ( 'NONE', #19, #270 ) ;
#294 = CARTESIAN_POINT ( 'NONE',  ( 0.000000000000000000, 0.000000000000000000, 0.000000000000000000 ) ) ;
#295 = APPLICATION_CONTEXT ( 'automotive_design' ) ;
#296 = SURFACE_STYLE_FILL_AREA ( #16 ) ;
#297 = CIRCLE ( 'NONE', #249, 0.3750000000000000555 ) ;
#298 = DIMENSIONAL_EXPONENTS ( 1.000000000000000000, 0.000000000000000000, 0.000000000000000000, 0.000000000000000000, 0.000000000000000000, 0.000000000000000000, 0.000000000000000000 ) ;
#299 = ORIENTED_EDGE ( 'NONE', *, *, #175, .T. ) ;
#300 = FACE_OUTER_BOUND ( 'NONE', #7, .T. ) ;
#301 =( NAMED_UNIT ( * ) PLANE_ANGLE_UNIT ( ) SI_UNIT ( $, .RADIAN. ) );
#302 = CARTESIAN_POINT ( 'NONE',  ( -3.061616997868383141E-16, 5.000000000000000000, 0.000000000000000000 ) ) ;
#303 = DIMENSIONAL_EXPONENTS ( 1.000000000000000000, 0.000000000000000000, 0.000000000000000000, 0.000000000000000000, 0.000000000000000000, 0.000000000000000000, 0.000000000000000000 ) ;
#304 = DIRECTION ( 'NONE',  ( 0.000000000000000000, -1.000000000000000000, -0.000000000000000000 ) ) ;
#305 = PRESENTATION_STYLE_ASSIGNMENT (( #113 ) ) ;
#306 = EDGE_LOOP ( 'NONE', ( #72, #128, #219, #282 ) ) ;
#307 = SURFACE_SIDE_STYLE ('',( #111 ) ) ;
#308 = FACE_OUTER_BOUND ( 'NONE', #264, .T. ) ;
#309 = ORIENTED_EDGE ( 'NONE', *, *, #167, .T. ) ;
ENDSEC;
END-ISO-10303-21;
