ISO-10303-21;
HEADER;
FILE_DESCRIPTION (( 'STEP AP214' ),
    '1' );
FILE_NAME ('06150.STEP',
    '2023-07-05T16:00:49',
    ( '' ),
    ( '' ),
    'SwSTEP 2.0',
    'SolidWorks 2023',
    '' );
FILE_SCHEMA (( 'AUTOMOTIVE_DESIGN' ));
ENDSEC;

DATA;
#1 = CIRCLE ( 'NONE', #151, 0.1875000000000000555 ) ;
#2 = DIRECTION ( 'NONE',  ( 0.000000000000000000, 1.000000000000000000, 0.000000000000000000 ) ) ;
#3 = DIRECTION ( 'NONE',  ( -1.000000000000000000, -1.821231995776178437E-16, 0.000000000000000000 ) ) ;
#4 = SURFACE_STYLE_FILL_AREA ( #88 ) ;
#5 = EDGE_CURVE ( 'NONE', #104, #37, #199, .T. ) ;
#6 =( LENGTH_UNIT ( ) NAMED_UNIT ( * ) SI_UNIT ( $, .METRE. ) );
#7 =( CONVERSION_BASED_UNIT ( 'INCH', #166 ) LENGTH_UNIT ( ) NAMED_UNIT ( #149 ) );
#8 = STYLED_ITEM ( 'NONE', ( #76 ), #21 ) ;
#9 = CARTESIAN_POINT ( 'NONE',  ( 0.1874999999999998057, 2.500000000000000000, 2.296212748401285877E-17 ) ) ;
#10 = DIRECTION ( 'NONE',  ( -1.483045034828085136E-16, 1.000000000000000000, -0.000000000000000000 ) ) ;
#11 = SURFACE_STYLE_FILL_AREA ( #72 ) ;
#12 = ADVANCED_FACE ( 'NONE', ( #102 ), #197, .T. ) ;
#13 = EDGE_CURVE ( 'NONE', #35, #220, #30, .T. ) ;
#14 = SHAPE_DEFINITION_REPRESENTATION ( #23, #170 ) ;
#15 = VECTOR ( 'NONE', #237, 39.37007874015748143 ) ;
#16 = DIRECTION ( 'NONE',  ( -0.000000000000000000, -1.000000000000000000, -0.000000000000000000 ) ) ;
#17 = ORIENTED_EDGE ( 'NONE', *, *, #48, .T. ) ;
#18 = DIRECTION ( 'NONE',  ( -1.000000000000000000, -1.821231995776178437E-16, 0.000000000000000000 ) ) ;
#19 = CARTESIAN_POINT ( 'NONE',  ( 2.817218243466271259E-16, 0.1874999999999993061, 0.000000000000000000 ) ) ;
#20 = UNCERTAINTY_MEASURE_WITH_UNIT (LENGTH_MEASURE( 1.000000000000000082E-05 ), #7, 'distance_accuracy_value', 'NONE');
#21 = ADVANCED_FACE ( 'NONE', ( #174 ), #264, .T. ) ;
#22 = FACE_OUTER_BOUND ( 'NONE', #262, .T. ) ;
#23 = PRODUCT_DEFINITION_SHAPE ( 'NONE', 'NONE',  #59 ) ;
#24 = AXIS2_PLACEMENT_3D ( 'NONE', #185, #229, #51 ) ;
#25 = DIRECTION ( 'NONE',  ( 1.483045034828085136E-16, -1.000000000000000000, 0.000000000000000000 ) ) ;
#26 = SURFACE_SIDE_STYLE ('',( #209 ) ) ;
#27 = LENGTH_MEASURE_WITH_UNIT ( LENGTH_MEASURE( 0.02539999999999999897 ), #82 );
#28 =( NAMED_UNIT ( * ) PLANE_ANGLE_UNIT ( ) SI_UNIT ( $, .RADIAN. ) );
#29 = CONICAL_SURFACE ( 'NONE', #129, 39.37007874015762354, 0.7853981633974501664 ) ;
#30 = CIRCLE ( 'NONE', #134, 0.1874999999999999722 ) ;
#31 = PRESENTATION_STYLE_ASSIGNMENT (( #148 ) ) ;
#32 = DIRECTION ( 'NONE',  ( -1.483045034828085136E-16, 1.000000000000000000, -0.000000000000000000 ) ) ;
#33 = COLOUR_RGB ( '',1.000000000000000000, 0.000000000000000000, 0.000000000000000000 ) ;
#34 = EDGE_CURVE ( 'NONE', #203, #35, #159, .T. ) ;
#35 = VERTEX_POINT ( 'NONE', #227 ) ;
#36 = PRESENTATION_LAYER_ASSIGNMENT (  '', '', ( #96 ) ) ;
#37 = VERTEX_POINT ( 'NONE', #105 ) ;
#38 = AXIS2_PLACEMENT_3D ( 'NONE', #154, #116, #79 ) ;
#39 = VECTOR ( 'NONE', #32, 39.37007874015748143 ) ;
#40 = SURFACE_SIDE_STYLE ('',( #81 ) ) ;
#41 = EDGE_LOOP ( 'NONE', ( #219, #153, #177 ) ) ;
#42 =( LENGTH_UNIT ( ) NAMED_UNIT ( * ) SI_UNIT ( $, .METRE. ) );
#43 = PRESENTATION_LAYER_ASSIGNMENT (  '', '', ( #8 ) ) ;
#44 = FILL_AREA_STYLE ('',( #246 ) ) ;
#45 = LENGTH_MEASURE_WITH_UNIT ( LENGTH_MEASURE( 0.02539999999999999897 ), #171 );
#46 = DIRECTION ( 'NONE',  ( 0.000000000000000000, 0.000000000000000000, 1.000000000000000000 ) ) ;
#47 = FACE_OUTER_BOUND ( 'NONE', #56, .T. ) ;
#48 = EDGE_CURVE ( 'NONE', #220, #35, #234, .T. ) ;
#49 = DIRECTION ( 'NONE',  ( 0.000000000000000000, 1.000000000000000000, 0.000000000000000000 ) ) ;
#50 = SURFACE_STYLE_USAGE ( .BOTH. , #66 ) ;
#51 = DIRECTION ( 'NONE',  ( 0.000000000000000000, -0.000000000000000000, 1.000000000000000000 ) ) ;
#52 = DIRECTION ( 'NONE',  ( -1.000000000000000000, -1.483045034828085136E-16, 0.000000000000000000 ) ) ;
#53 = CARTESIAN_POINT ( 'NONE',  ( -0.1874999999999999445, 2.500000000000000000, 0.000000000000000000 ) ) ;
#54 = AXIS2_PLACEMENT_3D ( 'NONE', #68, #141, #160 ) ;
#55 = EDGE_LOOP ( 'NONE', ( #138, #75 ) ) ;
#56 = EDGE_LOOP ( 'NONE', ( #152, #263 ) ) ;
#57 = CIRCLE ( 'NONE', #198, 0.1874999999999996947 ) ;
#58 = ORIENTED_EDGE ( 'NONE', *, *, #80, .T. ) ;
#59 = PRODUCT_DEFINITION ( 'UNKNOWN', '', #133, #225 ) ;
#60 = UNCERTAINTY_MEASURE_WITH_UNIT (LENGTH_MEASURE( 1.000000000000000082E-05 ), #207, 'distance_accuracy_value', 'NONE');
#61 = MECHANICAL_DESIGN_GEOMETRIC_PRESENTATION_REPRESENTATION (  '', ( #178 ), #150 ) ;
#62 = DIRECTION ( 'NONE',  ( 1.000000000000000000, 1.483045034828085136E-16, 0.000000000000000000 ) ) ;
#63 = PRESENTATION_STYLE_ASSIGNMENT (( #65 ) ) ;
#64 = CARTESIAN_POINT ( 'NONE',  ( -6.123233995736764803E-17, 2.500000000000000000, 0.000000000000000000 ) ) ;
#65 = SURFACE_STYLE_USAGE ( .BOTH. , #26 ) ;
#66 = SURFACE_SIDE_STYLE ('',( #183 ) ) ;
#67 = MECHANICAL_DESIGN_GEOMETRIC_PRESENTATION_REPRESENTATION (  '', ( #155 ), #161 ) ;
#68 = CARTESIAN_POINT ( 'NONE',  ( -6.123233995736766036E-17, 2.500000000000000000, 0.000000000000000000 ) ) ;
#69 = SURFACE_STYLE_USAGE ( .BOTH. , #87 ) ;
#70 = ADVANCED_FACE ( 'NONE', ( #189 ), #226, .T. ) ;
#71 = DIMENSIONAL_EXPONENTS ( 1.000000000000000000, 0.000000000000000000, 0.000000000000000000, 0.000000000000000000, 0.000000000000000000, 0.000000000000000000, 0.000000000000000000 ) ;
#72 = FILL_AREA_STYLE ('',( #214 ) ) ;
#73 = DIRECTION ( 'NONE',  ( 1.000000000000000000, 0.000000000000000000, 0.000000000000000000 ) ) ;
#74 = MECHANICAL_DESIGN_GEOMETRIC_PRESENTATION_REPRESENTATION (  '', ( #113 ), #184 ) ;
#75 = ORIENTED_EDGE ( 'NONE', *, *, #13, .F. ) ;
#76 = PRESENTATION_STYLE_ASSIGNMENT (( #157 ) ) ;
#77 = ORIENTED_EDGE ( 'NONE', *, *, #120, .F. ) ;
#78 = MANIFOLD_SOLID_BREP ( 'Revolve - Tool Body (Pointed)', #260 ) ;
#79 = DIRECTION ( 'NONE',  ( -1.000000000000000000, 0.000000000000000000, 0.000000000000000000 ) ) ;
#80 = EDGE_CURVE ( 'NONE', #203, #220, #191, .T. ) ;
#81 = SURFACE_STYLE_FILL_AREA ( #201 ) ;
#82 =( LENGTH_UNIT ( ) NAMED_UNIT ( * ) SI_UNIT ( $, .METRE. ) );
#83 = AXIS2_PLACEMENT_3D ( 'NONE', #64, #10, #228 ) ;
#84 = AXIS2_PLACEMENT_3D ( 'NONE', #19, #137, #18 ) ;
#85 = DIRECTION ( 'NONE',  ( -1.483045034828085136E-16, 1.000000000000000000, -0.000000000000000000 ) ) ;
#86 = CARTESIAN_POINT ( 'NONE',  ( 0.000000000000000000, 0.1874999999999993061, 0.000000000000000000 ) ) ;
#87 = SURFACE_SIDE_STYLE ('',( #4 ) ) ;
#88 = FILL_AREA_STYLE ('',( #140 ) ) ;
#89 =( LENGTH_UNIT ( ) NAMED_UNIT ( * ) SI_UNIT ( $, .METRE. ) );
#90 = DIRECTION ( 'NONE',  ( -1.483045034828085136E-16, 1.000000000000000000, -0.000000000000000000 ) ) ;
#91 = SURFACE_SIDE_STYLE ('',( #11 ) ) ;
#92 = DIMENSIONAL_EXPONENTS ( 1.000000000000000000, 0.000000000000000000, 0.000000000000000000, 0.000000000000000000, 0.000000000000000000, 0.000000000000000000, 0.000000000000000000 ) ;
#93 =( NAMED_UNIT ( * ) SI_UNIT ( $, .STERADIAN. ) SOLID_ANGLE_UNIT ( ) );
#94 = CARTESIAN_POINT ( 'NONE',  ( 0.000000000000000000, 0.000000000000000000, 0.000000000000000000 ) ) ;
#95 = APPLICATION_CONTEXT ( 'automotive_design' ) ;
#96 = STYLED_ITEM ( 'NONE', ( #144 ), #200 ) ;
#97 = DIRECTION ( 'NONE',  ( 0.000000000000000000, 0.000000000000000000, -1.000000000000000000 ) ) ;
#98 = ORIENTED_EDGE ( 'NONE', *, *, #5, .F. ) ;
#99 = ORIENTED_EDGE ( 'NONE', *, *, #100, .F. ) ;
#100 = EDGE_CURVE ( 'NONE', #37, #224, #142, .T. ) ;
#101 = CIRCLE ( 'NONE', #83, 0.1875000000000000555 ) ;
#102 = FACE_OUTER_BOUND ( 'NONE', #117, .T. ) ;
#103 = UNCERTAINTY_MEASURE_WITH_UNIT (LENGTH_MEASURE( 1.000000000000000082E-05 ), #249, 'distance_accuracy_value', 'NONE');
#104 = VERTEX_POINT ( 'NONE', #195 ) ;
#105 = CARTESIAN_POINT ( 'NONE',  ( -0.1874999999999994449, 0.1874999999999992506, 0.000000000000000000 ) ) ;
#106 = CARTESIAN_POINT ( 'NONE',  ( 0.000000000000000000, 39.37007874015748143, 0.000000000000000000 ) ) ;
#107 = DIRECTION ( 'NONE',  ( 0.000000000000000000, 0.000000000000000000, 1.000000000000000000 ) ) ;
#108 = CARTESIAN_POINT ( 'NONE',  ( 0.000000000000000000, 39.37007874015748143, 0.000000000000000000 ) ) ;
#109 = MECHANICAL_DESIGN_GEOMETRIC_PRESENTATION_REPRESENTATION (  '', ( #96 ), #259 ) ;
#110 = FILL_AREA_STYLE ('',( #192 ) ) ;
#111 = DIMENSIONAL_EXPONENTS ( 1.000000000000000000, 0.000000000000000000, 0.000000000000000000, 0.000000000000000000, 0.000000000000000000, 0.000000000000000000, 0.000000000000000000 ) ;
#112 = LINE ( 'NONE', #9, #139 ) ;
#113 = STYLED_ITEM ( 'NONE', ( #63 ), #70 ) ;
#114 = EDGE_CURVE ( 'NONE', #104, #223, #112, .T. ) ;
#115 = PRESENTATION_LAYER_ASSIGNMENT (  '', '', ( #178 ) ) ;
#116 = DIRECTION ( 'NONE',  ( -1.483045034828085136E-16, 1.000000000000000000, -0.000000000000000000 ) ) ;
#117 = EDGE_LOOP ( 'NONE', ( #239, #176, #118, #99 ) ) ;
#118 = ORIENTED_EDGE ( 'NONE', *, *, #217, .F. ) ;
#119 = COLOUR_RGB ( '',1.000000000000000000, 0.000000000000000000, 0.000000000000000000 ) ;
#120 = EDGE_CURVE ( 'NONE', #223, #224, #1, .T. ) ;
#121 =( NAMED_UNIT ( * ) SI_UNIT ( $, .STERADIAN. ) SOLID_ANGLE_UNIT ( ) );
#122 =( LENGTH_UNIT ( ) NAMED_UNIT ( * ) SI_UNIT ( $, .METRE. ) );
#123 = CARTESIAN_POINT ( 'NONE',  ( 0.1874999999999999722, 2.500000000000000000, 2.296212748401286801E-17 ) ) ;
#124 = DIRECTION ( 'NONE',  ( 8.659560562354948882E-17, 0.7071067811865462405, -0.7071067811865487940 ) ) ;
#125 =( GEOMETRIC_REPRESENTATION_CONTEXT ( 3 ) GLOBAL_UNCERTAINTY_ASSIGNED_CONTEXT ( ( #103 ) ) GLOBAL_UNIT_ASSIGNED_CONTEXT ( ( #249, #216, #257 ) ) REPRESENTATION_CONTEXT ( 'NONE', 'WORKASPACE' ) );
#126 =( CONVERSION_BASED_UNIT ( 'INCH', #27 ) LENGTH_UNIT ( ) NAMED_UNIT ( #146 ) );
#127 =( NAMED_UNIT ( * ) SI_UNIT ( $, .STERADIAN. ) SOLID_ANGLE_UNIT ( ) );
#128 = CYLINDRICAL_SURFACE ( 'NONE', #54, 0.1874999999999998890 ) ;
#129 = AXIS2_PLACEMENT_3D ( 'NONE', #106, #2, #107 ) ;
#130 = PLANE ( 'NONE',  #221 ) ;
#131 = DIRECTION ( 'NONE',  ( -1.483045034828085136E-16, 1.000000000000000000, -0.000000000000000000 ) ) ;
#132 = APPLICATION_PROTOCOL_DEFINITION ( 'draft international standard', 'automotive_design', 1998, #193 ) ;
#133 = PRODUCT_DEFINITION_FORMATION_WITH_SPECIFIED_SOURCE ( 'ANY', '', #202, .NOT_KNOWN. ) ;
#134 = AXIS2_PLACEMENT_3D ( 'NONE', #179, #16, #97 ) ;
#135 = ORIENTED_EDGE ( 'NONE', *, *, #34, .F. ) ;
#136 =( GEOMETRIC_REPRESENTATION_CONTEXT ( 3 ) GLOBAL_UNCERTAINTY_ASSIGNED_CONTEXT ( ( #20 ) ) GLOBAL_UNIT_ASSIGNED_CONTEXT ( ( #7, #231, #145 ) ) REPRESENTATION_CONTEXT ( 'NONE', 'WORKASPACE' ) );
#137 = DIRECTION ( 'NONE',  ( -1.483045034828085136E-16, 1.000000000000000000, -0.000000000000000000 ) ) ;
#138 = ORIENTED_EDGE ( 'NONE', *, *, #48, .F. ) ;
#139 = VECTOR ( 'NONE', #131, 39.37007874015748143 ) ;
#140 = FILL_AREA_STYLE_COLOUR ( '', #173 ) ;
#141 = DIRECTION ( 'NONE',  ( -1.483045034828085136E-16, 1.000000000000000000, -0.000000000000000000 ) ) ;
#142 = LINE ( 'NONE', #53, #39 ) ;
#143 = LENGTH_MEASURE_WITH_UNIT ( LENGTH_MEASURE( 0.02539999999999999897 ), #122 );
#144 = PRESENTATION_STYLE_ASSIGNMENT (( #50 ) ) ;
#145 =( NAMED_UNIT ( * ) SI_UNIT ( $, .STERADIAN. ) SOLID_ANGLE_UNIT ( ) );
#146 = DIMENSIONAL_EXPONENTS ( 1.000000000000000000, 0.000000000000000000, 0.000000000000000000, 0.000000000000000000, 0.000000000000000000, 0.000000000000000000, 0.000000000000000000 ) ;
#147 = CARTESIAN_POINT ( 'NONE',  ( 2.817218243466271259E-16, 0.1874999999999993061, 0.000000000000000000 ) ) ;
#148 = SURFACE_STYLE_USAGE ( .BOTH. , #91 ) ;
#149 = DIMENSIONAL_EXPONENTS ( 1.000000000000000000, 0.000000000000000000, 0.000000000000000000, 0.000000000000000000, 0.000000000000000000, 0.000000000000000000, 0.000000000000000000 ) ;
#150 =( GEOMETRIC_REPRESENTATION_CONTEXT ( 3 ) GLOBAL_UNCERTAINTY_ASSIGNED_CONTEXT ( ( #60 ) ) GLOBAL_UNIT_ASSIGNED_CONTEXT ( ( #207, #255, #93 ) ) REPRESENTATION_CONTEXT ( 'NONE', 'WORKASPACE' ) );
#151 = AXIS2_PLACEMENT_3D ( 'NONE', #218, #90, #168 ) ;
#152 = ORIENTED_EDGE ( 'NONE', *, *, #217, .T. ) ;
#153 = ORIENTED_EDGE ( 'NONE', *, *, #34, .T. ) ;
#154 = CARTESIAN_POINT ( 'NONE',  ( -6.123233995736766036E-17, 2.500000000000000000, 0.000000000000000000 ) ) ;
#155 = STYLED_ITEM ( 'NONE', ( #31 ), #163 ) ;
#156 = ORIENTED_EDGE ( 'NONE', *, *, #114, .F. ) ;
#157 = SURFACE_STYLE_USAGE ( .BOTH. , #40 ) ;
#158 = ADVANCED_FACE ( 'NONE', ( #254 ), #130, .F. ) ;
#159 = LINE ( 'NONE', #164, #204 ) ;
#160 = DIRECTION ( 'NONE',  ( -1.000000000000000000, 0.000000000000000000, 0.000000000000000000 ) ) ;
#161 =( GEOMETRIC_REPRESENTATION_CONTEXT ( 3 ) GLOBAL_UNCERTAINTY_ASSIGNED_CONTEXT ( ( #265 ) ) GLOBAL_UNIT_ASSIGNED_CONTEXT ( ( #162, #28, #127 ) ) REPRESENTATION_CONTEXT ( 'NONE', 'WORKASPACE' ) );
#162 =( CONVERSION_BASED_UNIT ( 'INCH', #45 ) LENGTH_UNIT ( ) NAMED_UNIT ( #71 ) );
#163 = MANIFOLD_SOLID_BREP ( 'Revolve - Cutting Edge', #251 ) ;
#164 = CARTESIAN_POINT ( 'NONE',  ( 0.000000000000000000, 0.000000000000000000, 0.000000000000000000 ) ) ;
#165 = CARTESIAN_POINT ( 'NONE',  ( 0.000000000000000000, 0.000000000000000000, 0.000000000000000000 ) ) ;
#166 = LENGTH_MEASURE_WITH_UNIT ( LENGTH_MEASURE( 0.02539999999999999897 ), #42 );
#167 = CARTESIAN_POINT ( 'NONE',  ( 0.1874999999999999722, 2.500000000000000000, 0.000000000000000000 ) ) ;
#168 = DIRECTION ( 'NONE',  ( -1.000000000000000000, 0.000000000000000000, 0.000000000000000000 ) ) ;
#169 = DIMENSIONAL_EXPONENTS ( 1.000000000000000000, 0.000000000000000000, 0.000000000000000000, 0.000000000000000000, 0.000000000000000000, 0.000000000000000000, 0.000000000000000000 ) ;
#170 = ADVANCED_BREP_SHAPE_REPRESENTATION ( '06150', ( #163, #78, #250 ), #125 ) ;
#171 =( LENGTH_UNIT ( ) NAMED_UNIT ( * ) SI_UNIT ( $, .METRE. ) );
#172 = AXIS2_PLACEMENT_3D ( 'NONE', #108, #49, #46 ) ;
#173 = COLOUR_RGB ( '',0.7921568627450980005, 0.8196078431372548767, 0.9333333333333333481 ) ;
#174 = FACE_OUTER_BOUND ( 'NONE', #55, .T. ) ;
#175 = PRODUCT_RELATED_PRODUCT_CATEGORY ( 'part', '', ( #202 ) ) ;
#176 = ORIENTED_EDGE ( 'NONE', *, *, #114, .T. ) ;
#177 = ORIENTED_EDGE ( 'NONE', *, *, #13, .T. ) ;
#178 = STYLED_ITEM ( 'NONE', ( #252 ), #78 ) ;
#179 = CARTESIAN_POINT ( 'NONE',  ( 0.000000000000000000, 0.1874999999999993061, 0.000000000000000000 ) ) ;
#180 = ADVANCED_FACE ( 'NONE', ( #190 ), #128, .T. ) ;
#181 = UNCERTAINTY_MEASURE_WITH_UNIT (LENGTH_MEASURE( 1.000000000000000082E-05 ), #187, 'distance_accuracy_value', 'NONE');
#182 = DIRECTION ( 'NONE',  ( -0.000000000000000000, -1.000000000000000000, -0.000000000000000000 ) ) ;
#183 = SURFACE_STYLE_FILL_AREA ( #110 ) ;
#184 =( GEOMETRIC_REPRESENTATION_CONTEXT ( 3 ) GLOBAL_UNCERTAINTY_ASSIGNED_CONTEXT ( ( #243 ) ) GLOBAL_UNIT_ASSIGNED_CONTEXT ( ( #126, #210, #206 ) ) REPRESENTATION_CONTEXT ( 'NONE', 'WORKASPACE' ) );
#185 = CARTESIAN_POINT ( 'NONE',  ( 0.000000000000000000, 0.1874999999999993061, 0.000000000000000000 ) ) ;
#186 = COLOUR_RGB ( '',1.000000000000000000, 0.000000000000000000, 0.000000000000000000 ) ;
#187 =( CONVERSION_BASED_UNIT ( 'INCH', #232 ) LENGTH_UNIT ( ) NAMED_UNIT ( #92 ) );
#188 = CARTESIAN_POINT ( 'NONE',  ( 2.817218243466271259E-16, 0.1874999999999993061, 0.000000000000000000 ) ) ;
#189 = FACE_OUTER_BOUND ( 'NONE', #41, .T. ) ;
#190 = FACE_OUTER_BOUND ( 'NONE', #240, .T. ) ;
#191 = LINE ( 'NONE', #235, #15 ) ;
#192 = FILL_AREA_STYLE_COLOUR ( '', #186 ) ;
#193 = APPLICATION_CONTEXT ( 'automotive_design' ) ;
#194 = DIRECTION ( 'NONE',  ( 0.000000000000000000, 0.000000000000000000, 1.000000000000000000 ) ) ;
#195 = CARTESIAN_POINT ( 'NONE',  ( 0.1874999999999999722, 0.1874999999999993339, 2.296212748401286801E-17 ) ) ;
#196 = AXIS2_PLACEMENT_3D ( 'NONE', #86, #182, #247 ) ;
#197 = CYLINDRICAL_SURFACE ( 'NONE', #38, 0.1874999999999998890 ) ;
#198 = AXIS2_PLACEMENT_3D ( 'NONE', #188, #85, #3 ) ;
#199 = CIRCLE ( 'NONE', #84, 0.1874999999999996947 ) ;
#200 = ADVANCED_FACE ( 'NONE', ( #22 ), #29, .T. ) ;
#201 = FILL_AREA_STYLE ('',( #222 ) ) ;
#202 = PRODUCT ( '06150', '06150', '', ( #238 ) ) ;
#203 = VERTEX_POINT ( 'NONE', #165 ) ;
#204 = VECTOR ( 'NONE', #124, 39.37007874015748143 ) ;
#205 = EDGE_LOOP ( 'NONE', ( #241, #98 ) ) ;
#206 =( NAMED_UNIT ( * ) SI_UNIT ( $, .STERADIAN. ) SOLID_ANGLE_UNIT ( ) );
#207 =( CONVERSION_BASED_UNIT ( 'INCH', #143 ) LENGTH_UNIT ( ) NAMED_UNIT ( #169 ) );
#208 = PLANE ( 'NONE',  #230 ) ;
#209 = SURFACE_STYLE_FILL_AREA ( #44 ) ;
#210 =( NAMED_UNIT ( * ) PLANE_ANGLE_UNIT ( ) SI_UNIT ( $, .RADIAN. ) );
#211 = EDGE_CURVE ( 'NONE', #37, #104, #57, .T. ) ;
#212 =( NAMED_UNIT ( * ) PLANE_ANGLE_UNIT ( ) SI_UNIT ( $, .RADIAN. ) );
#213 = PRESENTATION_LAYER_ASSIGNMENT (  '', '', ( #113 ) ) ;
#214 = FILL_AREA_STYLE_COLOUR ( '', #244 ) ;
#215 = MECHANICAL_DESIGN_GEOMETRIC_PRESENTATION_REPRESENTATION (  '', ( #8 ), #136 ) ;
#216 =( NAMED_UNIT ( * ) PLANE_ANGLE_UNIT ( ) SI_UNIT ( $, .RADIAN. ) );
#217 = EDGE_CURVE ( 'NONE', #224, #223, #101, .T. ) ;
#218 = CARTESIAN_POINT ( 'NONE',  ( -6.123233995736764803E-17, 2.500000000000000000, 0.000000000000000000 ) ) ;
#219 = ORIENTED_EDGE ( 'NONE', *, *, #80, .F. ) ;
#220 = VERTEX_POINT ( 'NONE', #245 ) ;
#221 = AXIS2_PLACEMENT_3D ( 'NONE', #147, #233, #52 ) ;
#222 = FILL_AREA_STYLE_COLOUR ( '', #119 ) ;
#223 = VERTEX_POINT ( 'NONE', #123 ) ;
#224 = VERTEX_POINT ( 'NONE', #248 ) ;
#225 = PRODUCT_DEFINITION_CONTEXT ( 'detailed design', #193, 'design' ) ;
#226 = CONICAL_SURFACE ( 'NONE', #172, 39.37007874015762354, 0.7853981633974501664 ) ;
#227 = CARTESIAN_POINT ( 'NONE',  ( 2.296212748401287109E-17, 0.1874999999999993061, -0.1874999999999999722 ) ) ;
#228 = DIRECTION ( 'NONE',  ( -1.000000000000000000, 0.000000000000000000, 0.000000000000000000 ) ) ;
#229 = DIRECTION ( 'NONE',  ( 0.000000000000000000, 1.000000000000000000, 0.000000000000000000 ) ) ;
#230 = AXIS2_PLACEMENT_3D ( 'NONE', #167, #25, #62 ) ;
#231 =( NAMED_UNIT ( * ) PLANE_ANGLE_UNIT ( ) SI_UNIT ( $, .RADIAN. ) );
#232 = LENGTH_MEASURE_WITH_UNIT ( LENGTH_MEASURE( 0.02539999999999999897 ), #89 );
#233 = DIRECTION ( 'NONE',  ( -1.483045034828085136E-16, 1.000000000000000000, 0.000000000000000000 ) ) ;
#234 = CIRCLE ( 'NONE', #196, 0.1874999999999999722 ) ;
#235 = CARTESIAN_POINT ( 'NONE',  ( 0.000000000000000000, 0.000000000000000000, 0.000000000000000000 ) ) ;
#236 = PRESENTATION_LAYER_ASSIGNMENT (  '', '', ( #155 ) ) ;
#237 = DIRECTION ( 'NONE',  ( 0.000000000000000000, 0.7071067811865462405, 0.7071067811865487940 ) ) ;
#238 = PRODUCT_CONTEXT ( 'NONE', #95, 'mechanical' ) ;
#239 = ORIENTED_EDGE ( 'NONE', *, *, #211, .T. ) ;
#240 = EDGE_LOOP ( 'NONE', ( #156, #261, #242, #77 ) ) ;
#241 = ORIENTED_EDGE ( 'NONE', *, *, #211, .F. ) ;
#242 = ORIENTED_EDGE ( 'NONE', *, *, #100, .T. ) ;
#243 = UNCERTAINTY_MEASURE_WITH_UNIT (LENGTH_MEASURE( 1.000000000000000082E-05 ), #126, 'distance_accuracy_value', 'NONE');
#244 = COLOUR_RGB ( '',0.7921568627450980005, 0.8196078431372548767, 0.9333333333333333481 ) ;
#245 = CARTESIAN_POINT ( 'NONE',  ( 0.000000000000000000, 0.1874999999999993061, 0.1874999999999999722 ) ) ;
#246 = FILL_AREA_STYLE_COLOUR ( '', #33 ) ;
#247 = DIRECTION ( 'NONE',  ( 0.000000000000000000, 0.000000000000000000, -1.000000000000000000 ) ) ;
#248 = CARTESIAN_POINT ( 'NONE',  ( -0.1875000000000001110, 2.500000000000000000, 0.000000000000000000 ) ) ;
#249 =( CONVERSION_BASED_UNIT ( 'INCH', #253 ) LENGTH_UNIT ( ) NAMED_UNIT ( #111 ) );
#250 = AXIS2_PLACEMENT_3D ( 'NONE', #94, #194, #73 ) ;
#251 = CLOSED_SHELL ( 'NONE', ( #70, #21, #200 ) ) ;
#252 = PRESENTATION_STYLE_ASSIGNMENT (( #69 ) ) ;
#253 = LENGTH_MEASURE_WITH_UNIT ( LENGTH_MEASURE( 0.02539999999999999897 ), #6 );
#254 = FACE_OUTER_BOUND ( 'NONE', #205, .T. ) ;
#255 =( NAMED_UNIT ( * ) PLANE_ANGLE_UNIT ( ) SI_UNIT ( $, .RADIAN. ) );
#256 = ADVANCED_FACE ( 'NONE', ( #47 ), #208, .F. ) ;
#257 =( NAMED_UNIT ( * ) SI_UNIT ( $, .STERADIAN. ) SOLID_ANGLE_UNIT ( ) );
#258 = APPLICATION_PROTOCOL_DEFINITION ( 'draft international standard', 'automotive_design', 1998, #95 ) ;
#259 =( GEOMETRIC_REPRESENTATION_CONTEXT ( 3 ) GLOBAL_UNCERTAINTY_ASSIGNED_CONTEXT ( ( #181 ) ) GLOBAL_UNIT_ASSIGNED_CONTEXT ( ( #187, #212, #121 ) ) REPRESENTATION_CONTEXT ( 'NONE', 'WORKASPACE' ) );
#260 = CLOSED_SHELL ( 'NONE', ( #12, #158, #180, #256 ) ) ;
#261 = ORIENTED_EDGE ( 'NONE', *, *, #5, .T. ) ;
#262 = EDGE_LOOP ( 'NONE', ( #135, #58, #17 ) ) ;
#263 = ORIENTED_EDGE ( 'NONE', *, *, #120, .T. ) ;
#264 = PLANE ( 'NONE',  #24 ) ;
#265 = UNCERTAINTY_MEASURE_WITH_UNIT (LENGTH_MEASURE( 1.000000000000000082E-05 ), #162, 'distance_accuracy_value', 'NONE');
ENDSEC;
END-ISO-10303-21;
