ISO-10303-21;
HEADER;
FILE_DESCRIPTION (( 'STEP AP214' ),
    '1' );
FILE_NAME ('Micro_BEM-187-04.STEP',
    '2021-09-03T13:05:37',
    ( '' ),
    ( '' ),
    'SwSTEP 2.0',
    'SolidWorks 2020',
    '' );
FILE_SCHEMA (( 'AUTOMOTIVE_DESIGN' ));
ENDSEC;

DATA;
#1 = ORIENTED_EDGE ( 'NONE', *, *, #67, .T. ) ;
#2 = EDGE_CURVE ( 'NONE', #274, #58, #44, .T. ) ;
#3 = DIRECTION ( 'NONE',  ( 1.000000000000000000, 0.0000000000000000000, 0.0000000000000000000 ) ) ;
#4 = ORIENTED_EDGE ( 'NONE', *, *, #98, .F. ) ;
#5 = CIRCLE ( 'NONE', #101, 0.09365624999999999645 ) ;
#6 = EDGE_LOOP ( 'NONE', ( #96, #204, #53, #301 ) ) ;
#7 = CARTESIAN_POINT ( 'NONE',  ( -0.07874999999999980627, 0.0000000000000000000, 2.000000000000000000 ) ) ;
#8 = FACE_OUTER_BOUND ( 'NONE', #128, .T. ) ;
#9 = LINE ( 'NONE', #112, #244 ) ;
#10 = AXIS2_PLACEMENT_3D ( 'NONE', #206, #316, #288 ) ;
#11 = SURFACE_SIDE_STYLE ('',( #136 ) ) ;
#12 = CARTESIAN_POINT ( 'NONE',  ( -0.09365624999999992706, 1.147532321013543253E-17, 0.6250000000000000000 ) ) ;
#13 = DIRECTION ( 'NONE',  ( 0.0000000000000000000, 0.0000000000000000000, 1.000000000000000000 ) ) ;
#14 = CYLINDRICAL_SURFACE ( 'NONE', #50, 0.09375000000000001388 ) ;
#15 = EDGE_CURVE ( 'NONE', #274, #25, #97, .T. ) ;
#16 = CIRCLE ( 'NONE', #201, 0.07874999999999980627 ) ;
#17 = PRODUCT_DEFINITION_FORMATION_WITH_SPECIFIED_SOURCE ( 'ANY', '', #113, .NOT_KNOWN. ) ;
#18 = CARTESIAN_POINT ( 'NONE',  ( 7.654042494670957853E-17, 0.0000000000000000000, 0.6250000000000000000 ) ) ;
#19 = DIRECTION ( 'NONE',  ( 0.0000000000000000000, 0.0000000000000000000, -1.000000000000000000 ) ) ;
#20 =( NAMED_UNIT ( * ) PLANE_ANGLE_UNIT ( ) SI_UNIT ( $, .RADIAN. ) );
#21 = CIRCLE ( 'NONE', #149, 0.09365624999999999645 ) ;
#22 = DIRECTION ( 'NONE',  ( 0.0000000000000000000, -1.000000000000000000, 0.0000000000000000000 ) ) ;
#23 = ADVANCED_FACE ( 'NONE', ( #8 ), #179, .T. ) ;
#24 = EDGE_CURVE ( 'NONE', #71, #150, #307, .T. ) ;
#25 = VERTEX_POINT ( 'NONE', #275 ) ;
#26 = ORIENTED_EDGE ( 'NONE', *, *, #2, .T. ) ;
#27 = ORIENTED_EDGE ( 'NONE', *, *, #232, .F. ) ;
#28 = CONICAL_SURFACE ( 'NONE', #210, 0.07874999999999980627, 0.7853981633974466137 ) ;
#29 = DIRECTION ( 'NONE',  ( -0.1736481776669311639, 2.126576849575783008E-17, 0.9848077530122080203 ) ) ;
#30 = ORIENTED_EDGE ( 'NONE', *, *, #253, .F. ) ;
#31 = LENGTH_MEASURE_WITH_UNIT ( LENGTH_MEASURE( 0.02539999999999999897 ), #185 );
#32 = ORIENTED_EDGE ( 'NONE', *, *, #253, .T. ) ;
#33 = DIRECTION ( 'NONE',  ( -0.0000000000000000000, -0.0000000000000000000, -1.000000000000000000 ) ) ;
#34 = PRESENTATION_LAYER_ASSIGNMENT (  '', '', ( #62 ) ) ;
#35 = CARTESIAN_POINT ( 'NONE',  ( 0.09365625000000006584, 0.0000000000000000000, 0.6250000000000000000 ) ) ;
#36 = DIRECTION ( 'NONE',  ( -1.224646799147353207E-16, -0.0000000000000000000, -1.000000000000000000 ) ) ;
#37 = DIRECTION ( 'NONE',  ( 1.000000000000000000, 0.0000000000000000000, 0.0000000000000000000 ) ) ;
#38 = LENGTH_MEASURE_WITH_UNIT ( LENGTH_MEASURE( 0.02539999999999999897 ), #88 );
#39 = VECTOR ( 'NONE', #237, 39.37007874015748143 ) ;
#40 = SURFACE_SIDE_STYLE ('',( #165 ) ) ;
#41 = AXIS2_PLACEMENT_3D ( 'NONE', #107, #229, #3 ) ;
#42 = FACE_OUTER_BOUND ( 'NONE', #182, .T. ) ;
#43 = SHAPE_DEFINITION_REPRESENTATION ( #289, #75 ) ;
#44 = CIRCLE ( 'NONE', #41, 0.09375000000000001388 ) ;
#45 = FACE_OUTER_BOUND ( 'NONE', #49, .T. ) ;
#46 = ADVANCED_FACE ( 'NONE', ( #167 ), #199, .T. ) ;
#47 = DIMENSIONAL_EXPONENTS ( 1.000000000000000000, 0.0000000000000000000, 0.0000000000000000000, 0.0000000000000000000, 0.0000000000000000000, 0.0000000000000000000, 0.0000000000000000000 ) ;
#48 = DIRECTION ( 'NONE',  ( -1.224646799147353207E-16, -0.0000000000000000000, -1.000000000000000000 ) ) ;
#49 = EDGE_LOOP ( 'NONE', ( #287, #303, #180, #158 ) ) ;
#50 = AXIS2_PLACEMENT_3D ( 'NONE', #170, #91, #70 ) ;
#51 = CARTESIAN_POINT ( 'NONE',  ( 1.146958267826442798E-17, 0.0000000000000000000, 0.09365624999999999645 ) ) ;
#52 = UNCERTAINTY_MEASURE_WITH_UNIT (LENGTH_MEASURE( 1.000000000000000082E-05 ), #140, 'distance_accuracy_value', 'NONE');
#53 = ORIENTED_EDGE ( 'NONE', *, *, #232, .T. ) ;
#54 = LINE ( 'NONE', #293, #139 ) ;
#55 = ORIENTED_EDGE ( 'NONE', *, *, #259, .T. ) ;
#56 = COLOUR_RGB ( '',0.7921568627450980005, 0.8196078431372548767, 0.9333333333333333481 ) ;
#57 = PRESENTATION_STYLE_ASSIGNMENT (( #181 ) ) ;
#58 = VERTEX_POINT ( 'NONE', #85 ) ;
#59 = CYLINDRICAL_SURFACE ( 'NONE', #127, 0.09365624999999999645 ) ;
#60 = CARTESIAN_POINT ( 'NONE',  ( 1.146958267826442798E-17, 0.0000000000000000000, 0.09365624999999999645 ) ) ;
#61 = CARTESIAN_POINT ( 'NONE',  ( 0.0000000000000000000, 0.0000000000000000000, 1.984999999999999654 ) ) ;
#62 = STYLED_ITEM ( 'NONE', ( #57 ), #230 ) ;
#63 = CARTESIAN_POINT ( 'NONE',  ( 1.720437401739664274E-17, 0.0000000000000000000, 0.0000000000000000000 ) ) ;
#64 = FILL_AREA_STYLE ('',( #169 ) ) ;
#65 = DIRECTION ( 'NONE',  ( 1.224646799147353207E-16, 1.000000000000000000, -0.0000000000000000000 ) ) ;
#66 = AXIS2_PLACEMENT_3D ( 'NONE', #51, #151, #126 ) ;
#67 = EDGE_CURVE ( 'NONE', #104, #274, #142, .T. ) ;
#68 = DIRECTION ( 'NONE',  ( 1.000000000000000000, 0.0000000000000000000, 0.0000000000000000000 ) ) ;
#69 = EDGE_CURVE ( 'NONE', #282, #284, #9, .T. ) ;
#70 = DIRECTION ( 'NONE',  ( -1.000000000000000000, 0.0000000000000000000, 0.0000000000000000000 ) ) ;
#71 = VERTEX_POINT ( 'NONE', #12 ) ;
#72 = DIRECTION ( 'NONE',  ( 1.000000000000000000, 0.0000000000000000000, 0.0000000000000000000 ) ) ;
#73 = VECTOR ( 'NONE', #33, 39.37007874015748143 ) ;
#74 = EDGE_LOOP ( 'NONE', ( #256, #55 ) ) ;
#75 = ADVANCED_BREP_SHAPE_REPRESENTATION ( 'Micro_BEM-187-04', ( #230, #266 ), #297 ) ;
#76 = ORIENTED_EDGE ( 'NONE', *, *, #69, .T. ) ;
#77 =( GEOMETRIC_REPRESENTATION_CONTEXT ( 3 ) GLOBAL_UNCERTAINTY_ASSIGNED_CONTEXT ( ( #105 ) ) GLOBAL_UNIT_ASSIGNED_CONTEXT ( ( #191, #82, #129 ) ) REPRESENTATION_CONTEXT ( 'NONE', 'WORKASPACE' ) );
#78 = ORIENTED_EDGE ( 'NONE', *, *, #223, .F. ) ;
#79 = ORIENTED_EDGE ( 'NONE', *, *, #259, .F. ) ;
#80 = EDGE_LOOP ( 'NONE', ( #175, #26, #254, #305 ) ) ;
#81 = AXIS2_PLACEMENT_3D ( 'NONE', #290, #212, #273 ) ;
#82 =( NAMED_UNIT ( * ) PLANE_ANGLE_UNIT ( ) SI_UNIT ( $, .RADIAN. ) );
#83 = DIRECTION ( 'NONE',  ( 1.000000000000000000, 0.0000000000000000000, 0.0000000000000000000 ) ) ;
#84 =( LENGTH_UNIT ( ) NAMED_UNIT ( * ) SI_UNIT ( $, .METRE. ) );
#85 = CARTESIAN_POINT ( 'NONE',  ( -0.09375000000000001388, 0.0000000000000000000, 1.984999999999999654 ) ) ;
#86 = CARTESIAN_POINT ( 'NONE',  ( 0.09365625000000001033, 1.146958267826442798E-17, 0.09365624999999996869 ) ) ;
#87 = DIRECTION ( 'NONE',  ( 0.7071067811865463515, 8.659560562354916834E-17, -0.7071067811865486830 ) ) ;
#88 =( LENGTH_UNIT ( ) NAMED_UNIT ( * ) SI_UNIT ( $, .METRE. ) );
#89 = DIRECTION ( 'NONE',  ( 0.0000000000000000000, 0.0000000000000000000, 1.000000000000000000 ) ) ;
#90 = AXIS2_PLACEMENT_3D ( 'NONE', #278, #48, #120 ) ;
#91 = DIRECTION ( 'NONE',  ( -0.0000000000000000000, -0.0000000000000000000, -1.000000000000000000 ) ) ;
#92 = SURFACE_STYLE_USAGE ( .BOTH. , #40 ) ;
#93 = CYLINDRICAL_SURFACE ( 'NONE', #123, 0.09365624999999999645 ) ;
#94 = EDGE_LOOP ( 'NONE', ( #121, #258, #125, #207 ) ) ;
#95 = CONICAL_SURFACE ( 'NONE', #173, 0.09365624999999999645, 0.1745329251994338637 ) ;
#96 = ORIENTED_EDGE ( 'NONE', *, *, #250, .F. ) ;
#97 = LINE ( 'NONE', #130, #39 ) ;
#98 = EDGE_CURVE ( 'NONE', #58, #143, #196, .T. ) ;
#99 = ADVANCED_FACE ( 'NONE', ( #42 ), #280, .T. ) ;
#100 = VERTEX_POINT ( 'NONE', #162 ) ;
#101 = AXIS2_PLACEMENT_3D ( 'NONE', #294, #65, #324 ) ;
#102 = PRESENTATION_LAYER_ASSIGNMENT (  '', '', ( #213 ) ) ;
#103 = DIRECTION ( 'NONE',  ( 1.000000000000000000, 0.0000000000000000000, 0.0000000000000000000 ) ) ;
#104 = VERTEX_POINT ( 'NONE', #134 ) ;
#105 = UNCERTAINTY_MEASURE_WITH_UNIT (LENGTH_MEASURE( 1.000000000000000082E-05 ), #191, 'distance_accuracy_value', 'NONE');
#106 = CYLINDRICAL_SURFACE ( 'NONE', #10, 0.09375000000000001388 ) ;
#107 = CARTESIAN_POINT ( 'NONE',  ( 0.0000000000000000000, 0.0000000000000000000, 1.984999999999999654 ) ) ;
#108 = DIRECTION ( 'NONE',  ( 0.0000000000000000000, 0.0000000000000000000, 1.000000000000000000 ) ) ;
#109 = DIRECTION ( 'NONE',  ( -1.000000000000000000, 0.0000000000000000000, 0.0000000000000000000 ) ) ;
#110 = VECTOR ( 'NONE', #261, 39.37007874015748143 ) ;
#111 = DIRECTION ( 'NONE',  ( -1.224646799147353207E-16, -0.0000000000000000000, -1.000000000000000000 ) ) ;
#112 = CARTESIAN_POINT ( 'NONE',  ( 0.09365624999999999645, 1.146958267826442798E-17, -1.146958267826442798E-17 ) ) ;
#113 = PRODUCT ( 'Micro_BEM-187-04', 'Micro_BEM-187-04', '', ( #299 ) ) ;
#114 = CARTESIAN_POINT ( 'NONE',  ( 1.146958267826442798E-17, 0.0000000000000000000, 0.09365624999999999645 ) ) ;
#115 = AXIS2_PLACEMENT_3D ( 'NONE', #61, #174, #72 ) ;
#116 = DIRECTION ( 'NONE',  ( 0.0000000000000000000, 0.0000000000000000000, 1.000000000000000000 ) ) ;
#117 = DIRECTION ( 'NONE',  ( -1.000000000000000000, 0.0000000000000000000, 1.823055050827002517E-16 ) ) ;
#118 = DIRECTION ( 'NONE',  ( 1.000000000000000000, 0.0000000000000000000, -0.0000000000000000000 ) ) ;
#119 = VECTOR ( 'NONE', #87, 39.37007874015748143 ) ;
#120 = DIRECTION ( 'NONE',  ( 1.000000000000000000, 0.0000000000000000000, 0.0000000000000000000 ) ) ;
#121 = ORIENTED_EDGE ( 'NONE', *, *, #69, .F. ) ;
#122 = EDGE_CURVE ( 'NONE', #284, #150, #251, .T. ) ;
#123 = AXIS2_PLACEMENT_3D ( 'NONE', #200, #302, #314 ) ;
#124 = EDGE_CURVE ( 'NONE', #25, #143, #233, .T. ) ;
#125 = ORIENTED_EDGE ( 'NONE', *, *, #24, .T. ) ;
#126 = DIRECTION ( 'NONE',  ( 1.000000000000000000, 0.0000000000000000000, 0.0000000000000000000 ) ) ;
#127 = AXIS2_PLACEMENT_3D ( 'NONE', #160, #263, #292 ) ;
#128 = EDGE_LOOP ( 'NONE', ( #312, #231, #310 ) ) ;
#129 =( NAMED_UNIT ( * ) SI_UNIT ( $, .STERADIAN. ) SOLID_ANGLE_UNIT ( ) );
#130 = CARTESIAN_POINT ( 'NONE',  ( 0.09375000000000001388, 1.148106374200643863E-17, 2.000000000000000000 ) ) ;
#131 = DIRECTION ( 'NONE',  ( -1.000000000000000000, 0.0000000000000000000, 0.0000000000000000000 ) ) ;
#132 = ORIENTED_EDGE ( 'NONE', *, *, #214, .F. ) ;
#133 = LINE ( 'NONE', #7, #184 ) ;
#134 = CARTESIAN_POINT ( 'NONE',  ( 0.07874999999999980627, 1.056257864264590573E-17, 2.000000000000000000 ) ) ;
#135 = AXIS2_PLACEMENT_3D ( 'NONE', #218, #13, #236 ) ;
#136 = SURFACE_STYLE_FILL_AREA ( #264 ) ;
#137 = CARTESIAN_POINT ( 'NONE',  ( -0.09375000000000001388, 0.0000000000000000000, 2.000000000000000000 ) ) ;
#138 = APPLICATION_PROTOCOL_DEFINITION ( 'draft international standard', 'automotive_design', 1998, #152 ) ;
#139 = VECTOR ( 'NONE', #29, 39.37007874015747433 ) ;
#140 =( CONVERSION_BASED_UNIT ( 'INCH', #38 ) LENGTH_UNIT ( ) NAMED_UNIT ( #203 ) );
#141 = FACE_OUTER_BOUND ( 'NONE', #176, .T. ) ;
#142 = LINE ( 'NONE', #319, #119 ) ;
#143 = VERTEX_POINT ( 'NONE', #224 ) ;
#144 = SPHERICAL_SURFACE ( 'NONE', #81, 0.09365624999999999645 ) ;
#145 = MECHANICAL_DESIGN_GEOMETRIC_PRESENTATION_REPRESENTATION (  '', ( #62 ), #77 ) ;
#146 = PRODUCT_DEFINITION ( 'UNKNOWN', '', #17, #255 ) ;
#147 = ADVANCED_FACE ( 'NONE', ( #271 ), #14, .T. ) ;
#148 = EDGE_CURVE ( 'NONE', #239, #150, #5, .T. ) ;
#149 = AXIS2_PLACEMENT_3D ( 'NONE', #249, #22, #225 ) ;
#150 = VERTEX_POINT ( 'NONE', #219 ) ;
#151 = DIRECTION ( 'NONE',  ( 0.0000000000000000000, 1.000000000000000000, 0.0000000000000000000 ) ) ;
#152 = APPLICATION_CONTEXT ( 'automotive_design' ) ;
#153 = EDGE_LOOP ( 'NONE', ( #32, #76, #262, #281 ) ) ;
#154 = ADVANCED_FACE ( 'NONE', ( #141 ), #144, .T. ) ;
#155 = AXIS2_PLACEMENT_3D ( 'NONE', #241, #111, #131 ) ;
#156 = DIRECTION ( 'NONE',  ( -1.000000000000000000, 0.0000000000000000000, 1.823055050827002517E-16 ) ) ;
#157 = EDGE_LOOP ( 'NONE', ( #30, #279, #172, #27 ) ) ;
#158 = ORIENTED_EDGE ( 'NONE', *, *, #2, .F. ) ;
#159 = FACE_OUTER_BOUND ( 'NONE', #6, .T. ) ;
#160 = CARTESIAN_POINT ( 'NONE',  ( 0.0000000000000000000, 0.0000000000000000000, 0.0000000000000000000 ) ) ;
#161 = CARTESIAN_POINT ( 'NONE',  ( 0.09375000000000001388, 1.148106374200643863E-17, 1.984999999999999654 ) ) ;
#162 = CARTESIAN_POINT ( 'NONE',  ( -0.07874999999999980627, 0.0000000000000000000, 2.000000000000000000 ) ) ;
#163 = CARTESIAN_POINT ( 'NONE',  ( 0.0000000000000000000, 0.0000000000000000000, 2.000000000000000000 ) ) ;
#164 = ADVANCED_FACE ( 'NONE', ( #45 ), #28, .T. ) ;
#165 = SURFACE_STYLE_FILL_AREA ( #64 ) ;
#166 = AXIS2_PLACEMENT_3D ( 'NONE', #315, #246, #240 ) ;
#167 = FACE_OUTER_BOUND ( 'NONE', #74, .T. ) ;
#168 = DIRECTION ( 'NONE',  ( 1.224646799147353207E-16, 0.0000000000000000000, 1.000000000000000000 ) ) ;
#169 = FILL_AREA_STYLE_COLOUR ( '', #194 ) ;
#170 = CARTESIAN_POINT ( 'NONE',  ( 0.0000000000000000000, 0.0000000000000000000, 2.000000000000000000 ) ) ;
#171 = APPLICATION_PROTOCOL_DEFINITION ( 'draft international standard', 'automotive_design', 1998, #243 ) ;
#172 = ORIENTED_EDGE ( 'NONE', *, *, #217, .T. ) ;
#173 = AXIS2_PLACEMENT_3D ( 'NONE', #18, #322, #83 ) ;
#174 = DIRECTION ( 'NONE',  ( 0.0000000000000000000, 0.0000000000000000000, -1.000000000000000000 ) ) ;
#175 = ORIENTED_EDGE ( 'NONE', *, *, #15, .F. ) ;
#176 = EDGE_LOOP ( 'NONE', ( #78, #205, #252 ) ) ;
#177 = AXIS2_PLACEMENT_3D ( 'NONE', #60, #215, #156 ) ;
#178 =( GEOMETRIC_REPRESENTATION_CONTEXT ( 3 ) GLOBAL_UNCERTAINTY_ASSIGNED_CONTEXT ( ( #52 ) ) GLOBAL_UNIT_ASSIGNED_CONTEXT ( ( #140, #245, #268 ) ) REPRESENTATION_CONTEXT ( 'NONE', 'WORKASPACE' ) );
#179 = SPHERICAL_SURFACE ( 'NONE', #66, 0.09365624999999999645 ) ;
#180 = ORIENTED_EDGE ( 'NONE', *, *, #296, .T. ) ;
#181 = SURFACE_STYLE_USAGE ( .BOTH. , #11 ) ;
#182 = EDGE_LOOP ( 'NONE', ( #79, #1, #132, #309 ) ) ;
#183 = EDGE_CURVE ( 'NONE', #282, #71, #193, .T. ) ;
#184 = VECTOR ( 'NONE', #211, 39.37007874015748143 ) ;
#185 =( LENGTH_UNIT ( ) NAMED_UNIT ( * ) SI_UNIT ( $, .METRE. ) );
#186 = ORIENTED_EDGE ( 'NONE', *, *, #15, .T. ) ;
#187 = FACE_OUTER_BOUND ( 'NONE', #153, .T. ) ;
#188 = CLOSED_SHELL ( 'NONE', ( #154, #202, #198, #99, #147, #306, #46, #164, #276, #227, #23 ) ) ;
#189 = LENGTH_MEASURE_WITH_UNIT ( LENGTH_MEASURE( 0.02539999999999999897 ), #84 );
#190 = CARTESIAN_POINT ( 'NONE',  ( 7.660553729477949085E-17, 0.0000000000000000000, 0.6255316826705892286 ) ) ;
#191 =( CONVERSION_BASED_UNIT ( 'INCH', #31 ) LENGTH_UNIT ( ) NAMED_UNIT ( #272 ) );
#192 = CARTESIAN_POINT ( 'NONE',  ( 0.0000000000000000000, 0.0000000000000000000, 2.000000000000000000 ) ) ;
#193 = CIRCLE ( 'NONE', #166, 0.09365624999999999645 ) ;
#194 = COLOUR_RGB ( '',0.7921568627450980005, 0.8196078431372548767, 0.9333333333333333481 ) ;
#195 = PRESENTATION_STYLE_ASSIGNMENT (( #92 ) ) ;
#196 = LINE ( 'NONE', #137, #73 ) ;
#197 = DIRECTION ( 'NONE',  ( 1.000000000000000000, 0.0000000000000000000, 0.0000000000000000000 ) ) ;
#198 = ADVANCED_FACE ( 'NONE', ( #298 ), #95, .T. ) ;
#199 = PLANE ( 'NONE',  #257 ) ;
#200 = CARTESIAN_POINT ( 'NONE',  ( 0.0000000000000000000, 0.0000000000000000000, 0.0000000000000000000 ) ) ;
#201 = AXIS2_PLACEMENT_3D ( 'NONE', #163, #108, #37 ) ;
#202 = ADVANCED_FACE ( 'NONE', ( #187 ), #59, .T. ) ;
#203 = DIMENSIONAL_EXPONENTS ( 1.000000000000000000, 0.0000000000000000000, 0.0000000000000000000, 0.0000000000000000000, 0.0000000000000000000, 0.0000000000000000000, 0.0000000000000000000 ) ;
#204 = ORIENTED_EDGE ( 'NONE', *, *, #183, .F. ) ;
#205 = ORIENTED_EDGE ( 'NONE', *, *, #148, .T. ) ;
#206 = CARTESIAN_POINT ( 'NONE',  ( 0.0000000000000000000, 0.0000000000000000000, 2.000000000000000000 ) ) ;
#207 = ORIENTED_EDGE ( 'NONE', *, *, #270, .T. ) ;
#208 = CARTESIAN_POINT ( 'NONE',  ( 7.654042494670957853E-17, 0.0000000000000000000, 0.6250000000000000000 ) ) ;
#209 = EDGE_LOOP ( 'NONE', ( #235, #186, #226, #4 ) ) ;
#210 = AXIS2_PLACEMENT_3D ( 'NONE', #300, #221, #109 ) ;
#211 = DIRECTION ( 'NONE',  ( -0.7071067811865463515, 0.0000000000000000000, -0.7071067811865486830 ) ) ;
#212 = DIRECTION ( 'NONE',  ( 0.0000000000000000000, 1.000000000000000000, 0.0000000000000000000 ) ) ;
#213 = STYLED_ITEM ( 'NONE', ( #195 ), #75 ) ;
#214 = EDGE_CURVE ( 'NONE', #58, #274, #286, .T. ) ;
#215 = DIRECTION ( 'NONE',  ( 1.224646799147353207E-16, 0.0000000000000000000, 1.000000000000000000 ) ) ;
#216 = CARTESIAN_POINT ( 'NONE',  ( 0.0000000000000000000, 0.0000000000000000000, 2.000000000000000000 ) ) ;
#217 = EDGE_CURVE ( 'NONE', #143, #25, #248, .T. ) ;
#218 = CARTESIAN_POINT ( 'NONE',  ( 0.0000000000000000000, 0.0000000000000000000, 2.000000000000000000 ) ) ;
#219 = CARTESIAN_POINT ( 'NONE',  ( -0.09365624999999996869, 0.0000000000000000000, 0.09365625000000001033 ) ) ;
#220 = VECTOR ( 'NONE', #36, 39.37007874015748143 ) ;
#221 = DIRECTION ( 'NONE',  ( 0.0000000000000000000, 0.0000000000000000000, -1.000000000000000000 ) ) ;
#222 = AXIS2_PLACEMENT_3D ( 'NONE', #190, #242, #68 ) ;
#223 = EDGE_CURVE ( 'NONE', #239, #284, #21, .T. ) ;
#224 = CARTESIAN_POINT ( 'NONE',  ( -0.09374999999999994449, 0.0000000000000000000, 0.6255316826705892286 ) ) ;
#225 = DIRECTION ( 'NONE',  ( 0.0000000000000000000, 0.0000000000000000000, -1.000000000000000000 ) ) ;
#226 = ORIENTED_EDGE ( 'NONE', *, *, #217, .F. ) ;
#227 = ADVANCED_FACE ( 'NONE', ( #325 ), #93, .T. ) ;
#228 = CIRCLE ( 'NONE', #177, 0.09365624999999999645 ) ;
#229 = DIRECTION ( 'NONE',  ( 0.0000000000000000000, 0.0000000000000000000, -1.000000000000000000 ) ) ;
#230 = MANIFOLD_SOLID_BREP ( 'Fillet1', #188 ) ;
#231 = ORIENTED_EDGE ( 'NONE', *, *, #223, .T. ) ;
#232 = EDGE_CURVE ( 'NONE', #282, #25, #267, .T. ) ;
#233 = CIRCLE ( 'NONE', #222, 0.09375000000000001388 ) ;
#234 = FACE_OUTER_BOUND ( 'NONE', #80, .T. ) ;
#235 = ORIENTED_EDGE ( 'NONE', *, *, #214, .T. ) ;
#236 = DIRECTION ( 'NONE',  ( 1.000000000000000000, 0.0000000000000000000, 0.0000000000000000000 ) ) ;
#237 = DIRECTION ( 'NONE',  ( -0.0000000000000000000, -0.0000000000000000000, -1.000000000000000000 ) ) ;
#238 = PRODUCT_RELATED_PRODUCT_CATEGORY ( 'part', '', ( #113 ) ) ;
#239 = VERTEX_POINT ( 'NONE', #63 ) ;
#240 = DIRECTION ( 'NONE',  ( -1.000000000000000000, 0.0000000000000000000, 0.0000000000000000000 ) ) ;
#241 = CARTESIAN_POINT ( 'NONE',  ( 7.654042494670957853E-17, 0.0000000000000000000, 0.6250000000000000000 ) ) ;
#242 = DIRECTION ( 'NONE',  ( -1.224646799147353207E-16, -0.0000000000000000000, -1.000000000000000000 ) ) ;
#243 = APPLICATION_CONTEXT ( 'automotive_design' ) ;
#244 = VECTOR ( 'NONE', #317, 39.37007874015748143 ) ;
#245 =( NAMED_UNIT ( * ) PLANE_ANGLE_UNIT ( ) SI_UNIT ( $, .RADIAN. ) );
#246 = DIRECTION ( 'NONE',  ( -1.224646799147353207E-16, -0.0000000000000000000, -1.000000000000000000 ) ) ;
#247 = CARTESIAN_POINT ( 'NONE',  ( -0.09365624999999999645, 0.0000000000000000000, 1.146958267826442798E-17 ) ) ;
#248 = CIRCLE ( 'NONE', #90, 0.09375000000000001388 ) ;
#249 = CARTESIAN_POINT ( 'NONE',  ( 1.146958267826442798E-17, 0.0000000000000000000, 0.09365624999999999645 ) ) ;
#250 = EDGE_CURVE ( 'NONE', #71, #143, #54, .T. ) ;
#251 = CIRCLE ( 'NONE', #323, 0.09365624999999999645 ) ;
#252 = ORIENTED_EDGE ( 'NONE', *, *, #122, .F. ) ;
#253 = EDGE_CURVE ( 'NONE', #71, #282, #277, .T. ) ;
#254 = ORIENTED_EDGE ( 'NONE', *, *, #98, .T. ) ;
#255 = PRODUCT_DEFINITION_CONTEXT ( 'detailed design', #243, 'design' ) ;
#256 = ORIENTED_EDGE ( 'NONE', *, *, #285, .T. ) ;
#257 = AXIS2_PLACEMENT_3D ( 'NONE', #192, #89, #118 ) ;
#258 = ORIENTED_EDGE ( 'NONE', *, *, #183, .T. ) ;
#259 = EDGE_CURVE ( 'NONE', #104, #100, #304, .T. ) ;
#260 = UNCERTAINTY_MEASURE_WITH_UNIT (LENGTH_MEASURE( 1.000000000000000082E-05 ), #291, 'distance_accuracy_value', 'NONE');
#261 = DIRECTION ( 'NONE',  ( 0.1736481776669313581, 0.0000000000000000000, 0.9848077530122077983 ) ) ;
#262 = ORIENTED_EDGE ( 'NONE', *, *, #122, .T. ) ;
#263 = DIRECTION ( 'NONE',  ( -1.224646799147353207E-16, -0.0000000000000000000, -1.000000000000000000 ) ) ;
#264 = FILL_AREA_STYLE ('',( #311 ) ) ;
#265 = DIRECTION ( 'NONE',  ( -1.000000000000000000, 0.0000000000000000000, 0.0000000000000000000 ) ) ;
#266 = AXIS2_PLACEMENT_3D ( 'NONE', #321, #116, #197 ) ;
#267 = LINE ( 'NONE', #35, #110 ) ;
#268 =( NAMED_UNIT ( * ) SI_UNIT ( $, .STERADIAN. ) SOLID_ANGLE_UNIT ( ) );
#269 = AXIS2_PLACEMENT_3D ( 'NONE', #208, #283, #103 ) ;
#270 = EDGE_CURVE ( 'NONE', #150, #284, #228, .T. ) ;
#271 = FACE_OUTER_BOUND ( 'NONE', #209, .T. ) ;
#272 = DIMENSIONAL_EXPONENTS ( 1.000000000000000000, 0.0000000000000000000, 0.0000000000000000000, 0.0000000000000000000, 0.0000000000000000000, 0.0000000000000000000, 0.0000000000000000000 ) ;
#273 = DIRECTION ( 'NONE',  ( 1.000000000000000000, 0.0000000000000000000, 0.0000000000000000000 ) ) ;
#274 = VERTEX_POINT ( 'NONE', #161 ) ;
#275 = CARTESIAN_POINT ( 'NONE',  ( 0.09375000000000006939, 1.148106374200644633E-17, 0.6255316826705892286 ) ) ;
#276 = ADVANCED_FACE ( 'NONE', ( #159 ), #320, .T. ) ;
#277 = CIRCLE ( 'NONE', #155, 0.09365624999999999645 ) ;
#278 = CARTESIAN_POINT ( 'NONE',  ( 7.660553729477949085E-17, 0.0000000000000000000, 0.6255316826705892286 ) ) ;
#279 = ORIENTED_EDGE ( 'NONE', *, *, #250, .T. ) ;
#280 = CONICAL_SURFACE ( 'NONE', #308, 0.07874999999999980627, 0.7853981633974466137 ) ;
#281 = ORIENTED_EDGE ( 'NONE', *, *, #24, .F. ) ;
#282 = VERTEX_POINT ( 'NONE', #318 ) ;
#283 = DIRECTION ( 'NONE',  ( 1.224646799147353207E-16, 0.0000000000000000000, 1.000000000000000000 ) ) ;
#284 = VERTEX_POINT ( 'NONE', #86 ) ;
#285 = EDGE_CURVE ( 'NONE', #100, #104, #16, .T. ) ;
#286 = CIRCLE ( 'NONE', #115, 0.09375000000000001388 ) ;
#287 = ORIENTED_EDGE ( 'NONE', *, *, #67, .F. ) ;
#288 = DIRECTION ( 'NONE',  ( -1.000000000000000000, 0.0000000000000000000, 0.0000000000000000000 ) ) ;
#289 = PRODUCT_DEFINITION_SHAPE ( 'NONE', 'NONE',  #146 ) ;
#290 = CARTESIAN_POINT ( 'NONE',  ( 1.146958267826442798E-17, 0.0000000000000000000, 0.09365624999999999645 ) ) ;
#291 =( CONVERSION_BASED_UNIT ( 'INCH', #189 ) LENGTH_UNIT ( ) NAMED_UNIT ( #47 ) );
#292 = DIRECTION ( 'NONE',  ( -1.000000000000000000, 0.0000000000000000000, 1.224646799147352961E-16 ) ) ;
#293 = CARTESIAN_POINT ( 'NONE',  ( -0.09365624999999992706, 1.146958267826442798E-17, 0.6250000000000000000 ) ) ;
#294 = CARTESIAN_POINT ( 'NONE',  ( 1.146958267826442798E-17, 0.0000000000000000000, 0.09365624999999999645 ) ) ;
#295 =( NAMED_UNIT ( * ) SI_UNIT ( $, .STERADIAN. ) SOLID_ANGLE_UNIT ( ) );
#296 = EDGE_CURVE ( 'NONE', #100, #58, #133, .T. ) ;
#297 =( GEOMETRIC_REPRESENTATION_CONTEXT ( 3 ) GLOBAL_UNCERTAINTY_ASSIGNED_CONTEXT ( ( #260 ) ) GLOBAL_UNIT_ASSIGNED_CONTEXT ( ( #291, #20, #295 ) ) REPRESENTATION_CONTEXT ( 'NONE', 'WORKASPACE' ) );
#298 = FACE_OUTER_BOUND ( 'NONE', #157, .T. ) ;
#299 = PRODUCT_CONTEXT ( 'NONE', #152, 'mechanical' ) ;
#300 = CARTESIAN_POINT ( 'NONE',  ( 0.0000000000000000000, 0.0000000000000000000, 2.000000000000000000 ) ) ;
#301 = ORIENTED_EDGE ( 'NONE', *, *, #124, .T. ) ;
#302 = DIRECTION ( 'NONE',  ( -1.224646799147353207E-16, -0.0000000000000000000, -1.000000000000000000 ) ) ;
#303 = ORIENTED_EDGE ( 'NONE', *, *, #285, .F. ) ;
#304 = CIRCLE ( 'NONE', #135, 0.07874999999999980627 ) ;
#305 = ORIENTED_EDGE ( 'NONE', *, *, #124, .F. ) ;
#306 = ADVANCED_FACE ( 'NONE', ( #234 ), #106, .T. ) ;
#307 = LINE ( 'NONE', #247, #220 ) ;
#308 = AXIS2_PLACEMENT_3D ( 'NONE', #216, #19, #265 ) ;
#309 = ORIENTED_EDGE ( 'NONE', *, *, #296, .F. ) ;
#310 = ORIENTED_EDGE ( 'NONE', *, *, #270, .F. ) ;
#311 = FILL_AREA_STYLE_COLOUR ( '', #56 ) ;
#312 = ORIENTED_EDGE ( 'NONE', *, *, #148, .F. ) ;
#313 = MECHANICAL_DESIGN_GEOMETRIC_PRESENTATION_REPRESENTATION (  '', ( #213 ), #178 ) ;
#314 = DIRECTION ( 'NONE',  ( -1.000000000000000000, 0.0000000000000000000, 1.224646799147352961E-16 ) ) ;
#315 = CARTESIAN_POINT ( 'NONE',  ( 7.654042494670957853E-17, 0.0000000000000000000, 0.6250000000000000000 ) ) ;
#316 = DIRECTION ( 'NONE',  ( -0.0000000000000000000, -0.0000000000000000000, -1.000000000000000000 ) ) ;
#317 = DIRECTION ( 'NONE',  ( -1.224646799147353207E-16, -0.0000000000000000000, -1.000000000000000000 ) ) ;
#318 = CARTESIAN_POINT ( 'NONE',  ( 0.09365625000000006584, 0.0000000000000000000, 0.6250000000000000000 ) ) ;
#319 = CARTESIAN_POINT ( 'NONE',  ( 0.07874999999999980627, 9.644093543285380530E-18, 2.000000000000000000 ) ) ;
#320 = CONICAL_SURFACE ( 'NONE', #269, 0.09365624999999999645, 0.1745329251994338637 ) ;
#321 = CARTESIAN_POINT ( 'NONE',  ( 0.0000000000000000000, 0.0000000000000000000, 0.0000000000000000000 ) ) ;
#322 = DIRECTION ( 'NONE',  ( 1.224646799147353207E-16, 0.0000000000000000000, 1.000000000000000000 ) ) ;
#323 = AXIS2_PLACEMENT_3D ( 'NONE', #114, #168, #117 ) ;
#324 = DIRECTION ( 'NONE',  ( -1.000000000000000000, 1.224646799147352961E-16, 0.0000000000000000000 ) ) ;
#325 = FACE_OUTER_BOUND ( 'NONE', #94, .T. ) ;
ENDSEC;
END-ISO-10303-21;
