ISO-10303-21;
HEADER;
FILE_DESCRIPTION (( 'STEP AP214' ),
    '1' );
FILE_NAME ('Micro_BEM-062-04X.STEP',
    '2021-09-03T12:58:59',
    ( '' ),
    ( '' ),
    'SwSTEP 2.0',
    'SolidWorks 2020',
    '' );
FILE_SCHEMA (( 'AUTOMOTIVE_DESIGN' ));
ENDSEC;

DATA;
#1 = FILL_AREA_STYLE_COLOUR ( '', #263 ) ;
#2 = EDGE_CURVE ( 'NONE', #236, #242, #108, .T. ) ;
#3 =( GEOMETRIC_REPRESENTATION_CONTEXT ( 3 ) GLOBAL_UNCERTAINTY_ASSIGNED_CONTEXT ( ( #173 ) ) GLOBAL_UNIT_ASSIGNED_CONTEXT ( ( #268, #55, #286 ) ) REPRESENTATION_CONTEXT ( 'NONE', 'WORKASPACE' ) );
#4 = CIRCLE ( 'NONE', #276, 0.04750000000000064587 ) ;
#5 = CARTESIAN_POINT ( 'NONE',  ( 0.06250000000000002776, 7.654042494670959086E-18, 1.500000000000000222 ) ) ;
#6 = DIRECTION ( 'NONE',  ( 0.0000000000000000000, 0.0000000000000000000, -1.000000000000000000 ) ) ;
#7 = VERTEX_POINT ( 'NONE', #196 ) ;
#8 = COLOUR_RGB ( '',0.7921568627450980005, 0.8196078431372548767, 0.9333333333333333481 ) ;
#9 = AXIS2_PLACEMENT_3D ( 'NONE', #321, #22, #316 ) ;
#10 = ADVANCED_BREP_SHAPE_REPRESENTATION ( 'Micro_BEM-062-04X', ( #113, #241 ), #3 ) ;
#11 = DIRECTION ( 'NONE',  ( -1.224646799147353700E-16, -0.0000000000000000000, -1.000000000000000000 ) ) ;
#12 = CYLINDRICAL_SURFACE ( 'NONE', #183, 0.06250000000000002776 ) ;
#13 = ORIENTED_EDGE ( 'NONE', *, *, #2, .T. ) ;
#14 = ADVANCED_FACE ( 'NONE', ( #23 ), #288, .T. ) ;
#15 = CARTESIAN_POINT ( 'NONE',  ( 0.03121875000000002426, 0.0000000000000000000, 0.1880000000000000282 ) ) ;
#16 = ORIENTED_EDGE ( 'NONE', *, *, #226, .F. ) ;
#17 = DIRECTION ( 'NONE',  ( 0.0000000000000000000, 0.0000000000000000000, 1.000000000000000000 ) ) ;
#18 = DIRECTION ( 'NONE',  ( -0.1736481776669311916, 2.126576849575783316E-17, 0.9848077530122080203 ) ) ;
#19 = ORIENTED_EDGE ( 'NONE', *, *, #91, .T. ) ;
#20 = ADVANCED_FACE ( 'NONE', ( #218 ), #266, .T. ) ;
#21 =( NAMED_UNIT ( * ) PLANE_ANGLE_UNIT ( ) SI_UNIT ( $, .RADIAN. ) );
#22 = DIRECTION ( 'NONE',  ( 0.0000000000000000000, 0.0000000000000000000, 1.000000000000000000 ) ) ;
#23 = FACE_OUTER_BOUND ( 'NONE', #245, .T. ) ;
#24 = AXIS2_PLACEMENT_3D ( 'NONE', #111, #160, #265 ) ;
#25 = CARTESIAN_POINT ( 'NONE',  ( -0.06250000000000002776, 0.0000000000000000000, 1.485000000000000764 ) ) ;
#26 = DIRECTION ( 'NONE',  ( -1.000000000000000000, 0.0000000000000000000, 0.0000000000000000000 ) ) ;
#27 =( CONVERSION_BASED_UNIT ( 'INCH', #195 ) LENGTH_UNIT ( ) NAMED_UNIT ( #118 ) );
#28 = MECHANICAL_DESIGN_GEOMETRIC_PRESENTATION_REPRESENTATION (  '', ( #253 ), #219 ) ;
#29 = DIMENSIONAL_EXPONENTS ( 1.000000000000000000, 0.0000000000000000000, 0.0000000000000000000, 0.0000000000000000000, 0.0000000000000000000, 0.0000000000000000000, 0.0000000000000000000 ) ;
#30 = DIRECTION ( 'NONE',  ( 0.0000000000000000000, 0.0000000000000000000, -1.000000000000000000 ) ) ;
#31 = EDGE_CURVE ( 'NONE', #36, #7, #230, .T. ) ;
#32 = CARTESIAN_POINT ( 'NONE',  ( 5.734791339132217072E-18, 0.0000000000000000000, 0.0000000000000000000 ) ) ;
#33 = SURFACE_SIDE_STYLE ('',( #59 ) ) ;
#34 = AXIS2_PLACEMENT_3D ( 'NONE', #205, #6, #204 ) ;
#35 = CARTESIAN_POINT ( 'NONE',  ( 0.0000000000000000000, 0.0000000000000000000, 0.0000000000000000000 ) ) ;
#36 = VERTEX_POINT ( 'NONE', #130 ) ;
#37 =( NAMED_UNIT ( * ) PLANE_ANGLE_UNIT ( ) SI_UNIT ( $, .RADIAN. ) );
#38 = VERTEX_POINT ( 'NONE', #193 ) ;
#39 = VECTOR ( 'NONE', #133, 39.37007874015748854 ) ;
#40 = CLOSED_SHELL ( 'NONE', ( #248, #291, #206, #143, #98, #117, #14, #251, #325, #20, #273 ) ) ;
#41 = CARTESIAN_POINT ( 'NONE',  ( 0.06250000000000006939, 7.654042494670963708E-18, 0.3654047844199156403 ) ) ;
#42 = EDGE_LOOP ( 'NONE', ( #123, #285, #132, #303 ) ) ;
#43 = EDGE_CURVE ( 'NONE', #246, #279, #174, .T. ) ;
#44 = DIRECTION ( 'NONE',  ( -0.0000000000000000000, -0.0000000000000000000, -1.000000000000000000 ) ) ;
#45 = ORIENTED_EDGE ( 'NONE', *, *, #52, .F. ) ;
#46 = ORIENTED_EDGE ( 'NONE', *, *, #31, .F. ) ;
#47 = VECTOR ( 'NONE', #172, 39.37007874015748143 ) ;
#48 = VECTOR ( 'NONE', #106, 39.37007874015748143 ) ;
#49 = DIRECTION ( 'NONE',  ( -0.7071067811865462405, 0.0000000000000000000, -0.7071067811865486830 ) ) ;
#50 = DIRECTION ( 'NONE',  ( -1.224646799147353700E-16, -0.0000000000000000000, -1.000000000000000000 ) ) ;
#51 = DIRECTION ( 'NONE',  ( -1.224646799147353700E-16, -0.0000000000000000000, -1.000000000000000000 ) ) ;
#52 = EDGE_CURVE ( 'NONE', #72, #36, #269, .T. ) ;
#53 = CARTESIAN_POINT ( 'NONE',  ( 2.302335982397025094E-17, 0.0000000000000000000, 0.1880000000000000282 ) ) ;
#54 = DIRECTION ( 'NONE',  ( 1.000000000000000000, 0.0000000000000000000, 0.0000000000000000000 ) ) ;
#55 =( NAMED_UNIT ( * ) PLANE_ANGLE_UNIT ( ) SI_UNIT ( $, .RADIAN. ) );
#56 = CIRCLE ( 'NONE', #94, 0.03121874999999999997 ) ;
#57 = CARTESIAN_POINT ( 'NONE',  ( 3.823194226088145228E-18, 0.0000000000000000000, 0.03121874999999999997 ) ) ;
#58 = CIRCLE ( 'NONE', #148, 0.03121874999999999997 ) ;
#59 = SURFACE_STYLE_FILL_AREA ( #295 ) ;
#60 = PRESENTATION_STYLE_ASSIGNMENT (( #142 ) ) ;
#61 = DIRECTION ( 'NONE',  ( -1.224646799147353700E-16, -0.0000000000000000000, -1.000000000000000000 ) ) ;
#62 = CONICAL_SURFACE ( 'NONE', #24, 0.03121874999999999997, 0.1745329251994338915 ) ;
#63 = CIRCLE ( 'NONE', #34, 0.06250000000000002776 ) ;
#64 = AXIS2_PLACEMENT_3D ( 'NONE', #53, #289, #315 ) ;
#65 = ORIENTED_EDGE ( 'NONE', *, *, #161, .F. ) ;
#66 = CARTESIAN_POINT ( 'NONE',  ( -0.03121874999999997916, 3.823194226088143687E-18, 0.1880000000000000282 ) ) ;
#67 = EDGE_CURVE ( 'NONE', #125, #7, #227, .T. ) ;
#68 = AXIS2_PLACEMENT_3D ( 'NONE', #73, #11, #101 ) ;
#69 = ORIENTED_EDGE ( 'NONE', *, *, #177, .F. ) ;
#70 = AXIS2_PLACEMENT_3D ( 'NONE', #244, #192, #95 ) ;
#71 = FACE_OUTER_BOUND ( 'NONE', #317, .T. ) ;
#72 = VERTEX_POINT ( 'NONE', #32 ) ;
#73 = CARTESIAN_POINT ( 'NONE',  ( 4.474917996329785777E-17, 0.0000000000000000000, 0.3654047844199156403 ) ) ;
#74 = ORIENTED_EDGE ( 'NONE', *, *, #165, .F. ) ;
#75 = CARTESIAN_POINT ( 'NONE',  ( 2.302335982397025094E-17, 0.0000000000000000000, 0.1880000000000000282 ) ) ;
#76 = DIRECTION ( 'NONE',  ( -1.000000000000000000, 0.0000000000000000000, 1.367291288120251888E-16 ) ) ;
#77 = PRODUCT ( 'Micro_BEM-062-04X', 'Micro_BEM-062-04X', '', ( #296 ) ) ;
#78 = DIRECTION ( 'NONE',  ( -0.0000000000000000000, -0.0000000000000000000, -1.000000000000000000 ) ) ;
#79 = AXIS2_PLACEMENT_3D ( 'NONE', #82, #141, #26 ) ;
#80 = ORIENTED_EDGE ( 'NONE', *, *, #223, .T. ) ;
#81 = ORIENTED_EDGE ( 'NONE', *, *, #226, .T. ) ;
#82 = CARTESIAN_POINT ( 'NONE',  ( 0.0000000000000000000, 0.0000000000000000000, 1.500000000000000222 ) ) ;
#83 = CARTESIAN_POINT ( 'NONE',  ( 0.04750000000000064587, 5.817072295950006528E-18, 1.500000000000000222 ) ) ;
#84 = EDGE_CURVE ( 'NONE', #238, #242, #272, .T. ) ;
#85 = PRESENTATION_STYLE_ASSIGNMENT (( #202 ) ) ;
#86 = EDGE_CURVE ( 'NONE', #238, #279, #63, .T. ) ;
#87 = CIRCLE ( 'NONE', #68, 0.06250000000000002776 ) ;
#88 = DIRECTION ( 'NONE',  ( 0.0000000000000000000, -1.000000000000000000, 0.0000000000000000000 ) ) ;
#89 = VECTOR ( 'NONE', #250, 39.37007874015748143 ) ;
#90 = DIMENSIONAL_EXPONENTS ( 1.000000000000000000, 0.0000000000000000000, 0.0000000000000000000, 0.0000000000000000000, 0.0000000000000000000, 0.0000000000000000000, 0.0000000000000000000 ) ;
#91 = EDGE_CURVE ( 'NONE', #242, #97, #128, .T. ) ;
#92 = EDGE_CURVE ( 'NONE', #38, #246, #122, .T. ) ;
#93 = ORIENTED_EDGE ( 'NONE', *, *, #298, .F. ) ;
#94 = AXIS2_PLACEMENT_3D ( 'NONE', #75, #283, #155 ) ;
#95 = DIRECTION ( 'NONE',  ( 1.000000000000000000, 0.0000000000000000000, 0.0000000000000000000 ) ) ;
#96 = UNCERTAINTY_MEASURE_WITH_UNIT (LENGTH_MEASURE( 1.000000000000000082E-05 ), #27, 'distance_accuracy_value', 'NONE');
#97 = VERTEX_POINT ( 'NONE', #198 ) ;
#98 = ADVANCED_FACE ( 'NONE', ( #137 ), #162, .T. ) ;
#99 = CARTESIAN_POINT ( 'NONE',  ( -0.03121874999999997916, 5.738618360379552157E-18, 0.1880000000000000282 ) ) ;
#100 = PRODUCT_RELATED_PRODUCT_CATEGORY ( 'part', '', ( #77 ) ) ;
#101 = DIRECTION ( 'NONE',  ( 1.000000000000000000, 0.0000000000000000000, 0.0000000000000000000 ) ) ;
#102 = EDGE_LOOP ( 'NONE', ( #256, #261, #13, #19 ) ) ;
#103 = CIRCLE ( 'NONE', #64, 0.03121874999999999997 ) ;
#104 = DIRECTION ( 'NONE',  ( 1.000000000000000000, 0.0000000000000000000, 0.0000000000000000000 ) ) ;
#105 = FACE_OUTER_BOUND ( 'NONE', #186, .T. ) ;
#106 = DIRECTION ( 'NONE',  ( 0.1736481776669313859, 0.0000000000000000000, 0.9848077530122077983 ) ) ;
#107 = PRODUCT_DEFINITION ( 'UNKNOWN', '', #154, #158 ) ;
#108 = LINE ( 'NONE', #156, #48 ) ;
#109 = AXIS2_PLACEMENT_3D ( 'NONE', #210, #237, #152 ) ;
#110 = CARTESIAN_POINT ( 'NONE',  ( 0.0000000000000000000, 0.0000000000000000000, 1.500000000000000222 ) ) ;
#111 = CARTESIAN_POINT ( 'NONE',  ( 2.302335982397025094E-17, 0.0000000000000000000, 0.1880000000000000282 ) ) ;
#112 =( LENGTH_UNIT ( ) NAMED_UNIT ( * ) SI_UNIT ( $, .METRE. ) );
#113 = MANIFOLD_SOLID_BREP ( 'Fillet1', #40 ) ;
#114 = SURFACE_SIDE_STYLE ('',( #324 ) ) ;
#115 = AXIS2_PLACEMENT_3D ( 'NONE', #185, #170, #131 ) ;
#116 = STYLED_ITEM ( 'NONE', ( #60 ), #113 ) ;
#117 = ADVANCED_FACE ( 'NONE', ( #105 ), #12, .T. ) ;
#118 = DIMENSIONAL_EXPONENTS ( 1.000000000000000000, 0.0000000000000000000, 0.0000000000000000000, 0.0000000000000000000, 0.0000000000000000000, 0.0000000000000000000, 0.0000000000000000000 ) ;
#119 = APPLICATION_CONTEXT ( 'automotive_design' ) ;
#120 = EDGE_LOOP ( 'NONE', ( #216, #134, #65, #93 ) ) ;
#121 = CONICAL_SURFACE ( 'NONE', #249, 0.03121874999999999997, 0.1745329251994338915 ) ;
#122 = CIRCLE ( 'NONE', #9, 0.04750000000000064587 ) ;
#123 = ORIENTED_EDGE ( 'NONE', *, *, #92, .F. ) ;
#124 = FACE_OUTER_BOUND ( 'NONE', #42, .T. ) ;
#125 = VERTEX_POINT ( 'NONE', #99 ) ;
#126 = CARTESIAN_POINT ( 'NONE',  ( 3.823194226088145228E-18, 0.0000000000000000000, 0.03121874999999999997 ) ) ;
#127 = ORIENTED_EDGE ( 'NONE', *, *, #52, .T. ) ;
#128 = CIRCLE ( 'NONE', #164, 0.06250000000000002776 ) ;
#129 = CARTESIAN_POINT ( 'NONE',  ( 2.302335982397025094E-17, 0.0000000000000000000, 0.1880000000000000282 ) ) ;
#130 = CARTESIAN_POINT ( 'NONE',  ( 0.03121875000000000691, 3.823194226088143687E-18, 0.03121874999999999650 ) ) ;
#131 = DIRECTION ( 'NONE',  ( -1.000000000000000000, 1.224646799147353454E-16, 0.0000000000000000000 ) ) ;
#132 = ORIENTED_EDGE ( 'NONE', *, *, #277, .F. ) ;
#133 = DIRECTION ( 'NONE',  ( 0.7071067811865462405, 8.659560562354916834E-17, -0.7071067811865486830 ) ) ;
#134 = ORIENTED_EDGE ( 'NONE', *, *, #84, .T. ) ;
#135 = VECTOR ( 'NONE', #78, 39.37007874015748143 ) ;
#136 = CARTESIAN_POINT ( 'NONE',  ( 0.0000000000000000000, 0.0000000000000000000, 1.485000000000000764 ) ) ;
#137 = FACE_OUTER_BOUND ( 'NONE', #120, .T. ) ;
#138 = CYLINDRICAL_SURFACE ( 'NONE', #243, 0.03121874999999999997 ) ;
#139 = FILL_AREA_STYLE_COLOUR ( '', #8 ) ;
#140 = APPLICATION_PROTOCOL_DEFINITION ( 'draft international standard', 'automotive_design', 1998, #270 ) ;
#141 = DIRECTION ( 'NONE',  ( -0.0000000000000000000, -0.0000000000000000000, -1.000000000000000000 ) ) ;
#142 = SURFACE_STYLE_USAGE ( .BOTH. , #33 ) ;
#143 = ADVANCED_FACE ( 'NONE', ( #124 ), #233, .T. ) ;
#144 = VECTOR ( 'NONE', #271, 39.37007874015748143 ) ;
#145 = EDGE_CURVE ( 'NONE', #7, #36, #58, .T. ) ;
#146 = ORIENTED_EDGE ( 'NONE', *, *, #194, .T. ) ;
#147 = DIRECTION ( 'NONE',  ( -1.000000000000000000, 0.0000000000000000000, 1.367291288120251888E-16 ) ) ;
#148 = AXIS2_PLACEMENT_3D ( 'NONE', #126, #308, #147 ) ;
#149 = ORIENTED_EDGE ( 'NONE', *, *, #67, .T. ) ;
#150 = LENGTH_MEASURE_WITH_UNIT ( LENGTH_MEASURE( 0.02539999999999999897 ), #235 );
#151 = ORIENTED_EDGE ( 'NONE', *, *, #86, .F. ) ;
#152 = DIRECTION ( 'NONE',  ( -1.000000000000000000, 0.0000000000000000000, 0.0000000000000000000 ) ) ;
#153 = EDGE_LOOP ( 'NONE', ( #69, #127, #322 ) ) ;
#154 = PRODUCT_DEFINITION_FORMATION_WITH_SPECIFIED_SOURCE ( 'ANY', '', #77, .NOT_KNOWN. ) ;
#155 = DIRECTION ( 'NONE',  ( -1.000000000000000000, 0.0000000000000000000, 0.0000000000000000000 ) ) ;
#156 = CARTESIAN_POINT ( 'NONE',  ( 0.03121875000000002426, 0.0000000000000000000, 0.1880000000000000282 ) ) ;
#157 = CARTESIAN_POINT ( 'NONE',  ( -0.06250000000000002776, 0.0000000000000000000, 1.500000000000000222 ) ) ;
#158 = PRODUCT_DEFINITION_CONTEXT ( 'detailed design', #270, 'design' ) ;
#159 = CARTESIAN_POINT ( 'NONE',  ( 3.823194226088145228E-18, 0.0000000000000000000, 0.03121874999999999997 ) ) ;
#160 = DIRECTION ( 'NONE',  ( 1.224646799147353700E-16, 0.0000000000000000000, 1.000000000000000000 ) ) ;
#161 = EDGE_CURVE ( 'NONE', #97, #242, #87, .T. ) ;
#162 = CYLINDRICAL_SURFACE ( 'NONE', #79, 0.06250000000000002776 ) ;
#163 = AXIS2_PLACEMENT_3D ( 'NONE', #262, #302, #184 ) ;
#164 = AXIS2_PLACEMENT_3D ( 'NONE', #299, #61, #54 ) ;
#165 = EDGE_CURVE ( 'NONE', #246, #38, #4, .T. ) ;
#166 = ORIENTED_EDGE ( 'NONE', *, *, #298, .T. ) ;
#167 = CARTESIAN_POINT ( 'NONE',  ( 0.03121874999999999997, 3.823194226088143687E-18, -3.823194226088145228E-18 ) ) ;
#168 = EDGE_LOOP ( 'NONE', ( #211, #74, #282, #151 ) ) ;
#169 = LINE ( 'NONE', #66, #189 ) ;
#170 = DIRECTION ( 'NONE',  ( 1.224646799147353207E-16, 1.000000000000000000, -0.0000000000000000000 ) ) ;
#171 = ORIENTED_EDGE ( 'NONE', *, *, #91, .F. ) ;
#172 = DIRECTION ( 'NONE',  ( -1.224646799147353700E-16, -0.0000000000000000000, -1.000000000000000000 ) ) ;
#173 = UNCERTAINTY_MEASURE_WITH_UNIT (LENGTH_MEASURE( 1.000000000000000082E-05 ), #268, 'distance_accuracy_value', 'NONE');
#174 = LINE ( 'NONE', #264, #213 ) ;
#175 = PRESENTATION_LAYER_ASSIGNMENT (  '', '', ( #253 ) ) ;
#176 =( LENGTH_UNIT ( ) NAMED_UNIT ( * ) SI_UNIT ( $, .METRE. ) );
#177 = EDGE_CURVE ( 'NONE', #72, #7, #201, .T. ) ;
#178 = DIRECTION ( 'NONE',  ( 1.000000000000000000, 0.0000000000000000000, -0.0000000000000000000 ) ) ;
#179 = DIRECTION ( 'NONE',  ( 1.000000000000000000, 0.0000000000000000000, 0.0000000000000000000 ) ) ;
#180 = DIRECTION ( 'NONE',  ( 0.0000000000000000000, 0.0000000000000000000, -1.000000000000000000 ) ) ;
#181 = APPLICATION_PROTOCOL_DEFINITION ( 'draft international standard', 'automotive_design', 1998, #119 ) ;
#182 = DIRECTION ( 'NONE',  ( 1.000000000000000000, 0.0000000000000000000, 0.0000000000000000000 ) ) ;
#183 = AXIS2_PLACEMENT_3D ( 'NONE', #255, #44, #232 ) ;
#184 = DIRECTION ( 'NONE',  ( -1.000000000000000000, 0.0000000000000000000, 0.0000000000000000000 ) ) ;
#185 = CARTESIAN_POINT ( 'NONE',  ( 3.823194226088145228E-18, 0.0000000000000000000, 0.03121874999999999997 ) ) ;
#186 = EDGE_LOOP ( 'NONE', ( #208, #284, #166, #171 ) ) ;
#187 = DIRECTION ( 'NONE',  ( 0.0000000000000000000, 0.0000000000000000000, 1.000000000000000000 ) ) ;
#188 = EDGE_LOOP ( 'NONE', ( #146, #81, #191, #254 ) ) ;
#189 = VECTOR ( 'NONE', #18, 39.37007874015747433 ) ;
#190 = FACE_OUTER_BOUND ( 'NONE', #314, .T. ) ;
#191 = ORIENTED_EDGE ( 'NONE', *, *, #31, .T. ) ;
#192 = DIRECTION ( 'NONE',  ( 0.0000000000000000000, 1.000000000000000000, 0.0000000000000000000 ) ) ;
#193 = CARTESIAN_POINT ( 'NONE',  ( 0.04750000000000064587, 6.735557395310483192E-18, 1.500000000000000222 ) ) ;
#194 = EDGE_CURVE ( 'NONE', #125, #236, #56, .T. ) ;
#195 = LENGTH_MEASURE_WITH_UNIT ( LENGTH_MEASURE( 0.02539999999999999897 ), #176 );
#196 = CARTESIAN_POINT ( 'NONE',  ( -0.03121874999999999650, 0.0000000000000000000, 0.03121875000000000691 ) ) ;
#197 =( GEOMETRIC_REPRESENTATION_CONTEXT ( 3 ) GLOBAL_UNCERTAINTY_ASSIGNED_CONTEXT ( ( #306 ) ) GLOBAL_UNIT_ASSIGNED_CONTEXT ( ( #214, #37, #305 ) ) REPRESENTATION_CONTEXT ( 'NONE', 'WORKASPACE' ) );
#198 = CARTESIAN_POINT ( 'NONE',  ( -0.06249999999999997918, 0.0000000000000000000, 0.3654047844199156403 ) ) ;
#199 = DIRECTION ( 'NONE',  ( 1.224646799147353700E-16, 0.0000000000000000000, 1.000000000000000000 ) ) ;
#200 = DIRECTION ( 'NONE',  ( 1.000000000000000000, 0.0000000000000000000, 0.0000000000000000000 ) ) ;
#201 = CIRCLE ( 'NONE', #115, 0.03121874999999999997 ) ;
#202 = SURFACE_STYLE_USAGE ( .BOTH. , #114 ) ;
#203 = DIRECTION ( 'NONE',  ( 0.0000000000000000000, 0.0000000000000000000, 1.000000000000000000 ) ) ;
#204 = DIRECTION ( 'NONE',  ( 1.000000000000000000, 0.0000000000000000000, 0.0000000000000000000 ) ) ;
#205 = CARTESIAN_POINT ( 'NONE',  ( 0.0000000000000000000, 0.0000000000000000000, 1.485000000000000764 ) ) ;
#206 = ADVANCED_FACE ( 'NONE', ( #71 ), #121, .T. ) ;
#207 = ORIENTED_EDGE ( 'NONE', *, *, #161, .T. ) ;
#208 = ORIENTED_EDGE ( 'NONE', *, *, #84, .F. ) ;
#209 = CARTESIAN_POINT ( 'NONE',  ( 0.0000000000000000000, 0.0000000000000000000, 1.500000000000000222 ) ) ;
#210 = CARTESIAN_POINT ( 'NONE',  ( 0.0000000000000000000, 0.0000000000000000000, 1.500000000000000222 ) ) ;
#211 = ORIENTED_EDGE ( 'NONE', *, *, #319, .F. ) ;
#212 = CARTESIAN_POINT ( 'NONE',  ( 0.06250000000000002776, 7.654042494670959086E-18, 1.485000000000000764 ) ) ;
#213 = VECTOR ( 'NONE', #49, 39.37007874015748854 ) ;
#214 =( CONVERSION_BASED_UNIT ( 'INCH', #150 ) LENGTH_UNIT ( ) NAMED_UNIT ( #90 ) );
#215 = DIRECTION ( 'NONE',  ( -1.000000000000000000, 0.0000000000000000000, 1.224646799147353947E-16 ) ) ;
#216 = ORIENTED_EDGE ( 'NONE', *, *, #277, .T. ) ;
#217 = LENGTH_MEASURE_WITH_UNIT ( LENGTH_MEASURE( 0.02539999999999999897 ), #112 );
#218 = FACE_OUTER_BOUND ( 'NONE', #260, .T. ) ;
#219 =( GEOMETRIC_REPRESENTATION_CONTEXT ( 3 ) GLOBAL_UNCERTAINTY_ASSIGNED_CONTEXT ( ( #96 ) ) GLOBAL_UNIT_ASSIGNED_CONTEXT ( ( #27, #21, #274 ) ) REPRESENTATION_CONTEXT ( 'NONE', 'WORKASPACE' ) );
#220 = AXIS2_PLACEMENT_3D ( 'NONE', #290, #51, #215 ) ;
#221 = CARTESIAN_POINT ( 'NONE',  ( 0.0000000000000000000, 0.0000000000000000000, 0.0000000000000000000 ) ) ;
#222 = LINE ( 'NONE', #83, #39 ) ;
#223 = EDGE_CURVE ( 'NONE', #125, #97, #169, .T. ) ;
#224 = FILL_AREA_STYLE ('',( #139 ) ) ;
#225 = CIRCLE ( 'NONE', #258, 0.06250000000000002776 ) ;
#226 = EDGE_CURVE ( 'NONE', #236, #36, #259, .T. ) ;
#227 = LINE ( 'NONE', #297, #144 ) ;
#228 = SHAPE_DEFINITION_REPRESENTATION ( #240, #10 ) ;
#229 = CONICAL_SURFACE ( 'NONE', #163, 0.04750000000000064587, 0.7853981633974466137 ) ;
#230 = CIRCLE ( 'NONE', #293, 0.03121874999999999997 ) ;
#231 = ORIENTED_EDGE ( 'NONE', *, *, #311, .T. ) ;
#232 = DIRECTION ( 'NONE',  ( -1.000000000000000000, 0.0000000000000000000, 0.0000000000000000000 ) ) ;
#233 = CONICAL_SURFACE ( 'NONE', #109, 0.04750000000000064587, 0.7853981633974466137 ) ;
#234 = ORIENTED_EDGE ( 'NONE', *, *, #2, .F. ) ;
#235 =( LENGTH_UNIT ( ) NAMED_UNIT ( * ) SI_UNIT ( $, .METRE. ) );
#236 = VERTEX_POINT ( 'NONE', #15 ) ;
#237 = DIRECTION ( 'NONE',  ( 0.0000000000000000000, 0.0000000000000000000, -1.000000000000000000 ) ) ;
#238 = VERTEX_POINT ( 'NONE', #212 ) ;
#239 = FACE_OUTER_BOUND ( 'NONE', #168, .T. ) ;
#240 = PRODUCT_DEFINITION_SHAPE ( 'NONE', 'NONE',  #107 ) ;
#241 = AXIS2_PLACEMENT_3D ( 'NONE', #35, #203, #182 ) ;
#242 = VERTEX_POINT ( 'NONE', #41 ) ;
#243 = AXIS2_PLACEMENT_3D ( 'NONE', #221, #50, #247 ) ;
#244 = CARTESIAN_POINT ( 'NONE',  ( 3.823194226088145228E-18, 0.0000000000000000000, 0.03121874999999999997 ) ) ;
#245 = EDGE_LOOP ( 'NONE', ( #312, #281 ) ) ;
#246 = VERTEX_POINT ( 'NONE', #310 ) ;
#247 = DIRECTION ( 'NONE',  ( -1.000000000000000000, 0.0000000000000000000, 1.224646799147353947E-16 ) ) ;
#248 = ADVANCED_FACE ( 'NONE', ( #190 ), #313, .T. ) ;
#249 = AXIS2_PLACEMENT_3D ( 'NONE', #129, #257, #280 ) ;
#250 = DIRECTION ( 'NONE',  ( -0.0000000000000000000, -0.0000000000000000000, -1.000000000000000000 ) ) ;
#251 = ADVANCED_FACE ( 'NONE', ( #239 ), #229, .T. ) ;
#252 = AXIS2_PLACEMENT_3D ( 'NONE', #318, #88, #30 ) ;
#253 = STYLED_ITEM ( 'NONE', ( #85 ), #10 ) ;
#254 = ORIENTED_EDGE ( 'NONE', *, *, #67, .F. ) ;
#255 = CARTESIAN_POINT ( 'NONE',  ( 0.0000000000000000000, 0.0000000000000000000, 1.500000000000000222 ) ) ;
#256 = ORIENTED_EDGE ( 'NONE', *, *, #223, .F. ) ;
#257 = DIRECTION ( 'NONE',  ( 1.224646799147353700E-16, 0.0000000000000000000, 1.000000000000000000 ) ) ;
#258 = AXIS2_PLACEMENT_3D ( 'NONE', #136, #180, #179 ) ;
#259 = LINE ( 'NONE', #167, #47 ) ;
#260 = EDGE_LOOP ( 'NONE', ( #16, #231, #149, #307 ) ) ;
#261 = ORIENTED_EDGE ( 'NONE', *, *, #311, .F. ) ;
#262 = CARTESIAN_POINT ( 'NONE',  ( 0.0000000000000000000, 0.0000000000000000000, 1.500000000000000222 ) ) ;
#263 = COLOUR_RGB ( '',0.7921568627450980005, 0.8196078431372548767, 0.9333333333333333481 ) ;
#264 = CARTESIAN_POINT ( 'NONE',  ( -0.04750000000000064587, 0.0000000000000000000, 1.500000000000000222 ) ) ;
#265 = DIRECTION ( 'NONE',  ( 1.000000000000000000, 0.0000000000000000000, 0.0000000000000000000 ) ) ;
#266 = CYLINDRICAL_SURFACE ( 'NONE', #220, 0.03121874999999999997 ) ;
#267 = LINE ( 'NONE', #157, #135 ) ;
#268 =( CONVERSION_BASED_UNIT ( 'INCH', #217 ) LENGTH_UNIT ( ) NAMED_UNIT ( #29 ) );
#269 = CIRCLE ( 'NONE', #252, 0.03121874999999999997 ) ;
#270 = APPLICATION_CONTEXT ( 'automotive_design' ) ;
#271 = DIRECTION ( 'NONE',  ( -1.224646799147353700E-16, -0.0000000000000000000, -1.000000000000000000 ) ) ;
#272 = LINE ( 'NONE', #5, #89 ) ;
#273 = ADVANCED_FACE ( 'NONE', ( #278 ), #292, .T. ) ;
#274 =( NAMED_UNIT ( * ) SI_UNIT ( $, .STERADIAN. ) SOLID_ANGLE_UNIT ( ) );
#275 = MECHANICAL_DESIGN_GEOMETRIC_PRESENTATION_REPRESENTATION (  '', ( #116 ), #197 ) ;
#276 = AXIS2_PLACEMENT_3D ( 'NONE', #209, #187, #104 ) ;
#277 = EDGE_CURVE ( 'NONE', #279, #238, #225, .T. ) ;
#278 = FACE_OUTER_BOUND ( 'NONE', #153, .T. ) ;
#279 = VERTEX_POINT ( 'NONE', #25 ) ;
#280 = DIRECTION ( 'NONE',  ( 1.000000000000000000, 0.0000000000000000000, 0.0000000000000000000 ) ) ;
#281 = ORIENTED_EDGE ( 'NONE', *, *, #92, .T. ) ;
#282 = ORIENTED_EDGE ( 'NONE', *, *, #43, .T. ) ;
#283 = DIRECTION ( 'NONE',  ( -1.224646799147353700E-16, -0.0000000000000000000, -1.000000000000000000 ) ) ;
#284 = ORIENTED_EDGE ( 'NONE', *, *, #86, .T. ) ;
#285 = ORIENTED_EDGE ( 'NONE', *, *, #319, .T. ) ;
#286 =( NAMED_UNIT ( * ) SI_UNIT ( $, .STERADIAN. ) SOLID_ANGLE_UNIT ( ) );
#287 = PRESENTATION_LAYER_ASSIGNMENT (  '', '', ( #116 ) ) ;
#288 = PLANE ( 'NONE',  #304 ) ;
#289 = DIRECTION ( 'NONE',  ( -1.224646799147353700E-16, -0.0000000000000000000, -1.000000000000000000 ) ) ;
#290 = CARTESIAN_POINT ( 'NONE',  ( 0.0000000000000000000, 0.0000000000000000000, 0.0000000000000000000 ) ) ;
#291 = ADVANCED_FACE ( 'NONE', ( #320 ), #138, .T. ) ;
#292 = SPHERICAL_SURFACE ( 'NONE', #301, 0.03121874999999999997 ) ;
#293 = AXIS2_PLACEMENT_3D ( 'NONE', #159, #199, #76 ) ;
#294 = DIRECTION ( 'NONE',  ( 0.0000000000000000000, 1.000000000000000000, 0.0000000000000000000 ) ) ;
#295 = FILL_AREA_STYLE ('',( #1 ) ) ;
#296 = PRODUCT_CONTEXT ( 'NONE', #119, 'mechanical' ) ;
#297 = CARTESIAN_POINT ( 'NONE',  ( -0.03121874999999999997, 0.0000000000000000000, 3.823194226088145228E-18 ) ) ;
#298 = EDGE_CURVE ( 'NONE', #279, #97, #267, .T. ) ;
#299 = CARTESIAN_POINT ( 'NONE',  ( 4.474917996329785777E-17, 0.0000000000000000000, 0.3654047844199156403 ) ) ;
#300 = ORIENTED_EDGE ( 'NONE', *, *, #194, .F. ) ;
#301 = AXIS2_PLACEMENT_3D ( 'NONE', #57, #294, #200 ) ;
#302 = DIRECTION ( 'NONE',  ( 0.0000000000000000000, 0.0000000000000000000, -1.000000000000000000 ) ) ;
#303 = ORIENTED_EDGE ( 'NONE', *, *, #43, .F. ) ;
#304 = AXIS2_PLACEMENT_3D ( 'NONE', #110, #17, #178 ) ;
#305 =( NAMED_UNIT ( * ) SI_UNIT ( $, .STERADIAN. ) SOLID_ANGLE_UNIT ( ) );
#306 = UNCERTAINTY_MEASURE_WITH_UNIT (LENGTH_MEASURE( 1.000000000000000082E-05 ), #214, 'distance_accuracy_value', 'NONE');
#307 = ORIENTED_EDGE ( 'NONE', *, *, #145, .T. ) ;
#308 = DIRECTION ( 'NONE',  ( 1.224646799147353700E-16, 0.0000000000000000000, 1.000000000000000000 ) ) ;
#309 = ORIENTED_EDGE ( 'NONE', *, *, #177, .T. ) ;
#310 = CARTESIAN_POINT ( 'NONE',  ( -0.04750000000000064587, 0.0000000000000000000, 1.500000000000000222 ) ) ;
#311 = EDGE_CURVE ( 'NONE', #236, #125, #103, .T. ) ;
#312 = ORIENTED_EDGE ( 'NONE', *, *, #165, .T. ) ;
#313 = SPHERICAL_SURFACE ( 'NONE', #70, 0.03121874999999999997 ) ;
#314 = EDGE_LOOP ( 'NONE', ( #45, #309, #46 ) ) ;
#315 = DIRECTION ( 'NONE',  ( -1.000000000000000000, 0.0000000000000000000, 0.0000000000000000000 ) ) ;
#316 = DIRECTION ( 'NONE',  ( 1.000000000000000000, 0.0000000000000000000, 0.0000000000000000000 ) ) ;
#317 = EDGE_LOOP ( 'NONE', ( #300, #80, #207, #234 ) ) ;
#318 = CARTESIAN_POINT ( 'NONE',  ( 3.823194226088145228E-18, 0.0000000000000000000, 0.03121874999999999997 ) ) ;
#319 = EDGE_CURVE ( 'NONE', #38, #238, #222, .T. ) ;
#320 = FACE_OUTER_BOUND ( 'NONE', #188, .T. ) ;
#321 = CARTESIAN_POINT ( 'NONE',  ( 0.0000000000000000000, 0.0000000000000000000, 1.500000000000000222 ) ) ;
#322 = ORIENTED_EDGE ( 'NONE', *, *, #145, .F. ) ;
#323 = FACE_OUTER_BOUND ( 'NONE', #102, .T. ) ;
#324 = SURFACE_STYLE_FILL_AREA ( #224 ) ;
#325 = ADVANCED_FACE ( 'NONE', ( #323 ), #62, .T. ) ;
ENDSEC;
END-ISO-10303-21;
