ISO-10303-21;
HEADER;
FILE_DESCRIPTION (( 'STEP AP214' ),
    '1' );
FILE_NAME ('Micro_SBMM-080-240.STEP',
    '2021-09-02T17:16:16',
    ( '' ),
    ( '' ),
    'SwSTEP 2.0',
    'SolidWorks 2020',
    '' );
FILE_SCHEMA (( 'AUTOMOTIVE_DESIGN' ));
ENDSEC;

DATA;
#1 = CARTESIAN_POINT ( 'NONE',  ( 0.0000000000000000000, 0.0000000000000000000, 3.922008000000000827 ) ) ;
#2 = AXIS2_PLACEMENT_3D ( 'NONE', #303, #145, #68 ) ;
#3 = FACE_OUTER_BOUND ( 'NONE', #123, .T. ) ;
#4 = CARTESIAN_POINT ( 'NONE',  ( -0.1574804999999999955, 0.0000000000000000000, 3.922008000000000827 ) ) ;
#5 = CARTESIAN_POINT ( 'NONE',  ( 0.1574804999999999955, 1.928579902531247412E-17, 3.937007999999999619 ) ) ;
#6 = LINE ( 'NONE', #5, #326 ) ;
#7 = SHAPE_DEFINITION_REPRESENTATION ( #237, #138 ) ;
#8 = CONICAL_SURFACE ( 'NONE', #203, 0.1732285499999997591, 0.08645134638073898037 ) ;
#9 = AXIS2_PLACEMENT_3D ( 'NONE', #29, #194, #269 ) ;
#10 = DIRECTION ( 'NONE',  ( -0.0000000000000000000, -0.0000000000000000000, -1.000000000000000000 ) ) ;
#11 = ADVANCED_FACE ( 'NONE', ( #186 ), #135, .T. ) ;
#12 = DIRECTION ( 'NONE',  ( -0.0000000000000000000, -0.0000000000000000000, -1.000000000000000000 ) ) ;
#13 = VECTOR ( 'NONE', #31, 39.37007874015748143 ) ;
#14 = ORIENTED_EDGE ( 'NONE', *, *, #224, .T. ) ;
#15 = ORIENTED_EDGE ( 'NONE', *, *, #177, .F. ) ;
#16 =( CONVERSION_BASED_UNIT ( 'INCH', #126 ) LENGTH_UNIT ( ) NAMED_UNIT ( #256 ) );
#17 = MECHANICAL_DESIGN_GEOMETRIC_PRESENTATION_REPRESENTATION (  '', ( #191 ), #70 ) ;
#18 = CIRCLE ( 'NONE', #34, 0.1062989999999998103 ) ;
#19 = DIRECTION ( 'NONE',  ( -1.000000000000000000, 0.0000000000000000000, 0.0000000000000000000 ) ) ;
#20 = CARTESIAN_POINT ( 'NONE',  ( 0.1424805000000004540, 1.744882882659150076E-17, 3.937007999999999619 ) ) ;
#21 = ADVANCED_FACE ( 'NONE', ( #60 ), #165, .T. ) ;
#22 = VERTEX_POINT ( 'NONE', #324 ) ;
#23 = DIRECTION ( 'NONE',  ( 0.0000000000000000000, 0.0000000000000000000, 1.000000000000000000 ) ) ;
#24 = AXIS2_PLACEMENT_3D ( 'NONE', #92, #301, #114 ) ;
#25 = ORIENTED_EDGE ( 'NONE', *, *, #208, .F. ) ;
#26 = CARTESIAN_POINT ( 'NONE',  ( 0.0000000000000000000, 0.0000000000000000000, 0.0000000000000000000 ) ) ;
#27 = ORIENTED_EDGE ( 'NONE', *, *, #91, .T. ) ;
#28 = FILL_AREA_STYLE ('',( #262 ) ) ;
#29 = CARTESIAN_POINT ( 'NONE',  ( 0.0000000000000000000, 0.0000000000000000000, 1.574802999999999953 ) ) ;
#30 = UNCERTAINTY_MEASURE_WITH_UNIT (LENGTH_MEASURE( 1.000000000000000082E-05 ), #291, 'distance_accuracy_value', 'NONE');
#31 = DIRECTION ( 'NONE',  ( -0.0000000000000000000, -0.0000000000000000000, -1.000000000000000000 ) ) ;
#32 = CARTESIAN_POINT ( 'NONE',  ( 0.0000000000000000000, 0.0000000000000000000, 0.1574800000000000089 ) ) ;
#33 = AXIS2_PLACEMENT_3D ( 'NONE', #48, #159, #225 ) ;
#34 = AXIS2_PLACEMENT_3D ( 'NONE', #142, #89, #246 ) ;
#35 = CARTESIAN_POINT ( 'NONE',  ( -0.1062989999999999075, 0.0000000000000000000, 0.0000000000000000000 ) ) ;
#36 = DIRECTION ( 'NONE',  ( 0.0000000000000000000, 1.000000000000000000, 0.0000000000000000000 ) ) ;
#37 = DIRECTION ( 'NONE',  ( 0.0000000000000000000, 0.0000000000000000000, -1.000000000000000000 ) ) ;
#38 = PRESENTATION_LAYER_ASSIGNMENT (  '', '', ( #191 ) ) ;
#39 = DIRECTION ( 'NONE',  ( -0.0000000000000000000, -0.0000000000000000000, -1.000000000000000000 ) ) ;
#40 = APPLICATION_PROTOCOL_DEFINITION ( 'draft international standard', 'automotive_design', 1998, #144 ) ;
#41 = DIMENSIONAL_EXPONENTS ( 1.000000000000000000, 0.0000000000000000000, 0.0000000000000000000, 0.0000000000000000000, 0.0000000000000000000, 0.0000000000000000000, 0.0000000000000000000 ) ;
#42 = AXIS2_PLACEMENT_3D ( 'NONE', #195, #10, #121 ) ;
#43 = ORIENTED_EDGE ( 'NONE', *, *, #122, .F. ) ;
#44 = EDGE_CURVE ( 'NONE', #22, #155, #18, .T. ) ;
#45 = ORIENTED_EDGE ( 'NONE', *, *, #106, .T. ) ;
#46 = DIRECTION ( 'NONE',  ( -0.0000000000000000000, -0.0000000000000000000, -1.000000000000000000 ) ) ;
#47 = EDGE_CURVE ( 'NONE', #155, #22, #120, .T. ) ;
#48 = CARTESIAN_POINT ( 'NONE',  ( 0.0000000000000000000, 0.0000000000000000000, 2.165353999999999335 ) ) ;
#49 = VECTOR ( 'NONE', #157, 39.37007874015748143 ) ;
#50 = EDGE_CURVE ( 'NONE', #82, #58, #295, .T. ) ;
#51 = CARTESIAN_POINT ( 'NONE',  ( 0.0000000000000000000, 9.642868896486256968E-18, 3.414809992080329023E-17 ) ) ;
#52 =( NAMED_UNIT ( * ) PLANE_ANGLE_UNIT ( ) SI_UNIT ( $, .RADIAN. ) );
#53 = EDGE_CURVE ( 'NONE', #218, #71, #85, .T. ) ;
#54 = ORIENTED_EDGE ( 'NONE', *, *, #76, .F. ) ;
#55 = EDGE_LOOP ( 'NONE', ( #289, #130, #318, #77 ) ) ;
#56 = DIRECTION ( 'NONE',  ( -1.224646799147352961E-16, 1.000000000000000000, 0.0000000000000000000 ) ) ;
#57 = ORIENTED_EDGE ( 'NONE', *, *, #302, .F. ) ;
#58 = VERTEX_POINT ( 'NONE', #220 ) ;
#59 = FACE_OUTER_BOUND ( 'NONE', #189, .T. ) ;
#60 = FACE_OUTER_BOUND ( 'NONE', #55, .T. ) ;
#61 = SURFACE_SIDE_STYLE ('',( #261 ) ) ;
#62 = DIRECTION ( 'NONE',  ( -0.0000000000000000000, -0.0000000000000000000, -1.000000000000000000 ) ) ;
#63 = DIRECTION ( 'NONE',  ( -1.000000000000000000, 0.0000000000000000000, 0.0000000000000000000 ) ) ;
#64 = CONICAL_SURFACE ( 'NONE', #211, 0.1424805000000004540, 0.7853981633974608245 ) ;
#65 = DIRECTION ( 'NONE',  ( 0.0000000000000000000, 0.0000000000000000000, -1.000000000000000000 ) ) ;
#66 = CYLINDRICAL_SURFACE ( 'NONE', #95, 0.1574804999999999955 ) ;
#67 = DIMENSIONAL_EXPONENTS ( 1.000000000000000000, 0.0000000000000000000, 0.0000000000000000000, 0.0000000000000000000, 0.0000000000000000000, 0.0000000000000000000, 0.0000000000000000000 ) ;
#68 = DIRECTION ( 'NONE',  ( 1.000000000000000000, 0.0000000000000000000, 0.0000000000000000000 ) ) ;
#69 = CIRCLE ( 'NONE', #112, 0.1062989999999999768 ) ;
#70 =( GEOMETRIC_REPRESENTATION_CONTEXT ( 3 ) GLOBAL_UNCERTAINTY_ASSIGNED_CONTEXT ( ( #166 ) ) GLOBAL_UNIT_ASSIGNED_CONTEXT ( ( #131, #339, #316 ) ) REPRESENTATION_CONTEXT ( 'NONE', 'WORKASPACE' ) );
#71 = VERTEX_POINT ( 'NONE', #4 ) ;
#72 = CONICAL_SURFACE ( 'NONE', #141, 0.1732285499999997591, 0.08645134638073898037 ) ;
#73 = ADVANCED_FACE ( 'NONE', ( #111 ), #167, .T. ) ;
#74 = PRODUCT ( 'Micro_SBMM-080-240', 'Micro_SBMM-080-240', '', ( #199 ) ) ;
#75 = ORIENTED_EDGE ( 'NONE', *, *, #133, .T. ) ;
#76 = EDGE_CURVE ( 'NONE', #239, #315, #69, .T. ) ;
#77 = ORIENTED_EDGE ( 'NONE', *, *, #106, .F. ) ;
#78 = DIRECTION ( 'NONE',  ( 1.000000000000000000, 0.0000000000000000000, 0.0000000000000000000 ) ) ;
#79 =( NAMED_UNIT ( * ) SI_UNIT ( $, .STERADIAN. ) SOLID_ANGLE_UNIT ( ) );
#80 = VECTOR ( 'NONE', #12, 39.37007874015748143 ) ;
#81 = CARTESIAN_POINT ( 'NONE',  ( 1.301787301025644282E-17, -0.1062989999999999491, 0.2736715358320045977 ) ) ;
#82 = VERTEX_POINT ( 'NONE', #207 ) ;
#83 = VERTEX_POINT ( 'NONE', #81 ) ;
#84 = MECHANICAL_DESIGN_GEOMETRIC_PRESENTATION_REPRESENTATION (  '', ( #119 ), #277 ) ;
#85 = CIRCLE ( 'NONE', #278, 0.1574804999999999955 ) ;
#86 = CARTESIAN_POINT ( 'NONE',  ( 0.0000000000000000000, 0.1062989999999999491, 0.2736715358320045977 ) ) ;
#87 = CARTESIAN_POINT ( 'NONE',  ( 0.0000000000000000000, 0.0000000000000000000, 0.2736715358320045977 ) ) ;
#88 = DIRECTION ( 'NONE',  ( 1.000000000000000000, 0.0000000000000000000, 0.0000000000000000000 ) ) ;
#89 = DIRECTION ( 'NONE',  ( -0.0000000000000000000, -0.0000000000000000000, -1.000000000000000000 ) ) ;
#90 = SPHERICAL_SURFACE ( 'NONE', #254, 0.1574799999999999811 ) ;
#91 = EDGE_CURVE ( 'NONE', #82, #218, #99, .T. ) ;
#92 = CARTESIAN_POINT ( 'NONE',  ( 0.0000000000000000000, 0.0000000000000000000, 0.0000000000000000000 ) ) ;
#93 = DIRECTION ( 'NONE',  ( -0.0000000000000000000, -0.0000000000000000000, -1.000000000000000000 ) ) ;
#94 = ADVANCED_FACE ( 'NONE', ( #312 ), #64, .T. ) ;
#95 = AXIS2_PLACEMENT_3D ( 'NONE', #328, #93, #198 ) ;
#96 = ORIENTED_EDGE ( 'NONE', *, *, #236, .F. ) ;
#97 = AXIS2_PLACEMENT_3D ( 'NONE', #241, #23, #341 ) ;
#98 = ORIENTED_EDGE ( 'NONE', *, *, #183, .T. ) ;
#99 = LINE ( 'NONE', #20, #305 ) ;
#100 = CARTESIAN_POINT ( 'NONE',  ( 0.0000000000000000000, 0.0000000000000000000, 0.0000000000000000000 ) ) ;
#101 = DIRECTION ( 'NONE',  ( 0.7071067811865563435, 8.659560562355041327E-17, -0.7071067811865386910 ) ) ;
#102 = ORIENTED_EDGE ( 'NONE', *, *, #76, .T. ) ;
#103 = ORIENTED_EDGE ( 'NONE', *, *, #302, .T. ) ;
#104 = CARTESIAN_POINT ( 'NONE',  ( 0.0000000000000000000, 0.0000000000000000000, 2.347060801784820683 ) ) ;
#105 = ORIENTED_EDGE ( 'NONE', *, *, #150, .F. ) ;
#106 = EDGE_CURVE ( 'NONE', #71, #231, #287, .T. ) ;
#107 = DIRECTION ( 'NONE',  ( 0.0000000000000000000, 0.0000000000000000000, 1.000000000000000000 ) ) ;
#108 = VERTEX_POINT ( 'NONE', #313 ) ;
#109 =( LENGTH_UNIT ( ) NAMED_UNIT ( * ) SI_UNIT ( $, .METRE. ) );
#110 = COLOUR_RGB ( '',0.7921568627450980005, 0.8196078431372548767, 0.9333333333333333481 ) ;
#111 = FACE_OUTER_BOUND ( 'NONE', #259, .T. ) ;
#112 = AXIS2_PLACEMENT_3D ( 'NONE', #87, #46, #292 ) ;
#113 = PRODUCT_DEFINITION_CONTEXT ( 'detailed design', #310, 'design' ) ;
#114 = DIRECTION ( 'NONE',  ( -1.000000000000000000, 0.0000000000000000000, 0.0000000000000000000 ) ) ;
#115 = EDGE_CURVE ( 'NONE', #155, #108, #216, .T. ) ;
#116 = DIRECTION ( 'NONE',  ( 1.000000000000000000, 0.0000000000000000000, 0.0000000000000000000 ) ) ;
#117 = CARTESIAN_POINT ( 'NONE',  ( -0.1574804999999999955, 0.0000000000000000000, 2.165353999999999335 ) ) ;
#118 = CARTESIAN_POINT ( 'NONE',  ( 0.1062989999999998103, 0.0000000000000000000, 1.574802999999999953 ) ) ;
#119 = STYLED_ITEM ( 'NONE', ( #340 ), #140 ) ;
#120 = CIRCLE ( 'NONE', #9, 0.1062989999999998103 ) ;
#121 = DIRECTION ( 'NONE',  ( -1.000000000000000000, 0.0000000000000000000, 0.0000000000000000000 ) ) ;
#122 = EDGE_CURVE ( 'NONE', #83, #153, #279, .T. ) ;
#123 = EDGE_LOOP ( 'NONE', ( #96, #206, #124, #134, #15 ) ) ;
#124 = ORIENTED_EDGE ( 'NONE', *, *, #229, .T. ) ;
#125 = AXIS2_PLACEMENT_3D ( 'NONE', #32, #116, #222 ) ;
#126 = LENGTH_MEASURE_WITH_UNIT ( LENGTH_MEASURE( 0.02539999999999999897 ), #127 );
#127 =( LENGTH_UNIT ( ) NAMED_UNIT ( * ) SI_UNIT ( $, .METRE. ) );
#128 = LENGTH_MEASURE_WITH_UNIT ( LENGTH_MEASURE( 0.02539999999999999897 ), #109 );
#129 = SURFACE_STYLE_FILL_AREA ( #288 ) ;
#130 = ORIENTED_EDGE ( 'NONE', *, *, #174, .T. ) ;
#131 =( CONVERSION_BASED_UNIT ( 'INCH', #128 ) LENGTH_UNIT ( ) NAMED_UNIT ( #67 ) );
#132 = ORIENTED_EDGE ( 'NONE', *, *, #47, .F. ) ;
#133 = EDGE_CURVE ( 'NONE', #83, #239, #202, .T. ) ;
#134 = ORIENTED_EDGE ( 'NONE', *, *, #133, .F. ) ;
#135 = PLANE ( 'NONE',  #97 ) ;
#136 = DIRECTION ( 'NONE',  ( -0.0000000000000000000, -0.0000000000000000000, -1.000000000000000000 ) ) ;
#137 = DIRECTION ( 'NONE',  ( 1.000000000000000000, 0.0000000000000000000, 0.0000000000000000000 ) ) ;
#138 = ADVANCED_BREP_SHAPE_REPRESENTATION ( 'Micro_SBMM-080-240', ( #140, #200 ), #294 ) ;
#139 = DIRECTION ( 'NONE',  ( -0.0000000000000000000, -0.0000000000000000000, -1.000000000000000000 ) ) ;
#140 = MANIFOLD_SOLID_BREP ( 'Cut-Revolve3', #233 ) ;
#141 = AXIS2_PLACEMENT_3D ( 'NONE', #104, #182, #78 ) ;
#142 = CARTESIAN_POINT ( 'NONE',  ( 0.0000000000000000000, 0.0000000000000000000, 1.574802999999999953 ) ) ;
#143 = CARTESIAN_POINT ( 'NONE',  ( 0.1062989999999999075, 1.301787301025643820E-17, 0.0000000000000000000 ) ) ;
#144 = APPLICATION_CONTEXT ( 'automotive_design' ) ;
#145 = DIRECTION ( 'NONE',  ( 0.0000000000000000000, 0.0000000000000000000, 1.000000000000000000 ) ) ;
#146 = LINE ( 'NONE', #143, #13 ) ;
#147 = AXIS2_PLACEMENT_3D ( 'NONE', #193, #299, #249 ) ;
#148 = DIRECTION ( 'NONE',  ( -1.000000000000000000, 0.0000000000000000000, 0.0000000000000000000 ) ) ;
#149 = DIRECTION ( 'NONE',  ( 1.000000000000000000, 0.0000000000000000000, 0.0000000000000000000 ) ) ;
#150 = EDGE_CURVE ( 'NONE', #58, #71, #335, .T. ) ;
#151 = VECTOR ( 'NONE', #240, 39.37007874015748143 ) ;
#152 = ADVANCED_FACE ( 'NONE', ( #209 ), #72, .T. ) ;
#153 = VERTEX_POINT ( 'NONE', #51 ) ;
#154 = EDGE_CURVE ( 'NONE', #231, #108, #247, .T. ) ;
#155 = VERTEX_POINT ( 'NONE', #118 ) ;
#156 = FILL_AREA_STYLE_COLOUR ( '', #110 ) ;
#157 = DIRECTION ( 'NONE',  ( -0.0000000000000000000, -0.0000000000000000000, -1.000000000000000000 ) ) ;
#158 = LENGTH_MEASURE_WITH_UNIT ( LENGTH_MEASURE( 0.02539999999999999897 ), #181 );
#159 = DIRECTION ( 'NONE',  ( 0.0000000000000000000, 0.0000000000000000000, 1.000000000000000000 ) ) ;
#160 = ORIENTED_EDGE ( 'NONE', *, *, #122, .T. ) ;
#161 = ORIENTED_EDGE ( 'NONE', *, *, #115, .T. ) ;
#162 = DIRECTION ( 'NONE',  ( -0.0000000000000000000, -0.0000000000000000000, -1.000000000000000000 ) ) ;
#163 = ORIENTED_EDGE ( 'NONE', *, *, #53, .F. ) ;
#164 = ORIENTED_EDGE ( 'NONE', *, *, #183, .F. ) ;
#165 = CYLINDRICAL_SURFACE ( 'NONE', #330, 0.1574804999999999955 ) ;
#166 = UNCERTAINTY_MEASURE_WITH_UNIT (LENGTH_MEASURE( 1.000000000000000082E-05 ), #131, 'distance_accuracy_value', 'NONE');
#167 = SPHERICAL_SURFACE ( 'NONE', #125, 0.1574799999999999811 ) ;
#168 = DIRECTION ( 'NONE',  ( 0.0000000000000000000, 0.0000000000000000000, 1.000000000000000000 ) ) ;
#169 = CIRCLE ( 'NONE', #230, 0.1062989999999999768 ) ;
#170 = FACE_OUTER_BOUND ( 'NONE', #264, .T. ) ;
#171 = DIRECTION ( 'NONE',  ( 1.000000000000000000, 0.0000000000000000000, 0.0000000000000000000 ) ) ;
#172 = CARTESIAN_POINT ( 'NONE',  ( 0.0000000000000000000, 0.0000000000000000000, 2.165353999999999335 ) ) ;
#173 = AXIS2_PLACEMENT_3D ( 'NONE', #100, #136, #192 ) ;
#174 = EDGE_CURVE ( 'NONE', #218, #108, #6, .T. ) ;
#175 = AXIS2_PLACEMENT_3D ( 'NONE', #223, #65, #88 ) ;
#176 = ORIENTED_EDGE ( 'NONE', *, *, #154, .F. ) ;
#177 = EDGE_CURVE ( 'NONE', #215, #83, #321, .T. ) ;
#178 = EDGE_LOOP ( 'NONE', ( #266, #308 ) ) ;
#179 = CARTESIAN_POINT ( 'NONE',  ( 0.0000000000000000000, 0.0000000000000000000, 3.937007999999999619 ) ) ;
#180 = CIRCLE ( 'NONE', #271, 0.1574804999999999955 ) ;
#181 =( LENGTH_UNIT ( ) NAMED_UNIT ( * ) SI_UNIT ( $, .METRE. ) );
#182 = DIRECTION ( 'NONE',  ( 0.0000000000000000000, 0.0000000000000000000, 1.000000000000000000 ) ) ;
#183 = EDGE_CURVE ( 'NONE', #22, #231, #228, .T. ) ;
#184 = CARTESIAN_POINT ( 'NONE',  ( 0.0000000000000000000, 0.0000000000000000000, 2.347060801784820683 ) ) ;
#185 = SURFACE_STYLE_USAGE ( .BOTH. , #317 ) ;
#186 = FACE_OUTER_BOUND ( 'NONE', #178, .T. ) ;
#187 = ORIENTED_EDGE ( 'NONE', *, *, #252, .F. ) ;
#188 = CARTESIAN_POINT ( 'NONE',  ( 0.1732285499999997591, 0.0000000000000000000, 2.347060801784820683 ) ) ;
#189 = EDGE_LOOP ( 'NONE', ( #280, #98, #290, #319 ) ) ;
#190 =( NAMED_UNIT ( * ) PLANE_ANGLE_UNIT ( ) SI_UNIT ( $, .RADIAN. ) );
#191 = STYLED_ITEM ( 'NONE', ( #344 ), #138 ) ;
#192 = DIRECTION ( 'NONE',  ( -1.000000000000000000, 0.0000000000000000000, 0.0000000000000000000 ) ) ;
#193 = CARTESIAN_POINT ( 'NONE',  ( 0.0000000000000000000, 0.0000000000000000000, 3.937007999999999619 ) ) ;
#194 = DIRECTION ( 'NONE',  ( -0.0000000000000000000, -0.0000000000000000000, -1.000000000000000000 ) ) ;
#195 = CARTESIAN_POINT ( 'NONE',  ( 0.0000000000000000000, 0.0000000000000000000, 0.2736715358320045977 ) ) ;
#196 = APPLICATION_PROTOCOL_DEFINITION ( 'draft international standard', 'automotive_design', 1998, #310 ) ;
#197 = DIRECTION ( 'NONE',  ( -1.000000000000000000, 0.0000000000000000000, 0.0000000000000000000 ) ) ;
#198 = DIRECTION ( 'NONE',  ( -1.000000000000000000, 0.0000000000000000000, 0.0000000000000000000 ) ) ;
#199 = PRODUCT_CONTEXT ( 'NONE', #144, 'mechanical' ) ;
#200 = AXIS2_PLACEMENT_3D ( 'NONE', #26, #273, #149 ) ;
#201 = PRODUCT_RELATED_PRODUCT_CATEGORY ( 'part', '', ( #74 ) ) ;
#202 = CIRCLE ( 'NONE', #307, 0.1062989999999999768 ) ;
#203 = AXIS2_PLACEMENT_3D ( 'NONE', #184, #107, #212 ) ;
#204 = ORIENTED_EDGE ( 'NONE', *, *, #50, .F. ) ;
#205 = ADVANCED_FACE ( 'NONE', ( #170 ), #66, .T. ) ;
#206 = ORIENTED_EDGE ( 'NONE', *, *, #47, .T. ) ;
#207 = CARTESIAN_POINT ( 'NONE',  ( 0.1424805000000004540, 1.836731392595198898E-17, 3.937007999999999619 ) ) ;
#208 = EDGE_CURVE ( 'NONE', #58, #82, #286, .T. ) ;
#209 = FACE_OUTER_BOUND ( 'NONE', #314, .T. ) ;
#210 = EDGE_CURVE ( 'NONE', #108, #231, #180, .T. ) ;
#211 = AXIS2_PLACEMENT_3D ( 'NONE', #179, #336, #235 ) ;
#212 = DIRECTION ( 'NONE',  ( 1.000000000000000000, 0.0000000000000000000, 0.0000000000000000000 ) ) ;
#213 = CARTESIAN_POINT ( 'NONE',  ( -0.1574804999999999955, 0.0000000000000000000, 3.937007999999999619 ) ) ;
#214 = EDGE_LOOP ( 'NONE', ( #267, #332, #338, #54, #293 ) ) ;
#215 = VERTEX_POINT ( 'NONE', #298 ) ;
#216 = LINE ( 'NONE', #188, #304 ) ;
#217 = ORIENTED_EDGE ( 'NONE', *, *, #177, .T. ) ;
#218 = VERTEX_POINT ( 'NONE', #327 ) ;
#219 = ADVANCED_FACE ( 'NONE', ( #248 ), #232, .T. ) ;
#220 = CARTESIAN_POINT ( 'NONE',  ( -0.1424805000000004540, 0.0000000000000000000, 3.937007999999999619 ) ) ;
#221 = CARTESIAN_POINT ( 'NONE',  ( -0.1062989999999999768, 0.0000000000000000000, 0.2736715358320045977 ) ) ;
#222 = DIRECTION ( 'NONE',  ( 0.0000000000000000000, 1.000000000000000000, 0.0000000000000000000 ) ) ;
#223 = CARTESIAN_POINT ( 'NONE',  ( 0.0000000000000000000, 0.0000000000000000000, 3.922008000000000827 ) ) ;
#224 = EDGE_CURVE ( 'NONE', #315, #215, #169, .T. ) ;
#225 = DIRECTION ( 'NONE',  ( 1.000000000000000000, 0.0000000000000000000, 0.0000000000000000000 ) ) ;
#226 = CIRCLE ( 'NONE', #175, 0.1574804999999999955 ) ;
#227 = AXIS2_PLACEMENT_3D ( 'NONE', #251, #197, #168 ) ;
#228 = LINE ( 'NONE', #275, #238 ) ;
#229 = EDGE_CURVE ( 'NONE', #22, #239, #255, .T. ) ;
#230 = AXIS2_PLACEMENT_3D ( 'NONE', #276, #39, #148 ) ;
#231 = VERTEX_POINT ( 'NONE', #117 ) ;
#232 = CONICAL_SURFACE ( 'NONE', #329, 0.1424805000000004540, 0.7853981633974608245 ) ;
#233 = CLOSED_SHELL ( 'NONE', ( #306, #284, #345, #219, #21, #205, #11, #94, #152, #73, #242 ) ) ;
#234 = ORIENTED_EDGE ( 'NONE', *, *, #53, .T. ) ;
#235 = DIRECTION ( 'NONE',  ( -1.000000000000000000, 0.0000000000000000000, 0.0000000000000000000 ) ) ;
#236 = EDGE_CURVE ( 'NONE', #155, #215, #146, .T. ) ;
#237 = PRODUCT_DEFINITION_SHAPE ( 'NONE', 'NONE',  #331 ) ;
#238 = VECTOR ( 'NONE', #300, 39.37007874015748143 ) ;
#239 = VERTEX_POINT ( 'NONE', #221 ) ;
#240 = DIRECTION ( 'NONE',  ( -0.7071067811865563435, 0.0000000000000000000, -0.7071067811865386910 ) ) ;
#241 = CARTESIAN_POINT ( 'NONE',  ( 0.0000000000000000000, 0.0000000000000000000, 3.937007999999999619 ) ) ;
#242 = ADVANCED_FACE ( 'NONE', ( #3 ), #272, .T. ) ;
#243 = SURFACE_STYLE_USAGE ( .BOTH. , #61 ) ;
#244 = ORIENTED_EDGE ( 'NONE', *, *, #154, .T. ) ;
#245 = FACE_OUTER_BOUND ( 'NONE', #214, .T. ) ;
#246 = DIRECTION ( 'NONE',  ( -1.000000000000000000, 0.0000000000000000000, 0.0000000000000000000 ) ) ;
#247 = CIRCLE ( 'NONE', #33, 0.1574804999999999955 ) ;
#248 = FACE_OUTER_BOUND ( 'NONE', #342, .T. ) ;
#249 = DIRECTION ( 'NONE',  ( 1.000000000000000000, 0.0000000000000000000, 0.0000000000000000000 ) ) ;
#250 = CARTESIAN_POINT ( 'NONE',  ( 0.0000000000000000000, 0.0000000000000000000, 3.937007999999999619 ) ) ;
#251 = CARTESIAN_POINT ( 'NONE',  ( 0.0000000000000000000, 0.0000000000000000000, 0.1574800000000000089 ) ) ;
#252 = EDGE_CURVE ( 'NONE', #71, #218, #226, .T. ) ;
#253 = DIRECTION ( 'NONE',  ( 1.000000000000000000, 0.0000000000000000000, 0.0000000000000000000 ) ) ;
#254 = AXIS2_PLACEMENT_3D ( 'NONE', #274, #253, #36 ) ;
#255 = LINE ( 'NONE', #35, #80 ) ;
#256 = DIMENSIONAL_EXPONENTS ( 1.000000000000000000, 0.0000000000000000000, 0.0000000000000000000, 0.0000000000000000000, 0.0000000000000000000, 0.0000000000000000000, 0.0000000000000000000 ) ;
#257 = AXIS2_PLACEMENT_3D ( 'NONE', #263, #283, #56 ) ;
#258 = ORIENTED_EDGE ( 'NONE', *, *, #91, .F. ) ;
#259 = EDGE_LOOP ( 'NONE', ( #43, #75, #102, #103 ) ) ;
#260 = DIRECTION ( 'NONE',  ( 0.08634369942813734100, 0.0000000000000000000, 0.9962654092003110362 ) ) ;
#261 = SURFACE_STYLE_FILL_AREA ( #28 ) ;
#262 = FILL_AREA_STYLE_COLOUR ( '', #333 ) ;
#263 = CARTESIAN_POINT ( 'NONE',  ( 0.0000000000000000000, 0.0000000000000000000, 0.1574800000000000089 ) ) ;
#264 = EDGE_LOOP ( 'NONE', ( #334, #234, #45, #244 ) ) ;
#265 = CIRCLE ( 'NONE', #227, 0.1574799999999999256 ) ;
#266 = ORIENTED_EDGE ( 'NONE', *, *, #208, .T. ) ;
#267 = ORIENTED_EDGE ( 'NONE', *, *, #44, .T. ) ;
#268 =( NAMED_UNIT ( * ) SI_UNIT ( $, .STERADIAN. ) SOLID_ANGLE_UNIT ( ) );
#269 = DIRECTION ( 'NONE',  ( -1.000000000000000000, 0.0000000000000000000, 0.0000000000000000000 ) ) ;
#270 = DIRECTION ( 'NONE',  ( -1.000000000000000000, 0.0000000000000000000, 0.0000000000000000000 ) ) ;
#271 = AXIS2_PLACEMENT_3D ( 'NONE', #172, #323, #171 ) ;
#272 = CYLINDRICAL_SURFACE ( 'NONE', #24, 0.1062989999999999075 ) ;
#273 = DIRECTION ( 'NONE',  ( 0.0000000000000000000, 0.0000000000000000000, 1.000000000000000000 ) ) ;
#274 = CARTESIAN_POINT ( 'NONE',  ( 0.0000000000000000000, 0.0000000000000000000, 0.1574800000000000089 ) ) ;
#275 = CARTESIAN_POINT ( 'NONE',  ( -0.1732285499999997591, 2.121437892784369072E-17, 2.347060801784820683 ) ) ;
#276 = CARTESIAN_POINT ( 'NONE',  ( 0.0000000000000000000, 0.0000000000000000000, 0.2736715358320045977 ) ) ;
#277 =( GEOMETRIC_REPRESENTATION_CONTEXT ( 3 ) GLOBAL_UNCERTAINTY_ASSIGNED_CONTEXT ( ( #322 ) ) GLOBAL_UNIT_ASSIGNED_CONTEXT ( ( #16, #52, #79 ) ) REPRESENTATION_CONTEXT ( 'NONE', 'WORKASPACE' ) );
#278 = AXIS2_PLACEMENT_3D ( 'NONE', #1, #297, #137 ) ;
#279 = CIRCLE ( 'NONE', #257, 0.1574799999999999811 ) ;
#280 = ORIENTED_EDGE ( 'NONE', *, *, #44, .F. ) ;
#281 = PRODUCT_DEFINITION_FORMATION_WITH_SPECIFIED_SOURCE ( 'ANY', '', #74, .NOT_KNOWN. ) ;
#282 = ORIENTED_EDGE ( 'NONE', *, *, #150, .T. ) ;
#283 = DIRECTION ( 'NONE',  ( 1.000000000000000000, 1.224646799147353207E-16, -0.0000000000000000000 ) ) ;
#284 = ADVANCED_FACE ( 'NONE', ( #325 ), #90, .T. ) ;
#285 = CARTESIAN_POINT ( 'NONE',  ( -0.1424805000000004540, 0.0000000000000000000, 3.937007999999999619 ) ) ;
#286 = CIRCLE ( 'NONE', #2, 0.1424805000000004540 ) ;
#287 = LINE ( 'NONE', #213, #49 ) ;
#288 = FILL_AREA_STYLE ('',( #156 ) ) ;
#289 = ORIENTED_EDGE ( 'NONE', *, *, #252, .T. ) ;
#290 = ORIENTED_EDGE ( 'NONE', *, *, #210, .F. ) ;
#291 =( CONVERSION_BASED_UNIT ( 'INCH', #158 ) LENGTH_UNIT ( ) NAMED_UNIT ( #41 ) );
#292 = DIRECTION ( 'NONE',  ( -1.000000000000000000, 0.0000000000000000000, 0.0000000000000000000 ) ) ;
#293 = ORIENTED_EDGE ( 'NONE', *, *, #229, .F. ) ;
#294 =( GEOMETRIC_REPRESENTATION_CONTEXT ( 3 ) GLOBAL_UNCERTAINTY_ASSIGNED_CONTEXT ( ( #30 ) ) GLOBAL_UNIT_ASSIGNED_CONTEXT ( ( #291, #190, #268 ) ) REPRESENTATION_CONTEXT ( 'NONE', 'WORKASPACE' ) );
#295 = CIRCLE ( 'NONE', #147, 0.1424805000000004540 ) ;
#296 = CARTESIAN_POINT ( 'NONE',  ( 0.0000000000000000000, 0.0000000000000000000, 3.937007999999999619 ) ) ;
#297 = DIRECTION ( 'NONE',  ( 0.0000000000000000000, 0.0000000000000000000, -1.000000000000000000 ) ) ;
#298 = CARTESIAN_POINT ( 'NONE',  ( 0.1062989999999999768, 1.301787301025644745E-17, 0.2736715358320045977 ) ) ;
#299 = DIRECTION ( 'NONE',  ( 0.0000000000000000000, 0.0000000000000000000, 1.000000000000000000 ) ) ;
#300 = DIRECTION ( 'NONE',  ( -0.08634369942813734100, 1.057405351312095416E-17, 0.9962654092003110362 ) ) ;
#301 = DIRECTION ( 'NONE',  ( -0.0000000000000000000, -0.0000000000000000000, -1.000000000000000000 ) ) ;
#302 = EDGE_CURVE ( 'NONE', #315, #153, #265, .T. ) ;
#303 = CARTESIAN_POINT ( 'NONE',  ( 0.0000000000000000000, 0.0000000000000000000, 3.937007999999999619 ) ) ;
#304 = VECTOR ( 'NONE', #260, 39.37007874015748143 ) ;
#305 = VECTOR ( 'NONE', #101, 39.37007874015748143 ) ;
#306 = ADVANCED_FACE ( 'NONE', ( #245 ), #320, .T. ) ;
#307 = AXIS2_PLACEMENT_3D ( 'NONE', #311, #162, #19 ) ;
#308 = ORIENTED_EDGE ( 'NONE', *, *, #50, .T. ) ;
#309 = EDGE_LOOP ( 'NONE', ( #258, #25, #282, #163 ) ) ;
#310 = APPLICATION_CONTEXT ( 'automotive_design' ) ;
#311 = CARTESIAN_POINT ( 'NONE',  ( 0.0000000000000000000, 0.0000000000000000000, 0.2736715358320045977 ) ) ;
#312 = FACE_OUTER_BOUND ( 'NONE', #309, .T. ) ;
#313 = CARTESIAN_POINT ( 'NONE',  ( 0.1574804999999999955, 1.928579902531247412E-17, 2.165353999999999335 ) ) ;
#314 = EDGE_LOOP ( 'NONE', ( #164, #132, #161, #176 ) ) ;
#315 = VERTEX_POINT ( 'NONE', #86 ) ;
#316 =( NAMED_UNIT ( * ) SI_UNIT ( $, .STERADIAN. ) SOLID_ANGLE_UNIT ( ) );
#317 = SURFACE_SIDE_STYLE ('',( #129 ) ) ;
#318 = ORIENTED_EDGE ( 'NONE', *, *, #210, .T. ) ;
#319 = ORIENTED_EDGE ( 'NONE', *, *, #115, .F. ) ;
#320 = CYLINDRICAL_SURFACE ( 'NONE', #173, 0.1062989999999999075 ) ;
#321 = CIRCLE ( 'NONE', #42, 0.1062989999999999768 ) ;
#322 = UNCERTAINTY_MEASURE_WITH_UNIT (LENGTH_MEASURE( 1.000000000000000082E-05 ), #16, 'distance_accuracy_value', 'NONE');
#323 = DIRECTION ( 'NONE',  ( 0.0000000000000000000, 0.0000000000000000000, 1.000000000000000000 ) ) ;
#324 = CARTESIAN_POINT ( 'NONE',  ( -0.1062989999999998103, 1.615183601778445154E-17, 1.574802999999999953 ) ) ;
#325 = FACE_OUTER_BOUND ( 'NONE', #343, .T. ) ;
#326 = VECTOR ( 'NONE', #139, 39.37007874015748143 ) ;
#327 = CARTESIAN_POINT ( 'NONE',  ( 0.1574804999999999955, 1.928579902531247412E-17, 3.922008000000000827 ) ) ;
#328 = CARTESIAN_POINT ( 'NONE',  ( 0.0000000000000000000, 0.0000000000000000000, 3.937007999999999619 ) ) ;
#329 = AXIS2_PLACEMENT_3D ( 'NONE', #250, #37, #63 ) ;
#330 = AXIS2_PLACEMENT_3D ( 'NONE', #296, #62, #270 ) ;
#331 = PRODUCT_DEFINITION ( 'UNKNOWN', '', #281, #113 ) ;
#332 = ORIENTED_EDGE ( 'NONE', *, *, #236, .T. ) ;
#333 = COLOUR_RGB ( '',0.7921568627450980005, 0.8196078431372548767, 0.9333333333333333481 ) ;
#334 = ORIENTED_EDGE ( 'NONE', *, *, #174, .F. ) ;
#335 = LINE ( 'NONE', #285, #151 ) ;
#336 = DIRECTION ( 'NONE',  ( 0.0000000000000000000, 0.0000000000000000000, -1.000000000000000000 ) ) ;
#337 = PRESENTATION_LAYER_ASSIGNMENT (  '', '', ( #119 ) ) ;
#338 = ORIENTED_EDGE ( 'NONE', *, *, #224, .F. ) ;
#339 =( NAMED_UNIT ( * ) PLANE_ANGLE_UNIT ( ) SI_UNIT ( $, .RADIAN. ) );
#340 = PRESENTATION_STYLE_ASSIGNMENT (( #185 ) ) ;
#341 = DIRECTION ( 'NONE',  ( 1.000000000000000000, 0.0000000000000000000, -0.0000000000000000000 ) ) ;
#342 = EDGE_LOOP ( 'NONE', ( #204, #27, #187, #105 ) ) ;
#343 = EDGE_LOOP ( 'NONE', ( #14, #217, #160, #57 ) ) ;
#344 = PRESENTATION_STYLE_ASSIGNMENT (( #243 ) ) ;
#345 = ADVANCED_FACE ( 'NONE', ( #59 ), #8, .T. ) ;
ENDSEC;
END-ISO-10303-21;
