ISO-10303-21;
HEADER;
FILE_DESCRIPTION (( 'STEP AP214' ),
    '1' );
FILE_NAME ('44157.STEP',
    '2023-06-22T19:29:12',
    ( '' ),
    ( '' ),
    'SwSTEP 2.0',
    'SolidWorks 2023',
    '' );
FILE_SCHEMA (( 'AUTOMOTIVE_DESIGN' ));
ENDSEC;

DATA;
#1 = MANIFOLD_SOLID_BREP ( 'Revolve - Tool Body (Straight Shanked)', #73 ) ;
#2 =( GEOMETRIC_REPRESENTATION_CONTEXT ( 3 ) GLOBAL_UNCERTAINTY_ASSIGNED_CONTEXT ( ( #53 ) ) GLOBAL_UNIT_ASSIGNED_CONTEXT ( ( #307, #258, #71 ) ) REPRESENTATION_CONTEXT ( 'NONE', 'WORKASPACE' ) );
#3 = MECHANICAL_DESIGN_GEOMETRIC_PRESENTATION_REPRESENTATION (  '', ( #52 ), #19 ) ;
#4 = SURFACE_STYLE_FILL_AREA ( #151 ) ;
#5 = VECTOR ( 'NONE', #79, 39.37007874015748143 ) ;
#6 = AXIS2_PLACEMENT_3D ( 'NONE', #128, #224, #9 ) ;
#7 = PLANE ( 'NONE',  #196 ) ;
#8 = AXIS2_PLACEMENT_3D ( 'NONE', #166, #247, #154 ) ;
#9 = DIRECTION ( 'NONE',  ( 1.000000000000000000, 0.000000000000000000, 0.000000000000000000 ) ) ;
#10 = UNCERTAINTY_MEASURE_WITH_UNIT (LENGTH_MEASURE( 1.000000000000000082E-05 ), #309, 'distance_accuracy_value', 'NONE');
#11 = VERTEX_POINT ( 'NONE', #218 ) ;
#12 = PLANE ( 'NONE',  #278 ) ;
#13 = CARTESIAN_POINT ( 'NONE',  ( -0.1250000000000001110, 3.000000000000000444, 0.000000000000000000 ) ) ;
#14 = CARTESIAN_POINT ( 'NONE',  ( 0.000000000000000000, 0.000000000000000000, 0.000000000000000000 ) ) ;
#15 = DIRECTION ( 'NONE',  ( -3.498990854706726443E-17, 1.000000000000000000, -0.000000000000000000 ) ) ;
#16 = VERTEX_POINT ( 'NONE', #98 ) ;
#17 = ORIENTED_EDGE ( 'NONE', *, *, #163, .T. ) ;
#18 = COLOUR_RGB ( '',1.000000000000000000, 0.000000000000000000, 0.000000000000000000 ) ;
#19 =( GEOMETRIC_REPRESENTATION_CONTEXT ( 3 ) GLOBAL_UNCERTAINTY_ASSIGNED_CONTEXT ( ( #10 ) ) GLOBAL_UNIT_ASSIGNED_CONTEXT ( ( #309, #284, #255 ) ) REPRESENTATION_CONTEXT ( 'NONE', 'WORKASPACE' ) );
#20 = FILL_AREA_STYLE ('',( #189 ) ) ;
#21 = APPLICATION_CONTEXT ( 'automotive_design' ) ;
#22 = ADVANCED_FACE ( 'NONE', ( #24 ), #118, .T. ) ;
#23 = DIRECTION ( 'NONE',  ( -0.000000000000000000, -1.000000000000000000, -0.000000000000000000 ) ) ;
#24 = FACE_OUTER_BOUND ( 'NONE', #161, .T. ) ;
#25 = AXIS2_PLACEMENT_3D ( 'NONE', #240, #212, #86 ) ;
#26 = SURFACE_SIDE_STYLE ('',( #29 ) ) ;
#27 = CARTESIAN_POINT ( 'NONE',  ( 0.1250000000000000278, 1.250000000000000000, 1.530808498934192125E-17 ) ) ;
#28 =( NAMED_UNIT ( * ) SI_UNIT ( $, .STERADIAN. ) SOLID_ANGLE_UNIT ( ) );
#29 = SURFACE_STYLE_FILL_AREA ( #62 ) ;
#30 = ORIENTED_EDGE ( 'NONE', *, *, #193, .F. ) ;
#31 = DIRECTION ( 'NONE',  ( -1.000000000000000000, -3.498990854706726443E-17, 0.000000000000000000 ) ) ;
#32 = UNCERTAINTY_MEASURE_WITH_UNIT (LENGTH_MEASURE( 1.000000000000000082E-05 ), #205, 'distance_accuracy_value', 'NONE');
#33 = FACE_OUTER_BOUND ( 'NONE', #72, .T. ) ;
#34 = EDGE_LOOP ( 'NONE', ( #111, #17 ) ) ;
#35 = DIRECTION ( 'NONE',  ( -1.000000000000000000, 0.000000000000000000, 0.000000000000000000 ) ) ;
#36 = SURFACE_STYLE_USAGE ( .BOTH. , #26 ) ;
#37 = LENGTH_MEASURE_WITH_UNIT ( LENGTH_MEASURE( 0.02539999999999999897 ), #302 );
#38 = DIRECTION ( 'NONE',  ( -3.498990854706726443E-17, 1.000000000000000000, -0.000000000000000000 ) ) ;
#39 = CARTESIAN_POINT ( 'NONE',  ( 0.000000000000000000, 0.000000000000000000, 0.000000000000000000 ) ) ;
#40 =( GEOMETRIC_REPRESENTATION_CONTEXT ( 3 ) GLOBAL_UNCERTAINTY_ASSIGNED_CONTEXT ( ( #272 ) ) GLOBAL_UNIT_ASSIGNED_CONTEXT ( ( #296, #300, #28 ) ) REPRESENTATION_CONTEXT ( 'NONE', 'WORKASPACE' ) );
#41 = VECTOR ( 'NONE', #246, 39.37007874015748143 ) ;
#42 =( LENGTH_UNIT ( ) NAMED_UNIT ( * ) SI_UNIT ( $, .METRE. ) );
#43 = ORIENTED_EDGE ( 'NONE', *, *, #203, .T. ) ;
#44 = PRODUCT_DEFINITION ( 'UNKNOWN', '', #117, #267 ) ;
#45 = DIRECTION ( 'NONE',  ( -3.498990854706726443E-17, 1.000000000000000000, -0.000000000000000000 ) ) ;
#46 = PLANE ( 'NONE',  #202 ) ;
#47 = CIRCLE ( 'NONE', #234, 0.1250000000000000555 ) ;
#48 = DIMENSIONAL_EXPONENTS ( 1.000000000000000000, 0.000000000000000000, 0.000000000000000000, 0.000000000000000000, 0.000000000000000000, 0.000000000000000000, 0.000000000000000000 ) ;
#49 = PRODUCT ( '44157', '44157', '', ( #82 ) ) ;
#50 = SURFACE_STYLE_FILL_AREA ( #263 ) ;
#51 = MECHANICAL_DESIGN_GEOMETRIC_PRESENTATION_REPRESENTATION (  '', ( #67 ), #222 ) ;
#52 = STYLED_ITEM ( 'NONE', ( #168 ), #198 ) ;
#53 = UNCERTAINTY_MEASURE_WITH_UNIT (LENGTH_MEASURE( 1.000000000000000082E-05 ), #307, 'distance_accuracy_value', 'NONE');
#54 = FILL_AREA_STYLE_COLOUR ( '', #85 ) ;
#55 = AXIS2_PLACEMENT_3D ( 'NONE', #237, #45, #235 ) ;
#56 = CYLINDRICAL_SURFACE ( 'NONE', #126, 0.1250000000000000278 ) ;
#57 = FACE_OUTER_BOUND ( 'NONE', #63, .T. ) ;
#58 = FILL_AREA_STYLE ('',( #54 ) ) ;
#59 = DIRECTION ( 'NONE',  ( 0.000000000000000000, 0.000000000000000000, -1.000000000000000000 ) ) ;
#60 = VERTEX_POINT ( 'NONE', #244 ) ;
#61 = UNCERTAINTY_MEASURE_WITH_UNIT (LENGTH_MEASURE( 1.000000000000000082E-05 ), #228, 'distance_accuracy_value', 'NONE');
#62 = FILL_AREA_STYLE ('',( #292 ) ) ;
#63 = EDGE_LOOP ( 'NONE', ( #182, #165, #167, #264 ) ) ;
#64 = CARTESIAN_POINT ( 'NONE',  ( -6.123233995736772199E-17, 3.000000000000000444, 0.000000000000000000 ) ) ;
#65 = DIRECTION ( 'NONE',  ( 1.000000000000000000, 3.498990854706726443E-17, 0.000000000000000000 ) ) ;
#66 = FACE_OUTER_BOUND ( 'NONE', #114, .T. ) ;
#67 = STYLED_ITEM ( 'NONE', ( #266 ), #103 ) ;
#68 = ORIENTED_EDGE ( 'NONE', *, *, #89, .F. ) ;
#69 = SURFACE_STYLE_FILL_AREA ( #20 ) ;
#70 = SURFACE_STYLE_USAGE ( .BOTH. , #150 ) ;
#71 =( NAMED_UNIT ( * ) SI_UNIT ( $, .STERADIAN. ) SOLID_ANGLE_UNIT ( ) );
#72 = EDGE_LOOP ( 'NONE', ( #68, #188 ) ) ;
#73 = CLOSED_SHELL ( 'NONE', ( #22, #220, #226, #176 ) ) ;
#74 = AXIS2_PLACEMENT_3D ( 'NONE', #204, #134, #186 ) ;
#75 = DIMENSIONAL_EXPONENTS ( 1.000000000000000000, 0.000000000000000000, 0.000000000000000000, 0.000000000000000000, 0.000000000000000000, 0.000000000000000000, 0.000000000000000000 ) ;
#76 = PLANE ( 'NONE',  #116 ) ;
#77 = LENGTH_MEASURE_WITH_UNIT ( LENGTH_MEASURE( 0.02539999999999999897 ), #219 );
#78 = EDGE_CURVE ( 'NONE', #279, #60, #104, .T. ) ;
#79 = DIRECTION ( 'NONE',  ( -0.000000000000000000, -1.000000000000000000, -0.000000000000000000 ) ) ;
#80 = UNCERTAINTY_MEASURE_WITH_UNIT (LENGTH_MEASURE( 1.000000000000000082E-05 ), #175, 'distance_accuracy_value', 'NONE');
#81 = DIRECTION ( 'NONE',  ( -3.498990854706726443E-17, 1.000000000000000000, -0.000000000000000000 ) ) ;
#82 = PRODUCT_CONTEXT ( 'NONE', #276, 'mechanical' ) ;
#83 = LINE ( 'NONE', #109, #41 ) ;
#84 = CARTESIAN_POINT ( 'NONE',  ( 0.000000000000000000, 1.250000000000000000, -0.1250000000000000000 ) ) ;
#85 = COLOUR_RGB ( '',1.000000000000000000, 0.000000000000000000, 0.000000000000000000 ) ;
#86 = DIRECTION ( 'NONE',  ( 0.000000000000000000, 0.000000000000000000, -1.000000000000000000 ) ) ;
#87 = FACE_OUTER_BOUND ( 'NONE', #34, .T. ) ;
#88 =( NAMED_UNIT ( * ) SI_UNIT ( $, .STERADIAN. ) SOLID_ANGLE_UNIT ( ) );
#89 = EDGE_CURVE ( 'NONE', #131, #11, #249, .T. ) ;
#90 = CARTESIAN_POINT ( 'NONE',  ( -6.123233995736772199E-17, 3.000000000000000444, 0.000000000000000000 ) ) ;
#91 = ORIENTED_EDGE ( 'NONE', *, *, #203, .F. ) ;
#92 = DIRECTION ( 'NONE',  ( -0.000000000000000000, -1.000000000000000000, -0.000000000000000000 ) ) ;
#93 = MECHANICAL_DESIGN_GEOMETRIC_PRESENTATION_REPRESENTATION (  '', ( #120 ), #195 ) ;
#94 = DIMENSIONAL_EXPONENTS ( 1.000000000000000000, 0.000000000000000000, 0.000000000000000000, 0.000000000000000000, 0.000000000000000000, 0.000000000000000000, 0.000000000000000000 ) ;
#95 = COLOUR_RGB ( '',0.7921568627450980005, 0.8196078431372548767, 0.9333333333333333481 ) ;
#96 = PRESENTATION_LAYER_ASSIGNMENT (  '', '', ( #52 ) ) ;
#97 = DIMENSIONAL_EXPONENTS ( 1.000000000000000000, 0.000000000000000000, 0.000000000000000000, 0.000000000000000000, 0.000000000000000000, 0.000000000000000000, 0.000000000000000000 ) ;
#98 = CARTESIAN_POINT ( 'NONE',  ( -0.1250000000000000000, 1.250000000000000000, 0.000000000000000000 ) ) ;
#99 = MECHANICAL_DESIGN_GEOMETRIC_PRESENTATION_REPRESENTATION (  '', ( #265 ), #40 ) ;
#100 = CIRCLE ( 'NONE', #280, 0.1250000000000000278 ) ;
#101 = MANIFOLD_SOLID_BREP ( 'Revolve - Cutting Edge', #223 ) ;
#102 = DIRECTION ( 'NONE',  ( -3.498990854706726443E-17, 1.000000000000000000, -0.000000000000000000 ) ) ;
#103 = ADVANCED_FACE ( 'NONE', ( #289 ), #76, .T. ) ;
#104 = LINE ( 'NONE', #177, #160 ) ;
#105 = EDGE_LOOP ( 'NONE', ( #304, #159, #248, #303 ) ) ;
#106 = DIRECTION ( 'NONE',  ( 0.000000000000000000, -0.000000000000000000, 1.000000000000000000 ) ) ;
#107 = EDGE_CURVE ( 'NONE', #11, #131, #301, .T. ) ;
#108 = PRESENTATION_STYLE_ASSIGNMENT (( #155 ) ) ;
#109 = CARTESIAN_POINT ( 'NONE',  ( 0.000000000000000000, 0.000000000000000000, -0.1250000000000000278 ) ) ;
#110 =( NAMED_UNIT ( * ) PLANE_ANGLE_UNIT ( ) SI_UNIT ( $, .RADIAN. ) );
#111 = ORIENTED_EDGE ( 'NONE', *, *, #288, .T. ) ;
#112 = DIRECTION ( 'NONE',  ( -0.000000000000000000, -1.000000000000000000, -0.000000000000000000 ) ) ;
#113 = CARTESIAN_POINT ( 'NONE',  ( 0.000000000000000000, 1.250000000000000000, 0.000000000000000000 ) ) ;
#114 = EDGE_LOOP ( 'NONE', ( #213, #298, #119, #214 ) ) ;
#115 = CARTESIAN_POINT ( 'NONE',  ( 0.000000000000000000, 1.250000000000000000, 0.000000000000000000 ) ) ;
#116 = AXIS2_PLACEMENT_3D ( 'NONE', #297, #164, #59 ) ;
#117 = PRODUCT_DEFINITION_FORMATION_WITH_SPECIFIED_SOURCE ( 'ANY', '', #49, .NOT_KNOWN. ) ;
#118 = CYLINDRICAL_SURFACE ( 'NONE', #143, 0.1250000000000000278 ) ;
#119 = ORIENTED_EDGE ( 'NONE', *, *, #245, .F. ) ;
#120 = STYLED_ITEM ( 'NONE', ( #206 ), #1 ) ;
#121 = LENGTH_MEASURE_WITH_UNIT ( LENGTH_MEASURE( 0.02539999999999999897 ), #42 );
#122 = ADVANCED_FACE ( 'NONE', ( #33 ), #12, .T. ) ;
#123 = DIMENSIONAL_EXPONENTS ( 1.000000000000000000, 0.000000000000000000, 0.000000000000000000, 0.000000000000000000, 0.000000000000000000, 0.000000000000000000, 0.000000000000000000 ) ;
#124 = CARTESIAN_POINT ( 'NONE',  ( -6.123233995736772199E-17, 3.000000000000000444, 0.000000000000000000 ) ) ;
#125 = DIMENSIONAL_EXPONENTS ( 1.000000000000000000, 0.000000000000000000, 0.000000000000000000, 0.000000000000000000, 0.000000000000000000, 0.000000000000000000, 0.000000000000000000 ) ;
#126 = AXIS2_PLACEMENT_3D ( 'NONE', #64, #81, #201 ) ;
#127 = DIRECTION ( 'NONE',  ( -1.000000000000000000, 0.000000000000000000, 0.000000000000000000 ) ) ;
#128 = CARTESIAN_POINT ( 'NONE',  ( 0.000000000000000000, 0.000000000000000000, 0.000000000000000000 ) ) ;
#129 = AXIS2_PLACEMENT_3D ( 'NONE', #115, #229, #294 ) ;
#130 = PRESENTATION_STYLE_ASSIGNMENT (( #36 ) ) ;
#131 = VERTEX_POINT ( 'NONE', #84 ) ;
#132 = CARTESIAN_POINT ( 'NONE',  ( -6.123233995736772199E-17, 3.000000000000000444, 0.000000000000000000 ) ) ;
#133 = FILL_AREA_STYLE ('',( #285 ) ) ;
#134 = DIRECTION ( 'NONE',  ( -3.498990854706726443E-17, 1.000000000000000000, -0.000000000000000000 ) ) ;
#135 = DIRECTION ( 'NONE',  ( 0.000000000000000000, 1.000000000000000000, 0.000000000000000000 ) ) ;
#136 = CARTESIAN_POINT ( 'NONE',  ( 0.000000000000000000, 0.000000000000000000, -0.1250000000000000278 ) ) ;
#137 = CIRCLE ( 'NONE', #74, 0.1250000000000000000 ) ;
#138 = CYLINDRICAL_SURFACE ( 'NONE', #25, 0.1250000000000000278 ) ;
#139 = EDGE_CURVE ( 'NONE', #11, #251, #185, .T. ) ;
#140 =( LENGTH_UNIT ( ) NAMED_UNIT ( * ) SI_UNIT ( $, .METRE. ) );
#141 =( NAMED_UNIT ( * ) PLANE_ANGLE_UNIT ( ) SI_UNIT ( $, .RADIAN. ) );
#142 = DIRECTION ( 'NONE',  ( 3.498990854706726443E-17, -1.000000000000000000, 0.000000000000000000 ) ) ;
#143 = AXIS2_PLACEMENT_3D ( 'NONE', #124, #102, #127 ) ;
#144 = VERTEX_POINT ( 'NONE', #178 ) ;
#145 = ADVANCED_FACE ( 'NONE', ( #269 ), #199, .T. ) ;
#146 = SURFACE_SIDE_STYLE ('',( #50 ) ) ;
#147 = DIMENSIONAL_EXPONENTS ( 1.000000000000000000, 0.000000000000000000, 0.000000000000000000, 0.000000000000000000, 0.000000000000000000, 0.000000000000000000, 0.000000000000000000 ) ;
#148 = STYLED_ITEM ( 'NONE', ( #290 ), #101 ) ;
#149 = FILL_AREA_STYLE_COLOUR ( '', #190 ) ;
#150 = SURFACE_SIDE_STYLE ('',( #4 ) ) ;
#151 = FILL_AREA_STYLE ('',( #308 ) ) ;
#152 = MECHANICAL_DESIGN_GEOMETRIC_PRESENTATION_REPRESENTATION (  '', ( #208 ), #2 ) ;
#153 =( NAMED_UNIT ( * ) SI_UNIT ( $, .STERADIAN. ) SOLID_ANGLE_UNIT ( ) );
#154 = DIRECTION ( 'NONE',  ( 0.000000000000000000, 0.000000000000000000, -1.000000000000000000 ) ) ;
#155 = SURFACE_STYLE_USAGE ( .BOTH. , #158 ) ;
#156 = PRODUCT_RELATED_PRODUCT_CATEGORY ( 'part', '', ( #49 ) ) ;
#157 = FACE_OUTER_BOUND ( 'NONE', #227, .T. ) ;
#158 = SURFACE_SIDE_STYLE ('',( #273 ) ) ;
#159 = ORIENTED_EDGE ( 'NONE', *, *, #107, .T. ) ;
#160 = VECTOR ( 'NONE', #260, 39.37007874015748143 ) ;
#161 = EDGE_LOOP ( 'NONE', ( #43, #194, #259, #216 ) ) ;
#162 = LENGTH_MEASURE_WITH_UNIT ( LENGTH_MEASURE( 0.02539999999999999897 ), #231 );
#163 = EDGE_CURVE ( 'NONE', #60, #144, #47, .T. ) ;
#164 = DIRECTION ( 'NONE',  ( 0.000000000000000000, -1.000000000000000000, -0.000000000000000000 ) ) ;
#165 = ORIENTED_EDGE ( 'NONE', *, *, #193, .T. ) ;
#166 = CARTESIAN_POINT ( 'NONE',  ( 0.000000000000000000, 0.000000000000000000, 0.000000000000000000 ) ) ;
#167 = ORIENTED_EDGE ( 'NONE', *, *, #261, .T. ) ;
#168 = PRESENTATION_STYLE_ASSIGNMENT (( #172 ) ) ;
#169 = PRESENTATION_LAYER_ASSIGNMENT (  '', '', ( #148 ) ) ;
#170 =( GEOMETRIC_REPRESENTATION_CONTEXT ( 3 ) GLOBAL_UNCERTAINTY_ASSIGNED_CONTEXT ( ( #61 ) ) GLOBAL_UNIT_ASSIGNED_CONTEXT ( ( #228, #295, #207 ) ) REPRESENTATION_CONTEXT ( 'NONE', 'WORKASPACE' ) );
#171 = SURFACE_STYLE_FILL_AREA ( #133 ) ;
#172 = SURFACE_STYLE_USAGE ( .BOTH. , #210 ) ;
#173 = LENGTH_MEASURE_WITH_UNIT ( LENGTH_MEASURE( 0.02539999999999999897 ), #140 );
#174 = PRODUCT_DEFINITION_SHAPE ( 'NONE', 'NONE',  #44 ) ;
#175 =( CONVERSION_BASED_UNIT ( 'INCH', #77 ) LENGTH_UNIT ( ) NAMED_UNIT ( #75 ) );
#176 = ADVANCED_FACE ( 'NONE', ( #87 ), #46, .F. ) ;
#177 = CARTESIAN_POINT ( 'NONE',  ( 0.1249999999999999584, 3.000000000000000444, 1.530808498934191817E-17 ) ) ;
#178 = CARTESIAN_POINT ( 'NONE',  ( -0.1250000000000001388, 3.000000000000000444, 0.000000000000000000 ) ) ;
#179 =( GEOMETRIC_REPRESENTATION_CONTEXT ( 3 ) GLOBAL_UNCERTAINTY_ASSIGNED_CONTEXT ( ( #80 ) ) GLOBAL_UNIT_ASSIGNED_CONTEXT ( ( #175, #141, #238 ) ) REPRESENTATION_CONTEXT ( 'NONE', 'WORKASPACE' ) );
#180 = VECTOR ( 'NONE', #38, 39.37007874015748143 ) ;
#181 = APPLICATION_PROTOCOL_DEFINITION ( 'draft international standard', 'automotive_design', 1998, #21 ) ;
#182 = ORIENTED_EDGE ( 'NONE', *, *, #78, .F. ) ;
#183 = DIRECTION ( 'NONE',  ( 0.000000000000000000, 0.000000000000000000, -1.000000000000000000 ) ) ;
#184 = UNCERTAINTY_MEASURE_WITH_UNIT (LENGTH_MEASURE( 1.000000000000000082E-05 ), #236, 'distance_accuracy_value', 'NONE');
#185 = LINE ( 'NONE', #282, #5 ) ;
#186 = DIRECTION ( 'NONE',  ( -1.000000000000000000, 0.000000000000000000, 0.000000000000000000 ) ) ;
#187 = CARTESIAN_POINT ( 'NONE',  ( 0.1250000000000000000, 3.000000000000000444, 0.000000000000000000 ) ) ;
#188 = ORIENTED_EDGE ( 'NONE', *, *, #107, .F. ) ;
#189 = FILL_AREA_STYLE_COLOUR ( '', #191 ) ;
#190 = COLOUR_RGB ( '',1.000000000000000000, 0.000000000000000000, 0.000000000000000000 ) ;
#191 = COLOUR_RGB ( '',1.000000000000000000, 0.000000000000000000, 0.000000000000000000 ) ;
#192 = ORIENTED_EDGE ( 'NONE', *, *, #291, .T. ) ;
#193 = EDGE_CURVE ( 'NONE', #279, #16, #209, .T. ) ;
#194 = ORIENTED_EDGE ( 'NONE', *, *, #78, .T. ) ;
#195 =( GEOMETRIC_REPRESENTATION_CONTEXT ( 3 ) GLOBAL_UNCERTAINTY_ASSIGNED_CONTEXT ( ( #184 ) ) GLOBAL_UNIT_ASSIGNED_CONTEXT ( ( #236, #211, #88 ) ) REPRESENTATION_CONTEXT ( 'NONE', 'WORKASPACE' ) );
#196 = AXIS2_PLACEMENT_3D ( 'NONE', #271, #283, #31 ) ;
#197 = CARTESIAN_POINT ( 'NONE',  ( 0.000000000000000000, 1.250000000000000000, 0.000000000000000000 ) ) ;
#198 = ADVANCED_FACE ( 'NONE', ( #66 ), #138, .T. ) ;
#199 = CYLINDRICAL_SURFACE ( 'NONE', #270, 0.1250000000000000278 ) ;
#200 = COLOUR_RGB ( '',0.7921568627450980005, 0.8196078431372548767, 0.9333333333333333481 ) ;
#201 = DIRECTION ( 'NONE',  ( -1.000000000000000000, 0.000000000000000000, 0.000000000000000000 ) ) ;
#202 = AXIS2_PLACEMENT_3D ( 'NONE', #187, #142, #65 ) ;
#203 = EDGE_CURVE ( 'NONE', #16, #279, #137, .T. ) ;
#204 = CARTESIAN_POINT ( 'NONE',  ( 0.000000000000000000, 1.250000000000000000, 0.000000000000000000 ) ) ;
#205 =( CONVERSION_BASED_UNIT ( 'INCH', #250 ) LENGTH_UNIT ( ) NAMED_UNIT ( #97 ) );
#206 = PRESENTATION_STYLE_ASSIGNMENT (( #305 ) ) ;
#207 =( NAMED_UNIT ( * ) SI_UNIT ( $, .STERADIAN. ) SOLID_ANGLE_UNIT ( ) );
#208 = STYLED_ITEM ( 'NONE', ( #108 ), #145 ) ;
#209 = CIRCLE ( 'NONE', #55, 0.1250000000000000000 ) ;
#210 = SURFACE_SIDE_STYLE ('',( #69 ) ) ;
#211 =( NAMED_UNIT ( * ) PLANE_ANGLE_UNIT ( ) SI_UNIT ( $, .RADIAN. ) );
#212 = DIRECTION ( 'NONE',  ( -0.000000000000000000, -1.000000000000000000, -0.000000000000000000 ) ) ;
#213 = ORIENTED_EDGE ( 'NONE', *, *, #89, .T. ) ;
#214 = ORIENTED_EDGE ( 'NONE', *, *, #274, .F. ) ;
#215 = DIRECTION ( 'NONE',  ( 0.000000000000000000, 0.000000000000000000, -1.000000000000000000 ) ) ;
#216 = ORIENTED_EDGE ( 'NONE', *, *, #261, .F. ) ;
#217 = VERTEX_POINT ( 'NONE', #136 ) ;
#218 = CARTESIAN_POINT ( 'NONE',  ( 1.530808498934191817E-17, 1.250000000000000000, 0.1250000000000000000 ) ) ;
#219 =( LENGTH_UNIT ( ) NAMED_UNIT ( * ) SI_UNIT ( $, .METRE. ) );
#220 = ADVANCED_FACE ( 'NONE', ( #157 ), #7, .F. ) ;
#221 = LENGTH_MEASURE_WITH_UNIT ( LENGTH_MEASURE( 0.02539999999999999897 ), #275 );
#222 =( GEOMETRIC_REPRESENTATION_CONTEXT ( 3 ) GLOBAL_UNCERTAINTY_ASSIGNED_CONTEXT ( ( #32 ) ) GLOBAL_UNIT_ASSIGNED_CONTEXT ( ( #205, #110, #153 ) ) REPRESENTATION_CONTEXT ( 'NONE', 'WORKASPACE' ) );
#223 = CLOSED_SHELL ( 'NONE', ( #198, #122, #145, #103 ) ) ;
#224 = DIRECTION ( 'NONE',  ( 0.000000000000000000, 0.000000000000000000, 1.000000000000000000 ) ) ;
#225 = AXIS2_PLACEMENT_3D ( 'NONE', #132, #232, #35 ) ;
#226 = ADVANCED_FACE ( 'NONE', ( #57 ), #56, .T. ) ;
#227 = EDGE_LOOP ( 'NONE', ( #91, #30 ) ) ;
#228 =( CONVERSION_BASED_UNIT ( 'INCH', #162 ) LENGTH_UNIT ( ) NAMED_UNIT ( #94 ) );
#229 = DIRECTION ( 'NONE',  ( -0.000000000000000000, -1.000000000000000000, -0.000000000000000000 ) ) ;
#230 = SURFACE_SIDE_STYLE ('',( #171 ) ) ;
#231 =( LENGTH_UNIT ( ) NAMED_UNIT ( * ) SI_UNIT ( $, .METRE. ) );
#232 = DIRECTION ( 'NONE',  ( -3.498990854706726443E-17, 1.000000000000000000, -0.000000000000000000 ) ) ;
#233 = MECHANICAL_DESIGN_GEOMETRIC_PRESENTATION_REPRESENTATION (  '', ( #148 ), #179 ) ;
#234 = AXIS2_PLACEMENT_3D ( 'NONE', #90, #15, #262 ) ;
#235 = DIRECTION ( 'NONE',  ( -1.000000000000000000, 0.000000000000000000, 0.000000000000000000 ) ) ;
#236 =( CONVERSION_BASED_UNIT ( 'INCH', #37 ) LENGTH_UNIT ( ) NAMED_UNIT ( #48 ) );
#237 = CARTESIAN_POINT ( 'NONE',  ( 0.000000000000000000, 1.250000000000000000, 0.000000000000000000 ) ) ;
#238 =( NAMED_UNIT ( * ) SI_UNIT ( $, .STERADIAN. ) SOLID_ANGLE_UNIT ( ) );
#239 = PRESENTATION_LAYER_ASSIGNMENT (  '', '', ( #120 ) ) ;
#240 = CARTESIAN_POINT ( 'NONE',  ( 0.000000000000000000, 0.000000000000000000, 0.000000000000000000 ) ) ;
#241 = CIRCLE ( 'NONE', #8, 0.1250000000000000278 ) ;
#242 = SURFACE_STYLE_USAGE ( .BOTH. , #146 ) ;
#243 = PRESENTATION_LAYER_ASSIGNMENT (  '', '', ( #67 ) ) ;
#244 = CARTESIAN_POINT ( 'NONE',  ( 0.1250000000000000278, 3.000000000000000444, 1.530808498934192125E-17 ) ) ;
#245 = EDGE_CURVE ( 'NONE', #217, #251, #241, .T. ) ;
#246 = DIRECTION ( 'NONE',  ( -0.000000000000000000, -1.000000000000000000, -0.000000000000000000 ) ) ;
#247 = DIRECTION ( 'NONE',  ( -0.000000000000000000, -1.000000000000000000, -0.000000000000000000 ) ) ;
#248 = ORIENTED_EDGE ( 'NONE', *, *, #274, .T. ) ;
#249 = CIRCLE ( 'NONE', #257, 0.1250000000000000000 ) ;
#250 = LENGTH_MEASURE_WITH_UNIT ( LENGTH_MEASURE( 0.02539999999999999897 ), #253 );
#251 = VERTEX_POINT ( 'NONE', #254 ) ;
#252 = APPLICATION_PROTOCOL_DEFINITION ( 'draft international standard', 'automotive_design', 1998, #276 ) ;
#253 =( LENGTH_UNIT ( ) NAMED_UNIT ( * ) SI_UNIT ( $, .METRE. ) );
#254 = CARTESIAN_POINT ( 'NONE',  ( 1.530808498934192125E-17, 0.000000000000000000, 0.1250000000000000555 ) ) ;
#255 =( NAMED_UNIT ( * ) SI_UNIT ( $, .STERADIAN. ) SOLID_ANGLE_UNIT ( ) );
#256 = ORIENTED_EDGE ( 'NONE', *, *, #245, .T. ) ;
#257 = AXIS2_PLACEMENT_3D ( 'NONE', #197, #23, #268 ) ;
#258 =( NAMED_UNIT ( * ) PLANE_ANGLE_UNIT ( ) SI_UNIT ( $, .RADIAN. ) );
#259 = ORIENTED_EDGE ( 'NONE', *, *, #288, .F. ) ;
#260 = DIRECTION ( 'NONE',  ( -3.498990854706726443E-17, 1.000000000000000000, -0.000000000000000000 ) ) ;
#261 = EDGE_CURVE ( 'NONE', #16, #144, #299, .T. ) ;
#262 = DIRECTION ( 'NONE',  ( -1.000000000000000000, 0.000000000000000000, 0.000000000000000000 ) ) ;
#263 = FILL_AREA_STYLE ('',( #149 ) ) ;
#264 = ORIENTED_EDGE ( 'NONE', *, *, #163, .F. ) ;
#265 = STYLED_ITEM ( 'NONE', ( #130 ), #122 ) ;
#266 = PRESENTATION_STYLE_ASSIGNMENT (( #242 ) ) ;
#267 = PRODUCT_DEFINITION_CONTEXT ( 'detailed design', #21, 'design' ) ;
#268 = DIRECTION ( 'NONE',  ( 0.000000000000000000, 0.000000000000000000, -1.000000000000000000 ) ) ;
#269 = FACE_OUTER_BOUND ( 'NONE', #105, .T. ) ;
#270 = AXIS2_PLACEMENT_3D ( 'NONE', #39, #92, #215 ) ;
#271 = CARTESIAN_POINT ( 'NONE',  ( 7.651835625825817976E-35, 1.250000000000000000, 0.000000000000000000 ) ) ;
#272 = UNCERTAINTY_MEASURE_WITH_UNIT (LENGTH_MEASURE( 1.000000000000000082E-05 ), #296, 'distance_accuracy_value', 'NONE');
#273 = SURFACE_STYLE_FILL_AREA ( #58 ) ;
#274 = EDGE_CURVE ( 'NONE', #131, #217, #83, .T. ) ;
#275 =( LENGTH_UNIT ( ) NAMED_UNIT ( * ) SI_UNIT ( $, .METRE. ) );
#276 = APPLICATION_CONTEXT ( 'automotive_design' ) ;
#277 = SHAPE_DEFINITION_REPRESENTATION ( #174, #281 ) ;
#278 = AXIS2_PLACEMENT_3D ( 'NONE', #113, #135, #106 ) ;
#279 = VERTEX_POINT ( 'NONE', #27 ) ;
#280 = AXIS2_PLACEMENT_3D ( 'NONE', #14, #112, #183 ) ;
#281 = ADVANCED_BREP_SHAPE_REPRESENTATION ( '44157', ( #101, #1, #6 ), #170 ) ;
#282 = CARTESIAN_POINT ( 'NONE',  ( 1.530808498934191817E-17, 0.000000000000000000, 0.1250000000000000278 ) ) ;
#283 = DIRECTION ( 'NONE',  ( -3.498990854706726443E-17, 1.000000000000000000, 0.000000000000000000 ) ) ;
#284 =( NAMED_UNIT ( * ) PLANE_ANGLE_UNIT ( ) SI_UNIT ( $, .RADIAN. ) );
#285 = FILL_AREA_STYLE_COLOUR ( '', #200 ) ;
#286 = PRESENTATION_LAYER_ASSIGNMENT (  '', '', ( #208 ) ) ;
#287 = CIRCLE ( 'NONE', #225, 0.1250000000000000555 ) ;
#288 = EDGE_CURVE ( 'NONE', #144, #60, #287, .T. ) ;
#289 = FACE_OUTER_BOUND ( 'NONE', #293, .T. ) ;
#290 = PRESENTATION_STYLE_ASSIGNMENT (( #70 ) ) ;
#291 = EDGE_CURVE ( 'NONE', #251, #217, #100, .T. ) ;
#292 = FILL_AREA_STYLE_COLOUR ( '', #18 ) ;
#293 = EDGE_LOOP ( 'NONE', ( #256, #192 ) ) ;
#294 = DIRECTION ( 'NONE',  ( 0.000000000000000000, 0.000000000000000000, -1.000000000000000000 ) ) ;
#295 =( NAMED_UNIT ( * ) PLANE_ANGLE_UNIT ( ) SI_UNIT ( $, .RADIAN. ) );
#296 =( CONVERSION_BASED_UNIT ( 'INCH', #221 ) LENGTH_UNIT ( ) NAMED_UNIT ( #147 ) );
#297 = CARTESIAN_POINT ( 'NONE',  ( 0.000000000000000000, 0.000000000000000000, 0.000000000000000000 ) ) ;
#298 = ORIENTED_EDGE ( 'NONE', *, *, #139, .T. ) ;
#299 = LINE ( 'NONE', #13, #180 ) ;
#300 =( NAMED_UNIT ( * ) PLANE_ANGLE_UNIT ( ) SI_UNIT ( $, .RADIAN. ) );
#301 = CIRCLE ( 'NONE', #129, 0.1250000000000000000 ) ;
#302 =( LENGTH_UNIT ( ) NAMED_UNIT ( * ) SI_UNIT ( $, .METRE. ) );
#303 = ORIENTED_EDGE ( 'NONE', *, *, #291, .F. ) ;
#304 = ORIENTED_EDGE ( 'NONE', *, *, #139, .F. ) ;
#305 = SURFACE_STYLE_USAGE ( .BOTH. , #230 ) ;
#306 = PRESENTATION_LAYER_ASSIGNMENT (  '', '', ( #265 ) ) ;
#307 =( CONVERSION_BASED_UNIT ( 'INCH', #173 ) LENGTH_UNIT ( ) NAMED_UNIT ( #123 ) );
#308 = FILL_AREA_STYLE_COLOUR ( '', #95 ) ;
#309 =( CONVERSION_BASED_UNIT ( 'INCH', #121 ) LENGTH_UNIT ( ) NAMED_UNIT ( #125 ) );
ENDSEC;
END-ISO-10303-21;
