ISO-10303-21;
HEADER;
FILE_DESCRIPTION (( 'STEP AP214' ),
    '1' );
FILE_NAME ('Micro_AEMM-040-2.STEP',
    '2022-03-15T14:25:04',
    ( '' ),
    ( '' ),
    'SwSTEP 2.0',
    'SolidWorks 2022',
    '' );
FILE_SCHEMA (( 'AUTOMOTIVE_DESIGN' ));
ENDSEC;

DATA;
#1 = DIRECTION ( 'NONE',  ( -0.000000000000000000, -0.000000000000000000, -1.000000000000000000 ) ) ;
#2 = VERTEX_POINT ( 'NONE', #81 ) ;
#3 = SURFACE_STYLE_FILL_AREA ( #255 ) ;
#4 = EDGE_LOOP ( 'NONE', ( #285, #241 ) ) ;
#5 = CARTESIAN_POINT ( 'NONE',  ( -0.07866125999999994123, 1.204876468615957931E-17, 0.4330709999999999837 ) ) ;
#6 = AXIS2_PLACEMENT_3D ( 'NONE', #284, #256, #132 ) ;
#7 = EDGE_CURVE ( 'NONE', #78, #247, #234, .T. ) ;
#8 = LINE ( 'NONE', #159, #158 ) ;
#9 = CARTESIAN_POINT ( 'NONE',  ( 0.1031100000000002570, 1.262733314600838667E-17, 2.244094000000000033 ) ) ;
#10 = LINE ( 'NONE', #281, #242 ) ;
#11 = DIRECTION ( 'NONE',  ( -1.224646799147353207E-16, -0.000000000000000000, -1.000000000000000000 ) ) ;
#12 = ADVANCED_BREP_SHAPE_REPRESENTATION ( 'Micro_AEMM-040-2', ( #218, #297 ), #91 ) ;
#13 = DIRECTION ( 'NONE',  ( -1.000000000000000000, 0.000000000000000000, 0.000000000000000000 ) ) ;
#14 = VECTOR ( 'NONE', #94, 39.37007874015748854 ) ;
#15 = LINE ( 'NONE', #16, #243 ) ;
#16 = CARTESIAN_POINT ( 'NONE',  ( -0.1181100000000000066, 0.000000000000000000, 2.244094000000000033 ) ) ;
#17 = AXIS2_PLACEMENT_3D ( 'NONE', #298, #282, #93 ) ;
#18 =( NAMED_UNIT ( * ) SI_UNIT ( $, .STERADIAN. ) SOLID_ANGLE_UNIT ( ) );
#19 = PRODUCT_DEFINITION_SHAPE ( 'NONE', 'NONE',  #191 ) ;
#20 = APPLICATION_PROTOCOL_DEFINITION ( 'draft international standard', 'automotive_design', 1998, #95 ) ;
#21 = FILL_AREA_STYLE ('',( #179 ) ) ;
#22 = ADVANCED_FACE ( 'NONE', ( #55 ), #148, .T. ) ;
#23 = AXIS2_PLACEMENT_3D ( 'NONE', #217, #136, #13 ) ;
#24 = FACE_OUTER_BOUND ( 'NONE', #163, .T. ) ;
#25 = PLANE ( 'NONE',  #56 ) ;
#26 = PLANE ( 'NONE',  #17 ) ;
#27 = EDGE_LOOP ( 'NONE', ( #35, #195, #206, #197 ) ) ;
#28 = SURFACE_STYLE_USAGE ( .BOTH. , #275 ) ;
#29 = EDGE_LOOP ( 'NONE', ( #208, #122, #75, #127 ) ) ;
#30 = DIRECTION ( 'NONE',  ( 0.000000000000000000, 0.000000000000000000, 1.000000000000000000 ) ) ;
#31 =( LENGTH_UNIT ( ) NAMED_UNIT ( * ) SI_UNIT ( $, .METRE. ) );
#32 = DIRECTION ( 'NONE',  ( -1.000000000000000000, 0.000000000000000000, 1.224646799147352961E-16 ) ) ;
#33 = MECHANICAL_DESIGN_GEOMETRIC_PRESENTATION_REPRESENTATION (  '', ( #214 ), #87 ) ;
#34 = CARTESIAN_POINT ( 'NONE',  ( 0.07866126000000003837, 0.000000000000000000, 0.4330709999999999837 ) ) ;
#35 = ORIENTED_EDGE ( 'NONE', *, *, #7, .F. ) ;
#36 = CONICAL_SURFACE ( 'NONE', #272, 0.07866125999999999674, 0.1745329251994338915 ) ;
#37 = DIRECTION ( 'NONE',  ( -1.000000000000000000, 0.000000000000000000, 0.000000000000000000 ) ) ;
#38 = EDGE_CURVE ( 'NONE', #161, #251, #138, .T. ) ;
#39 =( NAMED_UNIT ( * ) PLANE_ANGLE_UNIT ( ) SI_UNIT ( $, .RADIAN. ) );
#40 = CONICAL_SURFACE ( 'NONE', #109, 0.1031100000000002570, 0.7853981633974318477 ) ;
#41 = VERTEX_POINT ( 'NONE', #5 ) ;
#42 = DIRECTION ( 'NONE',  ( 1.224646799147353207E-16, 0.000000000000000000, 1.000000000000000000 ) ) ;
#43 = AXIS2_PLACEMENT_3D ( 'NONE', #232, #137, #103 ) ;
#44 = CARTESIAN_POINT ( 'NONE',  ( 8.043430235321561285E-17, 0.000000000000000000, 0.6567959219688248584 ) ) ;
#45 = PRODUCT_DEFINITION_CONTEXT ( 'detailed design', #200, 'design' ) ;
#46 = DIRECTION ( 'NONE',  ( 1.224646799147353207E-16, 0.000000000000000000, 1.000000000000000000 ) ) ;
#47 = EDGE_CURVE ( 'NONE', #198, #296, #211, .T. ) ;
#48 = ORIENTED_EDGE ( 'NONE', *, *, #258, .T. ) ;
#49 = ORIENTED_EDGE ( 'NONE', *, *, #263, .F. ) ;
#50 = FACE_OUTER_BOUND ( 'NONE', #69, .T. ) ;
#51 = LINE ( 'NONE', #9, #14 ) ;
#52 = ORIENTED_EDGE ( 'NONE', *, *, #117, .F. ) ;
#53 = LENGTH_MEASURE_WITH_UNIT ( LENGTH_MEASURE( 0.02539999999999999897 ), #31 );
#54 = COLOUR_RGB ( '',0.7921568627450980005, 0.8196078431372548767, 0.9333333333333333481 ) ;
#55 = FACE_OUTER_BOUND ( 'NONE', #27, .T. ) ;
#56 = AXIS2_PLACEMENT_3D ( 'NONE', #280, #121, #233 ) ;
#57 = DIMENSIONAL_EXPONENTS ( 1.000000000000000000, 0.000000000000000000, 0.000000000000000000, 0.000000000000000000, 0.000000000000000000, 0.000000000000000000, 0.000000000000000000 ) ;
#58 = DIMENSIONAL_EXPONENTS ( 1.000000000000000000, 0.000000000000000000, 0.000000000000000000, 0.000000000000000000, 0.000000000000000000, 0.000000000000000000, 0.000000000000000000 ) ;
#59 = DIRECTION ( 'NONE',  ( -0.000000000000000000, -0.000000000000000000, -1.000000000000000000 ) ) ;
#60 = EDGE_CURVE ( 'NONE', #78, #296, #10, .T. ) ;
#61 = CARTESIAN_POINT ( 'NONE',  ( 0.1181100000000000899, 1.446430334472940009E-17, 0.6567959219688248584 ) ) ;
#62 = LENGTH_MEASURE_WITH_UNIT ( LENGTH_MEASURE( 0.02539999999999999897 ), #112 );
#63 =( LENGTH_UNIT ( ) NAMED_UNIT ( * ) SI_UNIT ( $, .METRE. ) );
#64 = VECTOR ( 'NONE', #193, 39.37007874015748143 ) ;
#65 = AXIS2_PLACEMENT_3D ( 'NONE', #44, #133, #215 ) ;
#66 = CIRCLE ( 'NONE', #236, 0.1181100000000000066 ) ;
#67 = CIRCLE ( 'NONE', #154, 0.07866125999999999674 ) ;
#68 = DIRECTION ( 'NONE',  ( -1.224646799147353207E-16, -0.000000000000000000, -1.000000000000000000 ) ) ;
#69 = EDGE_LOOP ( 'NONE', ( #254, #257, #147, #182 ) ) ;
#70 = DIRECTION ( 'NONE',  ( -0.1736481776669311916, 2.126576849575783316E-17, 0.9848077530122080203 ) ) ;
#71 = VERTEX_POINT ( 'NONE', #165 ) ;
#72 = ADVANCED_FACE ( 'NONE', ( #50 ), #205, .T. ) ;
#73 = CYLINDRICAL_SURFACE ( 'NONE', #221, 0.1181100000000000066 ) ;
#74 = AXIS2_PLACEMENT_3D ( 'NONE', #188, #30, #125 ) ;
#75 = ORIENTED_EDGE ( 'NONE', *, *, #60, .T. ) ;
#76 = DIRECTION ( 'NONE',  ( 0.000000000000000000, 0.000000000000000000, -1.000000000000000000 ) ) ;
#77 = FACE_OUTER_BOUND ( 'NONE', #4, .T. ) ;
#78 = VERTEX_POINT ( 'NONE', #34 ) ;
#79 = DIRECTION ( 'NONE',  ( 0.1736481776669313859, 0.000000000000000000, 0.9848077530122077983 ) ) ;
#80 = FACE_OUTER_BOUND ( 'NONE', #116, .T. ) ;
#81 = CARTESIAN_POINT ( 'NONE',  ( -0.1181099999999999234, 0.000000000000000000, 0.6567959219688248584 ) ) ;
#82 = DIRECTION ( 'NONE',  ( 0.000000000000000000, 0.000000000000000000, -1.000000000000000000 ) ) ;
#83 = CARTESIAN_POINT ( 'NONE',  ( 0.000000000000000000, 0.000000000000000000, 2.244094000000000033 ) ) ;
#84 = CONICAL_SURFACE ( 'NONE', #209, 0.07866125999999999674, 0.1745329251994338915 ) ;
#85 = EDGE_CURVE ( 'NONE', #41, #2, #199, .T. ) ;
#86 = APPLICATION_PROTOCOL_DEFINITION ( 'draft international standard', 'automotive_design', 1998, #200 ) ;
#87 =( GEOMETRIC_REPRESENTATION_CONTEXT ( 3 ) GLOBAL_UNCERTAINTY_ASSIGNED_CONTEXT ( ( #183 ) ) GLOBAL_UNIT_ASSIGNED_CONTEXT ( ( #145, #262, #220 ) ) REPRESENTATION_CONTEXT ( 'NONE', 'WORKASPACE' ) );
#88 = DIRECTION ( 'NONE',  ( 1.000000000000000000, 0.000000000000000000, 0.000000000000000000 ) ) ;
#89 = SURFACE_SIDE_STYLE ('',( #239 ) ) ;
#90 = EDGE_CURVE ( 'NONE', #296, #2, #149, .T. ) ;
#91 =( GEOMETRIC_REPRESENTATION_CONTEXT ( 3 ) GLOBAL_UNCERTAINTY_ASSIGNED_CONTEXT ( ( #250 ) ) GLOBAL_UNIT_ASSIGNED_CONTEXT ( ( #151, #134, #18 ) ) REPRESENTATION_CONTEXT ( 'NONE', 'WORKASPACE' ) );
#92 = ORIENTED_EDGE ( 'NONE', *, *, #47, .F. ) ;
#93 = DIRECTION ( 'NONE',  ( 1.000000000000000000, 0.000000000000000000, -0.000000000000000000 ) ) ;
#94 = DIRECTION ( 'NONE',  ( 0.7071067811865358044, 8.659560562354788645E-17, -0.7071067811865590080 ) ) ;
#95 = APPLICATION_CONTEXT ( 'automotive_design' ) ;
#96 = DIRECTION ( 'NONE',  ( 0.000000000000000000, 0.000000000000000000, -1.000000000000000000 ) ) ;
#97 = FACE_OUTER_BOUND ( 'NONE', #274, .T. ) ;
#98 = ORIENTED_EDGE ( 'NONE', *, *, #38, .T. ) ;
#99 = CARTESIAN_POINT ( 'NONE',  ( 5.303590139535433909E-17, 0.000000000000000000, 0.4330709999999999837 ) ) ;
#100 = ORIENTED_EDGE ( 'NONE', *, *, #288, .T. ) ;
#101 = PRODUCT_DEFINITION_FORMATION_WITH_SPECIFIED_SOURCE ( 'ANY', '', #111, .NOT_KNOWN. ) ;
#102 = CARTESIAN_POINT ( 'NONE',  ( 0.1181100000000000066, 1.446430334472939084E-17, 2.244094000000000033 ) ) ;
#103 = DIRECTION ( 'NONE',  ( -1.000000000000000000, 0.000000000000000000, 1.224646799147352961E-16 ) ) ;
#104 = ORIENTED_EDGE ( 'NONE', *, *, #292, .T. ) ;
#105 = CARTESIAN_POINT ( 'NONE',  ( 0.000000000000000000, 0.000000000000000000, 0.000000000000000000 ) ) ;
#106 = CARTESIAN_POINT ( 'NONE',  ( 0.07866125999999999674, 9.633226027589770864E-18, -9.633226027589770864E-18 ) ) ;
#107 = CARTESIAN_POINT ( 'NONE',  ( 0.1031100000000002570, 1.354581824536888722E-17, 2.244094000000000033 ) ) ;
#108 = CYLINDRICAL_SURFACE ( 'NONE', #180, 0.07866125999999999674 ) ;
#109 = AXIS2_PLACEMENT_3D ( 'NONE', #265, #287, #264 ) ;
#110 = EDGE_CURVE ( 'NONE', #247, #71, #190, .T. ) ;
#111 = PRODUCT ( 'Micro_AEMM-040-2', 'Micro_AEMM-040-2', '', ( #269 ) ) ;
#112 =( LENGTH_UNIT ( ) NAMED_UNIT ( * ) SI_UNIT ( $, .METRE. ) );
#113 = AXIS2_PLACEMENT_3D ( 'NONE', #131, #1, #212 ) ;
#114 = AXIS2_PLACEMENT_3D ( 'NONE', #261, #76, #139 ) ;
#115 = AXIS2_PLACEMENT_3D ( 'NONE', #83, #175, #171 ) ;
#116 = EDGE_LOOP ( 'NONE', ( #141, #48, #244, #156 ) ) ;
#117 = EDGE_CURVE ( 'NONE', #198, #228, #66, .T. ) ;
#118 = CARTESIAN_POINT ( 'NONE',  ( 0.000000000000000000, 0.000000000000000000, 2.244094000000000033 ) ) ;
#119 = CIRCLE ( 'NONE', #23, 0.07866125999999999674 ) ;
#120 = DIRECTION ( 'NONE',  ( -1.000000000000000000, 0.000000000000000000, 0.000000000000000000 ) ) ;
#121 = DIRECTION ( 'NONE',  ( 0.000000000000000000, 0.000000000000000000, 1.000000000000000000 ) ) ;
#122 = ORIENTED_EDGE ( 'NONE', *, *, #271, .F. ) ;
#123 = PRESENTATION_STYLE_ASSIGNMENT (( #28 ) ) ;
#124 = EDGE_LOOP ( 'NONE', ( #167, #210, #140, #52 ) ) ;
#125 = DIRECTION ( 'NONE',  ( 1.000000000000000000, 0.000000000000000000, 0.000000000000000000 ) ) ;
#126 = AXIS2_PLACEMENT_3D ( 'NONE', #186, #11, #169 ) ;
#127 = ORIENTED_EDGE ( 'NONE', *, *, #90, .T. ) ;
#128 = COLOUR_RGB ( '',0.7921568627450980005, 0.8196078431372548767, 0.9333333333333333481 ) ;
#129 = CARTESIAN_POINT ( 'NONE',  ( 0.000000000000000000, 0.000000000000000000, 0.000000000000000000 ) ) ;
#130 = ADVANCED_FACE ( 'NONE', ( #80 ), #289, .T. ) ;
#131 = CARTESIAN_POINT ( 'NONE',  ( 0.000000000000000000, 0.000000000000000000, 2.244094000000000033 ) ) ;
#132 = DIRECTION ( 'NONE',  ( -1.000000000000000000, 0.000000000000000000, 1.224646799147352961E-16 ) ) ;
#133 = DIRECTION ( 'NONE',  ( -1.224646799147353207E-16, -0.000000000000000000, -1.000000000000000000 ) ) ;
#134 =( NAMED_UNIT ( * ) PLANE_ANGLE_UNIT ( ) SI_UNIT ( $, .RADIAN. ) );
#135 = CIRCLE ( 'NONE', #114, 0.1181100000000000066 ) ;
#136 = DIRECTION ( 'NONE',  ( -1.224646799147353207E-16, -0.000000000000000000, -1.000000000000000000 ) ) ;
#137 = DIRECTION ( 'NONE',  ( -1.224646799147353207E-16, -0.000000000000000000, -1.000000000000000000 ) ) ;
#138 = CIRCLE ( 'NONE', #74, 0.1031100000000002570 ) ;
#139 = DIRECTION ( 'NONE',  ( 1.000000000000000000, 0.000000000000000000, 0.000000000000000000 ) ) ;
#140 = ORIENTED_EDGE ( 'NONE', *, *, #189, .T. ) ;
#141 = ORIENTED_EDGE ( 'NONE', *, *, #38, .F. ) ;
#142 = ORIENTED_EDGE ( 'NONE', *, *, #60, .F. ) ;
#143 = ORIENTED_EDGE ( 'NONE', *, *, #283, .T. ) ;
#144 = PRODUCT_RELATED_PRODUCT_CATEGORY ( 'part', '', ( #111 ) ) ;
#145 =( CONVERSION_BASED_UNIT ( 'INCH', #53 ) LENGTH_UNIT ( ) NAMED_UNIT ( #57 ) );
#146 = DIRECTION ( 'NONE',  ( -1.000000000000000000, 0.000000000000000000, 1.224646799147352961E-16 ) ) ;
#147 = ORIENTED_EDGE ( 'NONE', *, *, #267, .F. ) ;
#148 = CYLINDRICAL_SURFACE ( 'NONE', #201, 0.07866125999999999674 ) ;
#149 = CIRCLE ( 'NONE', #126, 0.1181100000000000066 ) ;
#150 = PRESENTATION_LAYER_ASSIGNMENT (  '', '', ( #214 ) ) ;
#151 =( CONVERSION_BASED_UNIT ( 'INCH', #62 ) LENGTH_UNIT ( ) NAMED_UNIT ( #58 ) );
#152 = SHAPE_DEFINITION_REPRESENTATION ( #19, #12 ) ;
#153 = EDGE_CURVE ( 'NONE', #228, #198, #135, .T. ) ;
#154 = AXIS2_PLACEMENT_3D ( 'NONE', #238, #170, #37 ) ;
#155 = CARTESIAN_POINT ( 'NONE',  ( 0.07866125999999999674, 9.633226027589770864E-18, 0.000000000000000000 ) ) ;
#156 = ORIENTED_EDGE ( 'NONE', *, *, #189, .F. ) ;
#157 = FACE_OUTER_BOUND ( 'NONE', #29, .T. ) ;
#158 = VECTOR ( 'NONE', #194, 39.37007874015748854 ) ;
#159 = CARTESIAN_POINT ( 'NONE',  ( -0.1031100000000002570, 0.000000000000000000, 2.244094000000000033 ) ) ;
#160 = ORIENTED_EDGE ( 'NONE', *, *, #267, .T. ) ;
#161 = VERTEX_POINT ( 'NONE', #107 ) ;
#162 = FACE_OUTER_BOUND ( 'NONE', #185, .T. ) ;
#163 = EDGE_LOOP ( 'NONE', ( #92, #203, #104, #187 ) ) ;
#164 = DIMENSIONAL_EXPONENTS ( 1.000000000000000000, 0.000000000000000000, 0.000000000000000000, 0.000000000000000000, 0.000000000000000000, 0.000000000000000000, 0.000000000000000000 ) ;
#165 = CARTESIAN_POINT ( 'NONE',  ( -0.07866125999999999674, 0.000000000000000000, 1.926645205517954173E-17 ) ) ;
#166 = DIRECTION ( 'NONE',  ( 1.000000000000000000, 0.000000000000000000, 0.000000000000000000 ) ) ;
#167 = ORIENTED_EDGE ( 'NONE', *, *, #258, .F. ) ;
#168 = EDGE_LOOP ( 'NONE', ( #143, #98 ) ) ;
#169 = DIRECTION ( 'NONE',  ( 1.000000000000000000, 0.000000000000000000, 0.000000000000000000 ) ) ;
#170 = DIRECTION ( 'NONE',  ( -1.224646799147353207E-16, -0.000000000000000000, -1.000000000000000000 ) ) ;
#171 = DIRECTION ( 'NONE',  ( 1.000000000000000000, 0.000000000000000000, 0.000000000000000000 ) ) ;
#172 = CLOSED_SHELL ( 'NONE', ( #235, #174, #130, #72, #181, #207, #295, #216, #22, #223 ) ) ;
#173 = VECTOR ( 'NONE', #246, 39.37007874015748143 ) ;
#174 = ADVANCED_FACE ( 'NONE', ( #162 ), #36, .T. ) ;
#175 = DIRECTION ( 'NONE',  ( 0.000000000000000000, 0.000000000000000000, 1.000000000000000000 ) ) ;
#176 = PRESENTATION_STYLE_ASSIGNMENT (( #266 ) ) ;
#177 = VECTOR ( 'NONE', #70, 39.37007874015747433 ) ;
#178 = UNCERTAINTY_MEASURE_WITH_UNIT (LENGTH_MEASURE( 1.000000000000000082E-05 ), #268, 'distance_accuracy_value', 'NONE');
#179 = FILL_AREA_STYLE_COLOUR ( '', #128 ) ;
#180 = AXIS2_PLACEMENT_3D ( 'NONE', #105, #68, #146 ) ;
#181 = ADVANCED_FACE ( 'NONE', ( #24 ), #73, .T. ) ;
#182 = ORIENTED_EDGE ( 'NONE', *, *, #292, .F. ) ;
#183 = UNCERTAINTY_MEASURE_WITH_UNIT (LENGTH_MEASURE( 1.000000000000000082E-05 ), #145, 'distance_accuracy_value', 'NONE');
#184 = DIRECTION ( 'NONE',  ( 1.000000000000000000, 0.000000000000000000, 0.000000000000000000 ) ) ;
#185 = EDGE_LOOP ( 'NONE', ( #231, #225, #160, #142 ) ) ;
#186 = CARTESIAN_POINT ( 'NONE',  ( 8.043430235321561285E-17, 0.000000000000000000, 0.6567959219688248584 ) ) ;
#187 = ORIENTED_EDGE ( 'NONE', *, *, #90, .F. ) ;
#188 = CARTESIAN_POINT ( 'NONE',  ( 0.000000000000000000, 0.000000000000000000, 2.244094000000000033 ) ) ;
#189 = EDGE_CURVE ( 'NONE', #251, #228, #8, .T. ) ;
#190 = CIRCLE ( 'NONE', #43, 0.07866125999999999674 ) ;
#191 = PRODUCT_DEFINITION ( 'UNKNOWN', '', #101, #45 ) ;
#192 = FILL_AREA_STYLE_COLOUR ( '', #54 ) ;
#193 = DIRECTION ( 'NONE',  ( -0.000000000000000000, -0.000000000000000000, -1.000000000000000000 ) ) ;
#194 = DIRECTION ( 'NONE',  ( -0.7071067811865358044, 0.000000000000000000, -0.7071067811865590080 ) ) ;
#195 = ORIENTED_EDGE ( 'NONE', *, *, #271, .T. ) ;
#196 = LINE ( 'NONE', #276, #173 ) ;
#197 = ORIENTED_EDGE ( 'NONE', *, *, #110, .F. ) ;
#198 = VERTEX_POINT ( 'NONE', #245 ) ;
#199 = LINE ( 'NONE', #230, #177 ) ;
#200 = APPLICATION_CONTEXT ( 'automotive_design' ) ;
#201 = AXIS2_PLACEMENT_3D ( 'NONE', #129, #229, #32 ) ;
#202 = DIRECTION ( 'NONE',  ( 0.000000000000000000, 0.000000000000000000, 1.000000000000000000 ) ) ;
#203 = ORIENTED_EDGE ( 'NONE', *, *, #117, .T. ) ;
#204 = CARTESIAN_POINT ( 'NONE',  ( 0.000000000000000000, 0.000000000000000000, 2.244094000000000033 ) ) ;
#205 = CYLINDRICAL_SURFACE ( 'NONE', #113, 0.1181100000000000066 ) ;
#206 = ORIENTED_EDGE ( 'NONE', *, *, #263, .T. ) ;
#207 = ADVANCED_FACE ( 'NONE', ( #277 ), #26, .T. ) ;
#208 = ORIENTED_EDGE ( 'NONE', *, *, #85, .F. ) ;
#209 = AXIS2_PLACEMENT_3D ( 'NONE', #99, #46, #184 ) ;
#210 = ORIENTED_EDGE ( 'NONE', *, *, #283, .F. ) ;
#211 = LINE ( 'NONE', #102, #64 ) ;
#212 = DIRECTION ( 'NONE',  ( -1.000000000000000000, 0.000000000000000000, 0.000000000000000000 ) ) ;
#213 = VECTOR ( 'NONE', #259, 39.37007874015748143 ) ;
#214 = STYLED_ITEM ( 'NONE', ( #123 ), #218 ) ;
#215 = DIRECTION ( 'NONE',  ( 1.000000000000000000, 0.000000000000000000, 0.000000000000000000 ) ) ;
#216 = ADVANCED_FACE ( 'NONE', ( #157 ), #84, .T. ) ;
#217 = CARTESIAN_POINT ( 'NONE',  ( 5.303590139535433909E-17, 0.000000000000000000, 0.4330709999999999837 ) ) ;
#218 = MANIFOLD_SOLID_BREP ( 'Cut-Revolve1', #172 ) ;
#219 = CIRCLE ( 'NONE', #65, 0.1181100000000000066 ) ;
#220 =( NAMED_UNIT ( * ) SI_UNIT ( $, .STERADIAN. ) SOLID_ANGLE_UNIT ( ) );
#221 = AXIS2_PLACEMENT_3D ( 'NONE', #118, #252, #226 ) ;
#222 = CIRCLE ( 'NONE', #6, 0.07866125999999999674 ) ;
#223 = ADVANCED_FACE ( 'NONE', ( #77 ), #25, .F. ) ;
#224 = DIRECTION ( 'NONE',  ( 1.000000000000000000, 0.000000000000000000, 0.000000000000000000 ) ) ;
#225 = ORIENTED_EDGE ( 'NONE', *, *, #85, .T. ) ;
#226 = DIRECTION ( 'NONE',  ( -1.000000000000000000, 0.000000000000000000, 0.000000000000000000 ) ) ;
#227 = EDGE_CURVE ( 'NONE', #71, #247, #222, .T. ) ;
#228 = VERTEX_POINT ( 'NONE', #299 ) ;
#229 = DIRECTION ( 'NONE',  ( -1.224646799147353207E-16, -0.000000000000000000, -1.000000000000000000 ) ) ;
#230 = CARTESIAN_POINT ( 'NONE',  ( -0.07866125999999994123, 9.633226027589770864E-18, 0.4330709999999999837 ) ) ;
#231 = ORIENTED_EDGE ( 'NONE', *, *, #288, .F. ) ;
#232 = CARTESIAN_POINT ( 'NONE',  ( 1.179729942015078748E-33, 0.000000000000000000, 9.633226027589770864E-18 ) ) ;
#233 = DIRECTION ( 'NONE',  ( 1.000000000000000000, 0.000000000000000000, -0.000000000000000000 ) ) ;
#234 = LINE ( 'NONE', #106, #213 ) ;
#235 = ADVANCED_FACE ( 'NONE', ( #97 ), #108, .T. ) ;
#236 = AXIS2_PLACEMENT_3D ( 'NONE', #249, #82, #166 ) ;
#237 = MECHANICAL_DESIGN_GEOMETRIC_PRESENTATION_REPRESENTATION (  '', ( #260 ), #273 ) ;
#238 = CARTESIAN_POINT ( 'NONE',  ( 5.303590139535433909E-17, 0.000000000000000000, 0.4330709999999999837 ) ) ;
#239 = SURFACE_STYLE_FILL_AREA ( #21 ) ;
#240 =( NAMED_UNIT ( * ) SI_UNIT ( $, .STERADIAN. ) SOLID_ANGLE_UNIT ( ) );
#241 = ORIENTED_EDGE ( 'NONE', *, *, #110, .T. ) ;
#242 = VECTOR ( 'NONE', #79, 39.37007874015748143 ) ;
#243 = VECTOR ( 'NONE', #59, 39.37007874015748143 ) ;
#244 = ORIENTED_EDGE ( 'NONE', *, *, #153, .F. ) ;
#245 = CARTESIAN_POINT ( 'NONE',  ( 0.1181100000000000066, 1.446430334472939084E-17, 2.229093999999999465 ) ) ;
#246 = DIRECTION ( 'NONE',  ( -1.224646799147353207E-16, -0.000000000000000000, -1.000000000000000000 ) ) ;
#247 = VERTEX_POINT ( 'NONE', #155 ) ;
#248 = AXIS2_PLACEMENT_3D ( 'NONE', #204, #96, #120 ) ;
#249 = CARTESIAN_POINT ( 'NONE',  ( 0.000000000000000000, 0.000000000000000000, 2.229093999999999465 ) ) ;
#250 = UNCERTAINTY_MEASURE_WITH_UNIT (LENGTH_MEASURE( 1.000000000000000082E-05 ), #151, 'distance_accuracy_value', 'NONE');
#251 = VERTEX_POINT ( 'NONE', #278 ) ;
#252 = DIRECTION ( 'NONE',  ( -0.000000000000000000, -0.000000000000000000, -1.000000000000000000 ) ) ;
#253 = ORIENTED_EDGE ( 'NONE', *, *, #227, .F. ) ;
#254 = ORIENTED_EDGE ( 'NONE', *, *, #153, .T. ) ;
#255 = FILL_AREA_STYLE ('',( #192 ) ) ;
#256 = DIRECTION ( 'NONE',  ( -1.224646799147353207E-16, -0.000000000000000000, -1.000000000000000000 ) ) ;
#257 = ORIENTED_EDGE ( 'NONE', *, *, #47, .T. ) ;
#258 = EDGE_CURVE ( 'NONE', #161, #198, #51, .T. ) ;
#259 = DIRECTION ( 'NONE',  ( -1.224646799147353207E-16, -0.000000000000000000, -1.000000000000000000 ) ) ;
#260 = STYLED_ITEM ( 'NONE', ( #176 ), #12 ) ;
#261 = CARTESIAN_POINT ( 'NONE',  ( 0.000000000000000000, 0.000000000000000000, 2.229093999999999465 ) ) ;
#262 =( NAMED_UNIT ( * ) PLANE_ANGLE_UNIT ( ) SI_UNIT ( $, .RADIAN. ) );
#263 = EDGE_CURVE ( 'NONE', #41, #71, #196, .T. ) ;
#264 = DIRECTION ( 'NONE',  ( -1.000000000000000000, 0.000000000000000000, 0.000000000000000000 ) ) ;
#265 = CARTESIAN_POINT ( 'NONE',  ( 0.000000000000000000, 0.000000000000000000, 2.244094000000000033 ) ) ;
#266 = SURFACE_STYLE_USAGE ( .BOTH. , #89 ) ;
#267 = EDGE_CURVE ( 'NONE', #2, #296, #219, .T. ) ;
#268 =( CONVERSION_BASED_UNIT ( 'INCH', #293 ) LENGTH_UNIT ( ) NAMED_UNIT ( #164 ) );
#269 = PRODUCT_CONTEXT ( 'NONE', #95, 'mechanical' ) ;
#270 = CIRCLE ( 'NONE', #115, 0.1031100000000002570 ) ;
#271 = EDGE_CURVE ( 'NONE', #78, #41, #67, .T. ) ;
#272 = AXIS2_PLACEMENT_3D ( 'NONE', #286, #42, #224 ) ;
#273 =( GEOMETRIC_REPRESENTATION_CONTEXT ( 3 ) GLOBAL_UNCERTAINTY_ASSIGNED_CONTEXT ( ( #178 ) ) GLOBAL_UNIT_ASSIGNED_CONTEXT ( ( #268, #39, #240 ) ) REPRESENTATION_CONTEXT ( 'NONE', 'WORKASPACE' ) );
#274 = EDGE_LOOP ( 'NONE', ( #100, #279, #253, #49 ) ) ;
#275 = SURFACE_SIDE_STYLE ('',( #3 ) ) ;
#276 = CARTESIAN_POINT ( 'NONE',  ( -0.07866125999999999674, 0.000000000000000000, 9.633226027589770864E-18 ) ) ;
#277 = FACE_OUTER_BOUND ( 'NONE', #168, .T. ) ;
#278 = CARTESIAN_POINT ( 'NONE',  ( -0.1031100000000002570, 0.000000000000000000, 2.244094000000000033 ) ) ;
#279 = ORIENTED_EDGE ( 'NONE', *, *, #7, .T. ) ;
#280 = CARTESIAN_POINT ( 'NONE',  ( 0.000000000000000000, 0.000000000000000000, 0.000000000000000000 ) ) ;
#281 = CARTESIAN_POINT ( 'NONE',  ( 0.07866126000000003837, 0.000000000000000000, 0.4330709999999999837 ) ) ;
#282 = DIRECTION ( 'NONE',  ( 0.000000000000000000, 0.000000000000000000, 1.000000000000000000 ) ) ;
#283 = EDGE_CURVE ( 'NONE', #251, #161, #270, .T. ) ;
#284 = CARTESIAN_POINT ( 'NONE',  ( 1.179729942015078748E-33, 0.000000000000000000, 9.633226027589770864E-18 ) ) ;
#285 = ORIENTED_EDGE ( 'NONE', *, *, #227, .T. ) ;
#286 = CARTESIAN_POINT ( 'NONE',  ( 5.303590139535433909E-17, 0.000000000000000000, 0.4330709999999999837 ) ) ;
#287 = DIRECTION ( 'NONE',  ( 0.000000000000000000, 0.000000000000000000, -1.000000000000000000 ) ) ;
#288 = EDGE_CURVE ( 'NONE', #41, #78, #119, .T. ) ;
#289 = CONICAL_SURFACE ( 'NONE', #248, 0.1031100000000002570, 0.7853981633974318477 ) ;
#290 = PRESENTATION_LAYER_ASSIGNMENT (  '', '', ( #260 ) ) ;
#291 = FACE_OUTER_BOUND ( 'NONE', #124, .T. ) ;
#292 = EDGE_CURVE ( 'NONE', #228, #2, #15, .T. ) ;
#293 = LENGTH_MEASURE_WITH_UNIT ( LENGTH_MEASURE( 0.02539999999999999897 ), #63 );
#294 = CARTESIAN_POINT ( 'NONE',  ( 0.000000000000000000, 0.000000000000000000, 0.000000000000000000 ) ) ;
#295 = ADVANCED_FACE ( 'NONE', ( #291 ), #40, .T. ) ;
#296 = VERTEX_POINT ( 'NONE', #61 ) ;
#297 = AXIS2_PLACEMENT_3D ( 'NONE', #294, #202, #88 ) ;
#298 = CARTESIAN_POINT ( 'NONE',  ( 0.000000000000000000, 0.000000000000000000, 2.244094000000000033 ) ) ;
#299 = CARTESIAN_POINT ( 'NONE',  ( -0.1181100000000000066, 0.000000000000000000, 2.229093999999999465 ) ) ;
ENDSEC;
END-ISO-10303-21;
