ISO-10303-21;
HEADER;
FILE_DESCRIPTION (( 'STEP AP214' ),
    '1' );
FILE_NAME ('44447.STEP',
    '2023-06-22T20:40:59',
    ( '' ),
    ( '' ),
    'SwSTEP 2.0',
    'SolidWorks 2023',
    '' );
FILE_SCHEMA (( 'AUTOMOTIVE_DESIGN' ));
ENDSEC;

DATA;
#1 =( CONVERSION_BASED_UNIT ( 'INCH', #213 ) LENGTH_UNIT ( ) NAMED_UNIT ( #204 ) );
#2 = DIRECTION ( 'NONE',  ( 0.000000000000000000, 0.000000000000000000, -1.000000000000000000 ) ) ;
#3 =( LENGTH_UNIT ( ) NAMED_UNIT ( * ) SI_UNIT ( $, .METRE. ) );
#4 = COLOUR_RGB ( '',0.7921568627450980005, 0.8196078431372548767, 0.9333333333333333481 ) ;
#5 = COLOUR_RGB ( '',1.000000000000000000, 0.000000000000000000, 0.000000000000000000 ) ;
#6 = ADVANCED_FACE ( 'NONE', ( #225 ), #115, .T. ) ;
#7 = DIRECTION ( 'NONE',  ( -0.000000000000000000, -1.000000000000000000, -0.000000000000000000 ) ) ;
#8 =( LENGTH_UNIT ( ) NAMED_UNIT ( * ) SI_UNIT ( $, .METRE. ) );
#9 = ORIENTED_EDGE ( 'NONE', *, *, #18, .F. ) ;
#10 = LENGTH_MEASURE_WITH_UNIT ( LENGTH_MEASURE( 0.02539999999999999897 ), #3 );
#11 = ORIENTED_EDGE ( 'NONE', *, *, #117, .F. ) ;
#12 = DIRECTION ( 'NONE',  ( 0.000000000000000000, 1.000000000000000000, 0.000000000000000000 ) ) ;
#13 = EDGE_LOOP ( 'NONE', ( #104, #177 ) ) ;
#14 = UNCERTAINTY_MEASURE_WITH_UNIT (LENGTH_MEASURE( 1.000000000000000082E-05 ), #50, 'distance_accuracy_value', 'NONE');
#15 = DIRECTION ( 'NONE',  ( 0.000000000000000000, 0.000000000000000000, -1.000000000000000000 ) ) ;
#16 = EDGE_LOOP ( 'NONE', ( #248, #253, #240, #256 ) ) ;
#17 = DIRECTION ( 'NONE',  ( -1.000000000000000000, -4.453261087808552747E-17, 0.000000000000000000 ) ) ;
#18 = EDGE_CURVE ( 'NONE', #84, #170, #290, .T. ) ;
#19 = CARTESIAN_POINT ( 'NONE',  ( 0.000000000000000000, 4.250000000000000000, 0.000000000000000000 ) ) ;
#20 =( CONVERSION_BASED_UNIT ( 'INCH', #46 ) LENGTH_UNIT ( ) NAMED_UNIT ( #114 ) );
#21 = DIRECTION ( 'NONE',  ( -0.000000000000000000, -1.000000000000000000, -0.000000000000000000 ) ) ;
#22 = AXIS2_PLACEMENT_3D ( 'NONE', #118, #230, #254 ) ;
#23 = DIRECTION ( 'NONE',  ( -1.000000000000000000, 0.000000000000000000, 0.000000000000000000 ) ) ;
#24 = FILL_AREA_STYLE ('',( #190 ) ) ;
#25 = SURFACE_STYLE_USAGE ( .BOTH. , #159 ) ;
#26 = UNCERTAINTY_MEASURE_WITH_UNIT (LENGTH_MEASURE( 1.000000000000000082E-05 ), #79, 'distance_accuracy_value', 'NONE');
#27 = SURFACE_STYLE_FILL_AREA ( #24 ) ;
#28 = MECHANICAL_DESIGN_GEOMETRIC_PRESENTATION_REPRESENTATION (  '', ( #244 ), #223 ) ;
#29 = AXIS2_PLACEMENT_3D ( 'NONE', #64, #12, #270 ) ;
#30 = CYLINDRICAL_SURFACE ( 'NONE', #65, 0.5000000000000000000 ) ;
#31 = SURFACE_STYLE_USAGE ( .BOTH. , #266 ) ;
#32 = FACE_OUTER_BOUND ( 'NONE', #180, .T. ) ;
#33 = AXIS2_PLACEMENT_3D ( 'NONE', #232, #92, #293 ) ;
#34 = CARTESIAN_POINT ( 'NONE',  ( 6.123233995736766036E-17, 0.000000000000000000, 0.5000000000000000000 ) ) ;
#35 = SURFACE_STYLE_FILL_AREA ( #176 ) ;
#36 =( NAMED_UNIT ( * ) PLANE_ANGLE_UNIT ( ) SI_UNIT ( $, .RADIAN. ) );
#37 = CARTESIAN_POINT ( 'NONE',  ( 4.957883579047453271E-34, 4.250000000000000000, 0.000000000000000000 ) ) ;
#38 = EDGE_CURVE ( 'NONE', #62, #66, #132, .T. ) ;
#39 = ORIENTED_EDGE ( 'NONE', *, *, #107, .T. ) ;
#40 = AXIS2_PLACEMENT_3D ( 'NONE', #126, #216, #2 ) ;
#41 = DIRECTION ( 'NONE',  ( 0.000000000000000000, 0.000000000000000000, -1.000000000000000000 ) ) ;
#42 =( LENGTH_UNIT ( ) NAMED_UNIT ( * ) SI_UNIT ( $, .METRE. ) );
#43 = ORIENTED_EDGE ( 'NONE', *, *, #250, .F. ) ;
#44 =( NAMED_UNIT ( * ) SI_UNIT ( $, .STERADIAN. ) SOLID_ANGLE_UNIT ( ) );
#45 = APPLICATION_CONTEXT ( 'automotive_design' ) ;
#46 = LENGTH_MEASURE_WITH_UNIT ( LENGTH_MEASURE( 0.02539999999999999897 ), #305 );
#47 = PRESENTATION_LAYER_ASSIGNMENT (  '', '', ( #244 ) ) ;
#48 = MECHANICAL_DESIGN_GEOMETRIC_PRESENTATION_REPRESENTATION (  '', ( #308 ), #302 ) ;
#49 =( NAMED_UNIT ( * ) SI_UNIT ( $, .STERADIAN. ) SOLID_ANGLE_UNIT ( ) );
#50 =( CONVERSION_BASED_UNIT ( 'INCH', #162 ) LENGTH_UNIT ( ) NAMED_UNIT ( #178 ) );
#51 = DIRECTION ( 'NONE',  ( -4.453261087808552747E-17, 1.000000000000000000, -0.000000000000000000 ) ) ;
#52 = AXIS2_PLACEMENT_3D ( 'NONE', #237, #51, #23 ) ;
#53 = LENGTH_MEASURE_WITH_UNIT ( LENGTH_MEASURE( 0.02539999999999999897 ), #182 );
#54 =( NAMED_UNIT ( * ) SI_UNIT ( $, .STERADIAN. ) SOLID_ANGLE_UNIT ( ) );
#55 = CARTESIAN_POINT ( 'NONE',  ( 0.000000000000000000, 0.000000000000000000, 0.000000000000000000 ) ) ;
#56 = CIRCLE ( 'NONE', #188, 0.5000000000000000000 ) ;
#57 = DIRECTION ( 'NONE',  ( 0.000000000000000000, 0.000000000000000000, -1.000000000000000000 ) ) ;
#58 = DIRECTION ( 'NONE',  ( -1.000000000000000000, 0.000000000000000000, 0.000000000000000000 ) ) ;
#59 = DIRECTION ( 'NONE',  ( -0.000000000000000000, -1.000000000000000000, -0.000000000000000000 ) ) ;
#60 = CARTESIAN_POINT ( 'NONE',  ( 0.000000000000000000, 4.250000000000000000, 0.000000000000000000 ) ) ;
#61 = PRESENTATION_STYLE_ASSIGNMENT (( #252 ) ) ;
#62 = VERTEX_POINT ( 'NONE', #133 ) ;
#63 = FILL_AREA_STYLE_COLOUR ( '', #295 ) ;
#64 = CARTESIAN_POINT ( 'NONE',  ( 0.000000000000000000, 4.250000000000000000, 0.000000000000000000 ) ) ;
#65 = AXIS2_PLACEMENT_3D ( 'NONE', #55, #102, #269 ) ;
#66 = VERTEX_POINT ( 'NONE', #185 ) ;
#67 = SURFACE_STYLE_USAGE ( .BOTH. , #281 ) ;
#68 = EDGE_CURVE ( 'NONE', #258, #108, #56, .T. ) ;
#69 = DIRECTION ( 'NONE',  ( -4.453261087808552747E-17, 1.000000000000000000, -0.000000000000000000 ) ) ;
#70 = CIRCLE ( 'NONE', #231, 0.5000000000000000000 ) ;
#71 = UNCERTAINTY_MEASURE_WITH_UNIT (LENGTH_MEASURE( 1.000000000000000082E-05 ), #212, 'distance_accuracy_value', 'NONE');
#72 = DIRECTION ( 'NONE',  ( -0.000000000000000000, -1.000000000000000000, -0.000000000000000000 ) ) ;
#73 = PRESENTATION_STYLE_ASSIGNMENT (( #157 ) ) ;
#74 = STYLED_ITEM ( 'NONE', ( #249 ), #251 ) ;
#75 = PLANE ( 'NONE',  #306 ) ;
#76 =( NAMED_UNIT ( * ) PLANE_ANGLE_UNIT ( ) SI_UNIT ( $, .RADIAN. ) );
#77 = FILL_AREA_STYLE_COLOUR ( '', #4 ) ;
#78 = PRODUCT_DEFINITION_SHAPE ( 'NONE', 'NONE',  #81 ) ;
#79 =( CONVERSION_BASED_UNIT ( 'INCH', #10 ) LENGTH_UNIT ( ) NAMED_UNIT ( #279 ) );
#80 = ORIENTED_EDGE ( 'NONE', *, *, #68, .F. ) ;
#81 = PRODUCT_DEFINITION ( 'UNKNOWN', '', #146, #154 ) ;
#82 = CARTESIAN_POINT ( 'NONE',  ( 0.000000000000000000, 0.000000000000000000, -0.5000000000000000000 ) ) ;
#83 = ORIENTED_EDGE ( 'NONE', *, *, #150, .F. ) ;
#84 = VERTEX_POINT ( 'NONE', #116 ) ;
#85 = UNCERTAINTY_MEASURE_WITH_UNIT (LENGTH_MEASURE( 1.000000000000000082E-05 ), #20, 'distance_accuracy_value', 'NONE');
#86 = DIMENSIONAL_EXPONENTS ( 1.000000000000000000, 0.000000000000000000, 0.000000000000000000, 0.000000000000000000, 0.000000000000000000, 0.000000000000000000, 0.000000000000000000 ) ;
#87 = ADVANCED_FACE ( 'NONE', ( #209 ), #91, .T. ) ;
#88 = AXIS2_PLACEMENT_3D ( 'NONE', #121, #287, #187 ) ;
#89 = VERTEX_POINT ( 'NONE', #120 ) ;
#90 = CARTESIAN_POINT ( 'NONE',  ( 0.000000000000000000, 0.000000000000000000, 0.000000000000000000 ) ) ;
#91 = CYLINDRICAL_SURFACE ( 'NONE', #33, 0.5000000000000001110 ) ;
#92 = DIRECTION ( 'NONE',  ( -4.453261087808552747E-17, 1.000000000000000000, -0.000000000000000000 ) ) ;
#93 = SURFACE_SIDE_STYLE ('',( #273 ) ) ;
#94 = DIRECTION ( 'NONE',  ( -4.453261087808552747E-17, 1.000000000000000000, -0.000000000000000000 ) ) ;
#95 =( NAMED_UNIT ( * ) PLANE_ANGLE_UNIT ( ) SI_UNIT ( $, .RADIAN. ) );
#96 =( NAMED_UNIT ( * ) PLANE_ANGLE_UNIT ( ) SI_UNIT ( $, .RADIAN. ) );
#97 = COLOUR_RGB ( '',0.7921568627450980005, 0.8196078431372548767, 0.9333333333333333481 ) ;
#98 =( LENGTH_UNIT ( ) NAMED_UNIT ( * ) SI_UNIT ( $, .METRE. ) );
#99 = ADVANCED_FACE ( 'NONE', ( #229 ), #75, .T. ) ;
#100 = VECTOR ( 'NONE', #296, 39.37007874015748143 ) ;
#101 = LINE ( 'NONE', #82, #128 ) ;
#102 = DIRECTION ( 'NONE',  ( -0.000000000000000000, -1.000000000000000000, -0.000000000000000000 ) ) ;
#103 = SURFACE_SIDE_STYLE ('',( #106 ) ) ;
#104 = ORIENTED_EDGE ( 'NONE', *, *, #250, .T. ) ;
#105 = LINE ( 'NONE', #193, #100 ) ;
#106 = SURFACE_STYLE_FILL_AREA ( #131 ) ;
#107 = EDGE_CURVE ( 'NONE', #84, #243, #105, .T. ) ;
#108 = VERTEX_POINT ( 'NONE', #274 ) ;
#109 = SHAPE_DEFINITION_REPRESENTATION ( #78, #194 ) ;
#110 = DIRECTION ( 'NONE',  ( -0.000000000000000000, -1.000000000000000000, -0.000000000000000000 ) ) ;
#111 = UNCERTAINTY_MEASURE_WITH_UNIT (LENGTH_MEASURE( 1.000000000000000082E-05 ), #1, 'distance_accuracy_value', 'NONE');
#112 = ORIENTED_EDGE ( 'NONE', *, *, #107, .F. ) ;
#113 = MECHANICAL_DESIGN_GEOMETRIC_PRESENTATION_REPRESENTATION (  '', ( #255 ), #268 ) ;
#114 = DIMENSIONAL_EXPONENTS ( 1.000000000000000000, 0.000000000000000000, 0.000000000000000000, 0.000000000000000000, 0.000000000000000000, 0.000000000000000000, 0.000000000000000000 ) ;
#115 = CYLINDRICAL_SURFACE ( 'NONE', #278, 0.5000000000000001110 ) ;
#116 = CARTESIAN_POINT ( 'NONE',  ( 0.5000000000000000000, 4.250000000000000000, 6.123233995736767268E-17 ) ) ;
#117 = EDGE_CURVE ( 'NONE', #170, #84, #167, .T. ) ;
#118 = CARTESIAN_POINT ( 'NONE',  ( 0.5000000000000000000, 7.000000000000000000, 0.000000000000000000 ) ) ;
#119 = VECTOR ( 'NONE', #7, 39.37007874015748143 ) ;
#120 = CARTESIAN_POINT ( 'NONE',  ( -0.5000000000000002220, 7.000000000000000000, 0.000000000000000000 ) ) ;
#121 = CARTESIAN_POINT ( 'NONE',  ( -1.224646799147351975E-16, 7.000000000000000000, 0.000000000000000000 ) ) ;
#122 = EDGE_CURVE ( 'NONE', #66, #62, #145, .T. ) ;
#123 =( NAMED_UNIT ( * ) SI_UNIT ( $, .STERADIAN. ) SOLID_ANGLE_UNIT ( ) );
#124 = PRODUCT_CONTEXT ( 'NONE', #264, 'mechanical' ) ;
#125 =( GEOMETRIC_REPRESENTATION_CONTEXT ( 3 ) GLOBAL_UNCERTAINTY_ASSIGNED_CONTEXT ( ( #184 ) ) GLOBAL_UNIT_ASSIGNED_CONTEXT ( ( #309, #192, #123 ) ) REPRESENTATION_CONTEXT ( 'NONE', 'WORKASPACE' ) );
#126 = CARTESIAN_POINT ( 'NONE',  ( 0.000000000000000000, 0.000000000000000000, 0.000000000000000000 ) ) ;
#127 =( GEOMETRIC_REPRESENTATION_CONTEXT ( 3 ) GLOBAL_UNCERTAINTY_ASSIGNED_CONTEXT ( ( #14 ) ) GLOBAL_UNIT_ASSIGNED_CONTEXT ( ( #50, #96, #137 ) ) REPRESENTATION_CONTEXT ( 'NONE', 'WORKASPACE' ) );
#128 = VECTOR ( 'NONE', #59, 39.37007874015748143 ) ;
#129 = FILL_AREA_STYLE_COLOUR ( '', #5 ) ;
#130 =( NAMED_UNIT ( * ) SI_UNIT ( $, .STERADIAN. ) SOLID_ANGLE_UNIT ( ) );
#131 = FILL_AREA_STYLE ('',( #241 ) ) ;
#132 = CIRCLE ( 'NONE', #301, 0.5000000000000000000 ) ;
#133 = CARTESIAN_POINT ( 'NONE',  ( 6.123233995736766036E-17, 0.000000000000000000, 0.5000000000000000000 ) ) ;
#134 = ORIENTED_EDGE ( 'NONE', *, *, #179, .F. ) ;
#135 = ADVANCED_FACE ( 'NONE', ( #172 ), #30, .T. ) ;
#136 = CARTESIAN_POINT ( 'NONE',  ( 0.000000000000000000, 0.000000000000000000, 0.000000000000000000 ) ) ;
#137 =( NAMED_UNIT ( * ) SI_UNIT ( $, .STERADIAN. ) SOLID_ANGLE_UNIT ( ) );
#138 = FACE_OUTER_BOUND ( 'NONE', #13, .T. ) ;
#139 = COLOUR_RGB ( '',1.000000000000000000, 0.000000000000000000, 0.000000000000000000 ) ;
#140 = PLANE ( 'NONE',  #29 ) ;
#141 = AXIS2_PLACEMENT_3D ( 'NONE', #60, #238, #58 ) ;
#142 = CARTESIAN_POINT ( 'NONE',  ( -0.5000000000000002220, 7.000000000000000000, 0.000000000000000000 ) ) ;
#143 = LINE ( 'NONE', #34, #119 ) ;
#144 = ORIENTED_EDGE ( 'NONE', *, *, #284, .T. ) ;
#145 = CIRCLE ( 'NONE', #40, 0.5000000000000000000 ) ;
#146 = PRODUCT_DEFINITION_FORMATION_WITH_SPECIFIED_SOURCE ( 'ANY', '', #191, .NOT_KNOWN. ) ;
#147 = CYLINDRICAL_SURFACE ( 'NONE', #189, 0.5000000000000000000 ) ;
#148 = ORIENTED_EDGE ( 'NONE', *, *, #18, .T. ) ;
#149 =( GEOMETRIC_REPRESENTATION_CONTEXT ( 3 ) GLOBAL_UNCERTAINTY_ASSIGNED_CONTEXT ( ( #85 ) ) GLOBAL_UNIT_ASSIGNED_CONTEXT ( ( #20, #36, #49 ) ) REPRESENTATION_CONTEXT ( 'NONE', 'WORKASPACE' ) );
#150 = EDGE_CURVE ( 'NONE', #258, #62, #143, .T. ) ;
#151 = MECHANICAL_DESIGN_GEOMETRIC_PRESENTATION_REPRESENTATION (  '', ( #175 ), #149 ) ;
#152 = DIRECTION ( 'NONE',  ( -1.000000000000000000, 0.000000000000000000, 0.000000000000000000 ) ) ;
#153 = MANIFOLD_SOLID_BREP ( 'Revolve - Tool Body (Straight Shanked)', #259 ) ;
#154 = PRODUCT_DEFINITION_CONTEXT ( 'detailed design', #45, 'design' ) ;
#155 = DIRECTION ( 'NONE',  ( 0.000000000000000000, 0.000000000000000000, -1.000000000000000000 ) ) ;
#156 = AXIS2_PLACEMENT_3D ( 'NONE', #37, #222, #17 ) ;
#157 = SURFACE_STYLE_USAGE ( .BOTH. , #93 ) ;
#158 = SURFACE_STYLE_FILL_AREA ( #288 ) ;
#159 = SURFACE_SIDE_STYLE ('',( #158 ) ) ;
#160 = AXIS2_PLACEMENT_3D ( 'NONE', #247, #275, #298 ) ;
#161 = CARTESIAN_POINT ( 'NONE',  ( 0.5000000000000000000, 7.000000000000000000, 6.123233995736767268E-17 ) ) ;
#162 = LENGTH_MEASURE_WITH_UNIT ( LENGTH_MEASURE( 0.02539999999999999897 ), #263 );
#163 = CARTESIAN_POINT ( 'NONE',  ( -0.5000000000000000000, 4.250000000000000000, 0.000000000000000000 ) ) ;
#164 = ADVANCED_FACE ( 'NONE', ( #138 ), #297, .F. ) ;
#165 = PRESENTATION_STYLE_ASSIGNMENT (( #67 ) ) ;
#166 = DIRECTION ( 'NONE',  ( -0.000000000000000000, -1.000000000000000000, -0.000000000000000000 ) ) ;
#167 = CIRCLE ( 'NONE', #141, 0.5000000000000000000 ) ;
#168 = FILL_AREA_STYLE ('',( #129 ) ) ;
#169 = ADVANCED_FACE ( 'NONE', ( #220 ), #202, .F. ) ;
#170 = VERTEX_POINT ( 'NONE', #163 ) ;
#171 = FILL_AREA_STYLE ('',( #77 ) ) ;
#172 = FACE_OUTER_BOUND ( 'NONE', #16, .T. ) ;
#173 = SURFACE_STYLE_USAGE ( .BOTH. , #200 ) ;
#174 = DIMENSIONAL_EXPONENTS ( 1.000000000000000000, 0.000000000000000000, 0.000000000000000000, 0.000000000000000000, 0.000000000000000000, 0.000000000000000000, 0.000000000000000000 ) ;
#175 = STYLED_ITEM ( 'NONE', ( #73 ), #153 ) ;
#176 = FILL_AREA_STYLE ('',( #63 ) ) ;
#177 = ORIENTED_EDGE ( 'NONE', *, *, #235, .T. ) ;
#178 = DIMENSIONAL_EXPONENTS ( 1.000000000000000000, 0.000000000000000000, 0.000000000000000000, 0.000000000000000000, 0.000000000000000000, 0.000000000000000000, 0.000000000000000000 ) ;
#179 = EDGE_CURVE ( 'NONE', #108, #258, #70, .T. ) ;
#180 = EDGE_LOOP ( 'NONE', ( #134, #80 ) ) ;
#181 = CIRCLE ( 'NONE', #52, 0.5000000000000001110 ) ;
#182 =( LENGTH_UNIT ( ) NAMED_UNIT ( * ) SI_UNIT ( $, .METRE. ) );
#183 = ORIENTED_EDGE ( 'NONE', *, *, #186, .T. ) ;
#184 = UNCERTAINTY_MEASURE_WITH_UNIT (LENGTH_MEASURE( 1.000000000000000082E-05 ), #309, 'distance_accuracy_value', 'NONE');
#185 = CARTESIAN_POINT ( 'NONE',  ( 0.000000000000000000, 0.000000000000000000, -0.5000000000000000000 ) ) ;
#186 = EDGE_CURVE ( 'NONE', #170, #89, #233, .T. ) ;
#187 = DIRECTION ( 'NONE',  ( -1.000000000000000000, 0.000000000000000000, 0.000000000000000000 ) ) ;
#188 = AXIS2_PLACEMENT_3D ( 'NONE', #286, #72, #155 ) ;
#189 = AXIS2_PLACEMENT_3D ( 'NONE', #136, #110, #15 ) ;
#190 = FILL_AREA_STYLE_COLOUR ( '', #97 ) ;
#191 = PRODUCT ( '44447', '44447', '', ( #124 ) ) ;
#192 =( NAMED_UNIT ( * ) PLANE_ANGLE_UNIT ( ) SI_UNIT ( $, .RADIAN. ) );
#193 = CARTESIAN_POINT ( 'NONE',  ( 0.4999999999999999445, 7.000000000000000000, 6.123233995736767268E-17 ) ) ;
#194 = ADVANCED_BREP_SHAPE_REPRESENTATION ( '44447', ( #251, #153, #160 ), #195 ) ;
#195 =( GEOMETRIC_REPRESENTATION_CONTEXT ( 3 ) GLOBAL_UNCERTAINTY_ASSIGNED_CONTEXT ( ( #71 ) ) GLOBAL_UNIT_ASSIGNED_CONTEXT ( ( #212, #95, #54 ) ) REPRESENTATION_CONTEXT ( 'NONE', 'WORKASPACE' ) );
#196 = DIRECTION ( 'NONE',  ( 0.000000000000000000, -1.000000000000000000, -0.000000000000000000 ) ) ;
#197 = CARTESIAN_POINT ( 'NONE',  ( 0.000000000000000000, 0.000000000000000000, 0.000000000000000000 ) ) ;
#198 =( NAMED_UNIT ( * ) SI_UNIT ( $, .STERADIAN. ) SOLID_ANGLE_UNIT ( ) );
#199 = DIRECTION ( 'NONE',  ( 0.000000000000000000, 0.000000000000000000, -1.000000000000000000 ) ) ;
#200 = SURFACE_SIDE_STYLE ('',( #271 ) ) ;
#201 = ORIENTED_EDGE ( 'NONE', *, *, #117, .T. ) ;
#202 = PLANE ( 'NONE',  #156 ) ;
#203 = COLOUR_RGB ( '',1.000000000000000000, 0.000000000000000000, 0.000000000000000000 ) ;
#204 = DIMENSIONAL_EXPONENTS ( 1.000000000000000000, 0.000000000000000000, 0.000000000000000000, 0.000000000000000000, 0.000000000000000000, 0.000000000000000000, 0.000000000000000000 ) ;
#205 = APPLICATION_PROTOCOL_DEFINITION ( 'draft international standard', 'automotive_design', 1998, #264 ) ;
#206 = EDGE_LOOP ( 'NONE', ( #227, #221 ) ) ;
#207 = STYLED_ITEM ( 'NONE', ( #307 ), #99 ) ;
#208 = DIRECTION ( 'NONE',  ( -1.000000000000000000, 0.000000000000000000, 0.000000000000000000 ) ) ;
#209 = FACE_OUTER_BOUND ( 'NONE', #228, .T. ) ;
#210 = PRESENTATION_LAYER_ASSIGNMENT (  '', '', ( #207 ) ) ;
#211 = PRESENTATION_LAYER_ASSIGNMENT (  '', '', ( #308 ) ) ;
#212 =( CONVERSION_BASED_UNIT ( 'INCH', #53 ) LENGTH_UNIT ( ) NAMED_UNIT ( #174 ) );
#213 = LENGTH_MEASURE_WITH_UNIT ( LENGTH_MEASURE( 0.02539999999999999897 ), #98 );
#214 = PRESENTATION_STYLE_ASSIGNMENT (( #173 ) ) ;
#215 = CIRCLE ( 'NONE', #88, 0.5000000000000001110 ) ;
#216 = DIRECTION ( 'NONE',  ( -0.000000000000000000, -1.000000000000000000, -0.000000000000000000 ) ) ;
#217 = ORIENTED_EDGE ( 'NONE', *, *, #235, .F. ) ;
#218 =( CONVERSION_BASED_UNIT ( 'INCH', #242 ) LENGTH_UNIT ( ) NAMED_UNIT ( #300 ) );
#219 = APPLICATION_PROTOCOL_DEFINITION ( 'draft international standard', 'automotive_design', 1998, #45 ) ;
#220 = FACE_OUTER_BOUND ( 'NONE', #276, .T. ) ;
#221 = ORIENTED_EDGE ( 'NONE', *, *, #38, .T. ) ;
#222 = DIRECTION ( 'NONE',  ( -4.453261087808552747E-17, 1.000000000000000000, 0.000000000000000000 ) ) ;
#223 =( GEOMETRIC_REPRESENTATION_CONTEXT ( 3 ) GLOBAL_UNCERTAINTY_ASSIGNED_CONTEXT ( ( #111 ) ) GLOBAL_UNIT_ASSIGNED_CONTEXT ( ( #1, #76, #198 ) ) REPRESENTATION_CONTEXT ( 'NONE', 'WORKASPACE' ) );
#224 = ORIENTED_EDGE ( 'NONE', *, *, #38, .F. ) ;
#225 = FACE_OUTER_BOUND ( 'NONE', #272, .T. ) ;
#226 = PRESENTATION_LAYER_ASSIGNMENT (  '', '', ( #175 ) ) ;
#227 = ORIENTED_EDGE ( 'NONE', *, *, #122, .T. ) ;
#228 = EDGE_LOOP ( 'NONE', ( #201, #39, #43, #285 ) ) ;
#229 = FACE_OUTER_BOUND ( 'NONE', #206, .T. ) ;
#230 = DIRECTION ( 'NONE',  ( 4.453261087808552747E-17, -1.000000000000000000, 0.000000000000000000 ) ) ;
#231 = AXIS2_PLACEMENT_3D ( 'NONE', #292, #166, #57 ) ;
#232 = CARTESIAN_POINT ( 'NONE',  ( -1.224646799147351975E-16, 7.000000000000000000, 0.000000000000000000 ) ) ;
#233 = LINE ( 'NONE', #142, #283 ) ;
#234 = UNCERTAINTY_MEASURE_WITH_UNIT (LENGTH_MEASURE( 1.000000000000000082E-05 ), #218, 'distance_accuracy_value', 'NONE');
#235 = EDGE_CURVE ( 'NONE', #243, #89, #181, .T. ) ;
#236 = MECHANICAL_DESIGN_GEOMETRIC_PRESENTATION_REPRESENTATION (  '', ( #207 ), #127 ) ;
#237 = CARTESIAN_POINT ( 'NONE',  ( -1.224646799147351975E-16, 7.000000000000000000, 0.000000000000000000 ) ) ;
#238 = DIRECTION ( 'NONE',  ( -4.453261087808552747E-17, 1.000000000000000000, -0.000000000000000000 ) ) ;
#239 = FACE_OUTER_BOUND ( 'NONE', #257, .T. ) ;
#240 = ORIENTED_EDGE ( 'NONE', *, *, #122, .F. ) ;
#241 = FILL_AREA_STYLE_COLOUR ( '', #139 ) ;
#242 = LENGTH_MEASURE_WITH_UNIT ( LENGTH_MEASURE( 0.02539999999999999897 ), #8 );
#243 = VERTEX_POINT ( 'NONE', #161 ) ;
#244 = STYLED_ITEM ( 'NONE', ( #165 ), #135 ) ;
#245 = PRESENTATION_LAYER_ASSIGNMENT (  '', '', ( #255 ) ) ;
#246 =( NAMED_UNIT ( * ) PLANE_ANGLE_UNIT ( ) SI_UNIT ( $, .RADIAN. ) );
#247 = CARTESIAN_POINT ( 'NONE',  ( 0.000000000000000000, 0.000000000000000000, 0.000000000000000000 ) ) ;
#248 = ORIENTED_EDGE ( 'NONE', *, *, #179, .T. ) ;
#249 = PRESENTATION_STYLE_ASSIGNMENT (( #31 ) ) ;
#250 = EDGE_CURVE ( 'NONE', #89, #243, #215, .T. ) ;
#251 = MANIFOLD_SOLID_BREP ( 'Revolve - Cutting Edge', #289 ) ;
#252 = SURFACE_STYLE_USAGE ( .BOTH. , #103 ) ;
#253 = ORIENTED_EDGE ( 'NONE', *, *, #150, .T. ) ;
#254 = DIRECTION ( 'NONE',  ( 1.000000000000000000, 4.453261087808552747E-17, 0.000000000000000000 ) ) ;
#255 = STYLED_ITEM ( 'NONE', ( #214 ), #277 ) ;
#256 = ORIENTED_EDGE ( 'NONE', *, *, #284, .F. ) ;
#257 = EDGE_LOOP ( 'NONE', ( #83, #299, #144, #224 ) ) ;
#258 = VERTEX_POINT ( 'NONE', #282 ) ;
#259 = CLOSED_SHELL ( 'NONE', ( #87, #169, #6, #164 ) ) ;
#260 = PRESENTATION_LAYER_ASSIGNMENT (  '', '', ( #74 ) ) ;
#261 = CARTESIAN_POINT ( 'NONE',  ( -1.224646799147351975E-16, 7.000000000000000000, 0.000000000000000000 ) ) ;
#262 = PRODUCT_RELATED_PRODUCT_CATEGORY ( 'part', '', ( #191 ) ) ;
#263 =( LENGTH_UNIT ( ) NAMED_UNIT ( * ) SI_UNIT ( $, .METRE. ) );
#264 = APPLICATION_CONTEXT ( 'automotive_design' ) ;
#265 = LENGTH_MEASURE_WITH_UNIT ( LENGTH_MEASURE( 0.02539999999999999897 ), #42 );
#266 = SURFACE_SIDE_STYLE ('',( #27 ) ) ;
#267 = AXIS2_PLACEMENT_3D ( 'NONE', #19, #303, #152 ) ;
#268 =( GEOMETRIC_REPRESENTATION_CONTEXT ( 3 ) GLOBAL_UNCERTAINTY_ASSIGNED_CONTEXT ( ( #26 ) ) GLOBAL_UNIT_ASSIGNED_CONTEXT ( ( #79, #294, #130 ) ) REPRESENTATION_CONTEXT ( 'NONE', 'WORKASPACE' ) );
#269 = DIRECTION ( 'NONE',  ( 0.000000000000000000, 0.000000000000000000, -1.000000000000000000 ) ) ;
#270 = DIRECTION ( 'NONE',  ( 0.000000000000000000, -0.000000000000000000, 1.000000000000000000 ) ) ;
#271 = SURFACE_STYLE_FILL_AREA ( #168 ) ;
#272 = EDGE_LOOP ( 'NONE', ( #112, #148, #183, #217 ) ) ;
#273 = SURFACE_STYLE_FILL_AREA ( #171 ) ;
#274 = CARTESIAN_POINT ( 'NONE',  ( 0.000000000000000000, 4.250000000000000000, -0.5000000000000000000 ) ) ;
#275 = DIRECTION ( 'NONE',  ( 0.000000000000000000, 0.000000000000000000, 1.000000000000000000 ) ) ;
#276 = EDGE_LOOP ( 'NONE', ( #11, #9 ) ) ;
#277 = ADVANCED_FACE ( 'NONE', ( #32 ), #140, .T. ) ;
#278 = AXIS2_PLACEMENT_3D ( 'NONE', #261, #69, #208 ) ;
#279 = DIMENSIONAL_EXPONENTS ( 1.000000000000000000, 0.000000000000000000, 0.000000000000000000, 0.000000000000000000, 0.000000000000000000, 0.000000000000000000, 0.000000000000000000 ) ;
#280 = MECHANICAL_DESIGN_GEOMETRIC_PRESENTATION_REPRESENTATION (  '', ( #74 ), #125 ) ;
#281 = SURFACE_SIDE_STYLE ('',( #35 ) ) ;
#282 = CARTESIAN_POINT ( 'NONE',  ( 6.123233995736766036E-17, 4.250000000000000000, 0.5000000000000000000 ) ) ;
#283 = VECTOR ( 'NONE', #94, 39.37007874015748143 ) ;
#284 = EDGE_CURVE ( 'NONE', #108, #66, #101, .T. ) ;
#285 = ORIENTED_EDGE ( 'NONE', *, *, #186, .F. ) ;
#286 = CARTESIAN_POINT ( 'NONE',  ( 0.000000000000000000, 4.250000000000000000, 0.000000000000000000 ) ) ;
#287 = DIRECTION ( 'NONE',  ( -4.453261087808552747E-17, 1.000000000000000000, -0.000000000000000000 ) ) ;
#288 = FILL_AREA_STYLE ('',( #291 ) ) ;
#289 = CLOSED_SHELL ( 'NONE', ( #135, #277, #304, #99 ) ) ;
#290 = CIRCLE ( 'NONE', #267, 0.5000000000000000000 ) ;
#291 = FILL_AREA_STYLE_COLOUR ( '', #203 ) ;
#292 = CARTESIAN_POINT ( 'NONE',  ( 0.000000000000000000, 4.250000000000000000, 0.000000000000000000 ) ) ;
#293 = DIRECTION ( 'NONE',  ( -1.000000000000000000, 0.000000000000000000, 0.000000000000000000 ) ) ;
#294 =( NAMED_UNIT ( * ) PLANE_ANGLE_UNIT ( ) SI_UNIT ( $, .RADIAN. ) );
#295 = COLOUR_RGB ( '',1.000000000000000000, 0.000000000000000000, 0.000000000000000000 ) ;
#296 = DIRECTION ( 'NONE',  ( -4.453261087808552747E-17, 1.000000000000000000, -0.000000000000000000 ) ) ;
#297 = PLANE ( 'NONE',  #22 ) ;
#298 = DIRECTION ( 'NONE',  ( 1.000000000000000000, 0.000000000000000000, 0.000000000000000000 ) ) ;
#299 = ORIENTED_EDGE ( 'NONE', *, *, #68, .T. ) ;
#300 = DIMENSIONAL_EXPONENTS ( 1.000000000000000000, 0.000000000000000000, 0.000000000000000000, 0.000000000000000000, 0.000000000000000000, 0.000000000000000000, 0.000000000000000000 ) ;
#301 = AXIS2_PLACEMENT_3D ( 'NONE', #90, #21, #41 ) ;
#302 =( GEOMETRIC_REPRESENTATION_CONTEXT ( 3 ) GLOBAL_UNCERTAINTY_ASSIGNED_CONTEXT ( ( #234 ) ) GLOBAL_UNIT_ASSIGNED_CONTEXT ( ( #218, #246, #44 ) ) REPRESENTATION_CONTEXT ( 'NONE', 'WORKASPACE' ) );
#303 = DIRECTION ( 'NONE',  ( -4.453261087808552747E-17, 1.000000000000000000, -0.000000000000000000 ) ) ;
#304 = ADVANCED_FACE ( 'NONE', ( #239 ), #147, .T. ) ;
#305 =( LENGTH_UNIT ( ) NAMED_UNIT ( * ) SI_UNIT ( $, .METRE. ) );
#306 = AXIS2_PLACEMENT_3D ( 'NONE', #197, #196, #199 ) ;
#307 = PRESENTATION_STYLE_ASSIGNMENT (( #25 ) ) ;
#308 = STYLED_ITEM ( 'NONE', ( #61 ), #304 ) ;
#309 =( CONVERSION_BASED_UNIT ( 'INCH', #265 ) LENGTH_UNIT ( ) NAMED_UNIT ( #86 ) );
ENDSEC;
END-ISO-10303-21;
