ISO-10303-21;
HEADER;
FILE_DESCRIPTION (( 'STEP AP214' ),
    '1' );
FILE_NAME ('Micro_SME-022-2.STEP',
    '2021-09-02T10:53:01',
    ( '' ),
    ( '' ),
    'SwSTEP 2.0',
    'SolidWorks 2020',
    '' );
FILE_SCHEMA (( 'AUTOMOTIVE_DESIGN' ));
ENDSEC;

DATA;
#1 = CARTESIAN_POINT ( 'NONE',  ( 0.0000000000000000000, 0.0000000000000000000, 1.500000000000000222 ) ) ;
#2 = CARTESIAN_POINT ( 'NONE',  ( -0.06249999999999997918, 0.0000000000000000000, 0.3251333978103264077 ) ) ;
#3 = ORIENTED_EDGE ( 'NONE', *, *, #249, .T. ) ;
#4 = APPLICATION_CONTEXT ( 'automotive_design' ) ;
#5 =( NAMED_UNIT ( * ) SI_UNIT ( $, .STERADIAN. ) SOLID_ANGLE_UNIT ( ) );
#6 = PRESENTATION_LAYER_ASSIGNMENT (  '', '', ( #219 ) ) ;
#7 = ORIENTED_EDGE ( 'NONE', *, *, #149, .F. ) ;
#8 = EDGE_CURVE ( 'NONE', #133, #269, #241, .T. ) ;
#9 = VERTEX_POINT ( 'NONE', #117 ) ;
#10 = ORIENTED_EDGE ( 'NONE', *, *, #92, .F. ) ;
#11 = AXIS2_PLACEMENT_3D ( 'NONE', #210, #162, #159 ) ;
#12 = CARTESIAN_POINT ( 'NONE',  ( 0.0000000000000000000, 0.0000000000000000000, 1.500000000000000222 ) ) ;
#13 = EDGE_CURVE ( 'NONE', #192, #9, #225, .T. ) ;
#14 = DIRECTION ( 'NONE',  ( 1.000000000000000000, 0.0000000000000000000, 0.0000000000000000000 ) ) ;
#15 = ORIENTED_EDGE ( 'NONE', *, *, #81, .F. ) ;
#16 = AXIS2_PLACEMENT_3D ( 'NONE', #1, #296, #94 ) ;
#17 = CARTESIAN_POINT ( 'NONE',  ( 3.981735749243193389E-17, 0.0000000000000000000, 0.3251333978103264077 ) ) ;
#18 = DIRECTION ( 'NONE',  ( -0.0000000000000000000, -0.0000000000000000000, -1.000000000000000000 ) ) ;
#19 = FACE_OUTER_BOUND ( 'NONE', #82, .T. ) ;
#20 = CLOSED_SHELL ( 'NONE', ( #156, #70, #188, #245, #96, #105, #33, #116, #123, #291 ) ) ;
#21 =( GEOMETRIC_REPRESENTATION_CONTEXT ( 3 ) GLOBAL_UNCERTAINTY_ASSIGNED_CONTEXT ( ( #209 ) ) GLOBAL_UNIT_ASSIGNED_CONTEXT ( ( #216, #172, #5 ) ) REPRESENTATION_CONTEXT ( 'NONE', 'WORKASPACE' ) );
#22 = FACE_OUTER_BOUND ( 'NONE', #151, .T. ) ;
#23 = EDGE_CURVE ( 'NONE', #9, #125, #73, .T. ) ;
#24 = CARTESIAN_POINT ( 'NONE',  ( 0.04750000000000064587, 6.735557395310483192E-18, 1.500000000000000222 ) ) ;
#25 =( LENGTH_UNIT ( ) NAMED_UNIT ( * ) SI_UNIT ( $, .METRE. ) );
#26 = DIMENSIONAL_EXPONENTS ( 1.000000000000000000, 0.0000000000000000000, 0.0000000000000000000, 0.0000000000000000000, 0.0000000000000000000, 0.0000000000000000000, 0.0000000000000000000 ) ;
#27 = VECTOR ( 'NONE', #64, 39.37007874015748854 ) ;
#28 = APPLICATION_PROTOCOL_DEFINITION ( 'draft international standard', 'automotive_design', 1998, #71 ) ;
#29 = ORIENTED_EDGE ( 'NONE', *, *, #164, .F. ) ;
#30 =( CONVERSION_BASED_UNIT ( 'INCH', #148 ) LENGTH_UNIT ( ) NAMED_UNIT ( #166 ) );
#31 = ORIENTED_EDGE ( 'NONE', *, *, #23, .T. ) ;
#32 = FILL_AREA_STYLE_COLOUR ( '', #168 ) ;
#33 = ADVANCED_FACE ( 'NONE', ( #287 ), #51, .T. ) ;
#34 = ORIENTED_EDGE ( 'NONE', *, *, #268, .F. ) ;
#35 =( NAMED_UNIT ( * ) SI_UNIT ( $, .STERADIAN. ) SOLID_ANGLE_UNIT ( ) );
#36 = CARTESIAN_POINT ( 'NONE',  ( 4.041334437186267420E-18, 0.0000000000000000000, 0.03300000000000000155 ) ) ;
#37 = DIRECTION ( 'NONE',  ( 1.000000000000000000, 0.0000000000000000000, 0.0000000000000000000 ) ) ;
#38 = DIRECTION ( 'NONE',  ( 1.000000000000000000, 0.0000000000000000000, 0.0000000000000000000 ) ) ;
#39 = CIRCLE ( 'NONE', #271, 0.06250000000000002776 ) ;
#40 = DIRECTION ( 'NONE',  ( 0.0000000000000000000, 0.0000000000000000000, 1.000000000000000000 ) ) ;
#41 = FACE_OUTER_BOUND ( 'NONE', #50, .T. ) ;
#42 = DIRECTION ( 'NONE',  ( -1.000000000000000000, 0.0000000000000000000, 1.224646799147353947E-16 ) ) ;
#43 = CONICAL_SURFACE ( 'NONE', #175, 0.01098900000000000224, 0.1745329251994338637 ) ;
#44 = CARTESIAN_POINT ( 'NONE',  ( 4.041334437186267420E-18, 0.0000000000000000000, 0.03300000000000000155 ) ) ;
#45 = DIRECTION ( 'NONE',  ( 1.000000000000000000, 0.0000000000000000000, 0.0000000000000000000 ) ) ;
#46 = DIRECTION ( 'NONE',  ( -1.224646799147353700E-16, -0.0000000000000000000, -1.000000000000000000 ) ) ;
#47 = AXIS2_PLACEMENT_3D ( 'NONE', #276, #187, #122 ) ;
#48 = PLANE ( 'NONE',  #298 ) ;
#49 = LINE ( 'NONE', #214, #199 ) ;
#50 = EDGE_LOOP ( 'NONE', ( #7, #29, #129, #135 ) ) ;
#51 = CONICAL_SURFACE ( 'NONE', #222, 0.04750000000000064587, 0.7853981633974466137 ) ;
#52 = LENGTH_MEASURE_WITH_UNIT ( LENGTH_MEASURE( 0.02539999999999999897 ), #256 );
#53 = AXIS2_PLACEMENT_3D ( 'NONE', #17, #46, #45 ) ;
#54 = EDGE_LOOP ( 'NONE', ( #10, #237, #15, #197 ) ) ;
#55 = EDGE_CURVE ( 'NONE', #125, #9, #183, .T. ) ;
#56 = AXIS2_PLACEMENT_3D ( 'NONE', #36, #137, #38 ) ;
#57 = PRODUCT_DEFINITION_SHAPE ( 'NONE', 'NONE',  #196 ) ;
#58 = ORIENTED_EDGE ( 'NONE', *, *, #65, .T. ) ;
#59 = CARTESIAN_POINT ( 'NONE',  ( -0.06250000000000002776, 0.0000000000000000000, 1.500000000000000222 ) ) ;
#60 = CARTESIAN_POINT ( 'NONE',  ( 0.06250000000000006939, 7.654042494670963708E-18, 0.3251333978103264077 ) ) ;
#61 = AXIS2_PLACEMENT_3D ( 'NONE', #89, #179, #87 ) ;
#62 = APPLICATION_PROTOCOL_DEFINITION ( 'draft international standard', 'automotive_design', 1998, #4 ) ;
#63 = ORIENTED_EDGE ( 'NONE', *, *, #201, .F. ) ;
#64 = DIRECTION ( 'NONE',  ( 0.7071067811865462405, 8.659560562354916834E-17, -0.7071067811865486830 ) ) ;
#65 = EDGE_CURVE ( 'NONE', #77, #220, #198, .T. ) ;
#66 = LINE ( 'NONE', #99, #113 ) ;
#67 = AXIS2_PLACEMENT_3D ( 'NONE', #178, #136, #14 ) ;
#68 = LINE ( 'NONE', #250, #86 ) ;
#69 = DIRECTION ( 'NONE',  ( -1.000000000000000000, 0.0000000000000000000, 1.224646799147353700E-16 ) ) ;
#70 = ADVANCED_FACE ( 'NONE', ( #91 ), #190, .T. ) ;
#71 = APPLICATION_CONTEXT ( 'automotive_design' ) ;
#72 = DIRECTION ( 'NONE',  ( 1.000000000000000000, 0.0000000000000000000, 0.0000000000000000000 ) ) ;
#73 = CIRCLE ( 'NONE', #174, 0.01098899999999999530 ) ;
#74 = COLOUR_RGB ( '',0.7921568627450980005, 0.8196078431372548767, 0.9333333333333333481 ) ;
#75 = CARTESIAN_POINT ( 'NONE',  ( 0.01098899999999999530, 1.345764367583026208E-18, -2.369500423704768587E-34 ) ) ;
#76 = ADVANCED_BREP_SHAPE_REPRESENTATION ( 'Micro_SME-022-2', ( #285, #106 ), #21 ) ;
#77 = VERTEX_POINT ( 'NONE', #263 ) ;
#78 = PRESENTATION_STYLE_ASSIGNMENT (( #283 ) ) ;
#79 = CARTESIAN_POINT ( 'NONE',  ( 0.0000000000000000000, 0.0000000000000000000, 0.0000000000000000000 ) ) ;
#80 = ORIENTED_EDGE ( 'NONE', *, *, #13, .F. ) ;
#81 = EDGE_CURVE ( 'NONE', #77, #269, #39, .T. ) ;
#82 = EDGE_LOOP ( 'NONE', ( #146, #3, #226, #80 ) ) ;
#83 =( CONVERSION_BASED_UNIT ( 'INCH', #52 ) LENGTH_UNIT ( ) NAMED_UNIT ( #259 ) );
#84 = ORIENTED_EDGE ( 'NONE', *, *, #257, .T. ) ;
#85 = EDGE_LOOP ( 'NONE', ( #173, #200, #258, #34 ) ) ;
#86 = VECTOR ( 'NONE', #181, 39.37007874015748143 ) ;
#87 = DIRECTION ( 'NONE',  ( -1.000000000000000000, 0.0000000000000000000, 0.0000000000000000000 ) ) ;
#88 = DIRECTION ( 'NONE',  ( -1.224646799147353700E-16, -0.0000000000000000000, -1.000000000000000000 ) ) ;
#89 = CARTESIAN_POINT ( 'NONE',  ( 0.0000000000000000000, 0.0000000000000000000, 1.500000000000000222 ) ) ;
#90 = CARTESIAN_POINT ( 'NONE',  ( 0.0000000000000000000, 0.0000000000000000000, 0.0000000000000000000 ) ) ;
#91 = FACE_OUTER_BOUND ( 'NONE', #286, .T. ) ;
#92 = EDGE_CURVE ( 'NONE', #133, #204, #184, .T. ) ;
#93 = DIRECTION ( 'NONE',  ( -0.0000000000000000000, -0.0000000000000000000, -1.000000000000000000 ) ) ;
#94 = DIRECTION ( 'NONE',  ( 1.000000000000000000, 0.0000000000000000000, 0.0000000000000000000 ) ) ;
#95 = AXIS2_PLACEMENT_3D ( 'NONE', #98, #163, #251 ) ;
#96 = ADVANCED_FACE ( 'NONE', ( #180 ), #224, .T. ) ;
#97 = DIRECTION ( 'NONE',  ( -1.224646799147353700E-16, -0.0000000000000000000, -1.000000000000000000 ) ) ;
#98 = CARTESIAN_POINT ( 'NONE',  ( 4.041334437186267420E-18, 0.0000000000000000000, 0.03300000000000000155 ) ) ;
#99 = CARTESIAN_POINT ( 'NONE',  ( 0.01098900000000000050, 1.345764367583026593E-18, -1.345764367583026979E-18 ) ) ;
#100 = SURFACE_STYLE_FILL_AREA ( #171 ) ;
#101 = UNCERTAINTY_MEASURE_WITH_UNIT (LENGTH_MEASURE( 1.000000000000000082E-05 ), #83, 'distance_accuracy_value', 'NONE');
#102 = VERTEX_POINT ( 'NONE', #60 ) ;
#103 = PRODUCT ( 'Micro_SME-022-2', 'Micro_SME-022-2', '', ( #153 ) ) ;
#104 = ORIENTED_EDGE ( 'NONE', *, *, #212, .F. ) ;
#105 = ADVANCED_FACE ( 'NONE', ( #267 ), #155, .T. ) ;
#106 = AXIS2_PLACEMENT_3D ( 'NONE', #90, #130, #37 ) ;
#107 = MECHANICAL_DESIGN_GEOMETRIC_PRESENTATION_REPRESENTATION (  '', ( #219 ), #266 ) ;
#108 = ORIENTED_EDGE ( 'NONE', *, *, #65, .F. ) ;
#109 =( NAMED_UNIT ( * ) PLANE_ANGLE_UNIT ( ) SI_UNIT ( $, .RADIAN. ) );
#110 = ORIENTED_EDGE ( 'NONE', *, *, #278, .T. ) ;
#111 = EDGE_LOOP ( 'NONE', ( #289, #290, #58, #104 ) ) ;
#112 = DIRECTION ( 'NONE',  ( 0.0000000000000000000, 0.0000000000000000000, -1.000000000000000000 ) ) ;
#113 = VECTOR ( 'NONE', #247, 39.37007874015748143 ) ;
#114 = DIRECTION ( 'NONE',  ( -1.224646799147353700E-16, -0.0000000000000000000, -1.000000000000000000 ) ) ;
#115 = CARTESIAN_POINT ( 'NONE',  ( -0.01098900000000000050, 0.0000000000000000000, 1.345764367583026979E-18 ) ) ;
#116 = ADVANCED_FACE ( 'NONE', ( #41 ), #43, .T. ) ;
#117 = CARTESIAN_POINT ( 'NONE',  ( -0.01098899999999999530, 0.0000000000000000000, 2.691528735166053187E-18 ) ) ;
#118 = CARTESIAN_POINT ( 'NONE',  ( 0.01098900000000000571, 0.0000000000000000000, 0.03300000000000000155 ) ) ;
#119 = LINE ( 'NONE', #295, #277 ) ;
#120 = CYLINDRICAL_SURFACE ( 'NONE', #150, 0.01098900000000000050 ) ;
#121 = DIRECTION ( 'NONE',  ( -1.224646799147353700E-16, -0.0000000000000000000, -1.000000000000000000 ) ) ;
#122 = DIRECTION ( 'NONE',  ( 1.000000000000000000, 0.0000000000000000000, 0.0000000000000000000 ) ) ;
#123 = ADVANCED_FACE ( 'NONE', ( #299 ), #272, .T. ) ;
#124 = STYLED_ITEM ( 'NONE', ( #128 ), #76 ) ;
#125 = VERTEX_POINT ( 'NONE', #75 ) ;
#126 =( NAMED_UNIT ( * ) SI_UNIT ( $, .STERADIAN. ) SOLID_ANGLE_UNIT ( ) );
#127 = EDGE_CURVE ( 'NONE', #269, #102, #49, .T. ) ;
#128 = PRESENTATION_STYLE_ASSIGNMENT (( #280 ) ) ;
#129 = ORIENTED_EDGE ( 'NONE', *, *, #201, .T. ) ;
#130 = DIRECTION ( 'NONE',  ( 0.0000000000000000000, 0.0000000000000000000, 1.000000000000000000 ) ) ;
#131 = CARTESIAN_POINT ( 'NONE',  ( 0.0000000000000000000, 0.0000000000000000000, 1.485000000000000764 ) ) ;
#132 = AXIS2_PLACEMENT_3D ( 'NONE', #292, #158, #42 ) ;
#133 = VERTEX_POINT ( 'NONE', #24 ) ;
#134 = CONICAL_SURFACE ( 'NONE', #11, 0.04750000000000064587, 0.7853981633974466137 ) ;
#135 = ORIENTED_EDGE ( 'NONE', *, *, #212, .T. ) ;
#136 = DIRECTION ( 'NONE',  ( 0.0000000000000000000, 0.0000000000000000000, 1.000000000000000000 ) ) ;
#137 = DIRECTION ( 'NONE',  ( 1.224646799147353700E-16, 0.0000000000000000000, 1.000000000000000000 ) ) ;
#138 = AXIS2_PLACEMENT_3D ( 'NONE', #208, #18, #139 ) ;
#139 = DIRECTION ( 'NONE',  ( -1.000000000000000000, 0.0000000000000000000, 0.0000000000000000000 ) ) ;
#140 = DIRECTION ( 'NONE',  ( -1.000000000000000000, 0.0000000000000000000, 1.224646799147353700E-16 ) ) ;
#141 = LINE ( 'NONE', #207, #142 ) ;
#142 = VECTOR ( 'NONE', #275, 39.37007874015748854 ) ;
#143 = FILL_AREA_STYLE_COLOUR ( '', #74 ) ;
#144 = PRODUCT_RELATED_PRODUCT_CATEGORY ( 'part', '', ( #103 ) ) ;
#145 = DIRECTION ( 'NONE',  ( 1.000000000000000000, 0.0000000000000000000, -0.0000000000000000000 ) ) ;
#146 = ORIENTED_EDGE ( 'NONE', *, *, #281, .T. ) ;
#147 = AXIS2_PLACEMENT_3D ( 'NONE', #44, #230, #229 ) ;
#148 = LENGTH_MEASURE_WITH_UNIT ( LENGTH_MEASURE( 0.02539999999999999897 ), #234 );
#149 = EDGE_CURVE ( 'NONE', #192, #220, #119, .T. ) ;
#150 = AXIS2_PLACEMENT_3D ( 'NONE', #233, #189, #69 ) ;
#151 = EDGE_LOOP ( 'NONE', ( #279, #206, #195, #108 ) ) ;
#152 = EDGE_LOOP ( 'NONE', ( #84, #284 ) ) ;
#153 = PRODUCT_CONTEXT ( 'NONE', #71, 'mechanical' ) ;
#154 = ORIENTED_EDGE ( 'NONE', *, *, #281, .F. ) ;
#155 = PLANE ( 'NONE',  #293 ) ;
#156 = ADVANCED_FACE ( 'NONE', ( #19 ), #120, .T. ) ;
#157 = DIRECTION ( 'NONE',  ( -1.000000000000000000, 0.0000000000000000000, 0.0000000000000000000 ) ) ;
#158 = DIRECTION ( 'NONE',  ( -1.224646799147353700E-16, -0.0000000000000000000, -1.000000000000000000 ) ) ;
#159 = DIRECTION ( 'NONE',  ( -1.000000000000000000, 0.0000000000000000000, 0.0000000000000000000 ) ) ;
#160 = MECHANICAL_DESIGN_GEOMETRIC_PRESENTATION_REPRESENTATION (  '', ( #124 ), #242 ) ;
#161 = CYLINDRICAL_SURFACE ( 'NONE', #138, 0.06250000000000002776 ) ;
#162 = DIRECTION ( 'NONE',  ( 0.0000000000000000000, 0.0000000000000000000, -1.000000000000000000 ) ) ;
#163 = DIRECTION ( 'NONE',  ( -1.224646799147353700E-16, -0.0000000000000000000, -1.000000000000000000 ) ) ;
#164 = EDGE_CURVE ( 'NONE', #176, #192, #215, .T. ) ;
#165 = AXIS2_PLACEMENT_3D ( 'NONE', #232, #97, #140 ) ;
#166 = DIMENSIONAL_EXPONENTS ( 1.000000000000000000, 0.0000000000000000000, 0.0000000000000000000, 0.0000000000000000000, 0.0000000000000000000, 0.0000000000000000000, 0.0000000000000000000 ) ;
#167 = FACE_OUTER_BOUND ( 'NONE', #54, .T. ) ;
#168 = COLOUR_RGB ( '',0.7921568627450980005, 0.8196078431372548767, 0.9333333333333333481 ) ;
#169 = DIRECTION ( 'NONE',  ( 0.0000000000000000000, 0.0000000000000000000, 1.000000000000000000 ) ) ;
#170 = ORIENTED_EDGE ( 'NONE', *, *, #149, .T. ) ;
#171 = FILL_AREA_STYLE ('',( #32 ) ) ;
#172 =( NAMED_UNIT ( * ) PLANE_ANGLE_UNIT ( ) SI_UNIT ( $, .RADIAN. ) );
#173 = ORIENTED_EDGE ( 'NONE', *, *, #8, .F. ) ;
#174 = AXIS2_PLACEMENT_3D ( 'NONE', #294, #114, #246 ) ;
#175 = AXIS2_PLACEMENT_3D ( 'NONE', #231, #185, #72 ) ;
#176 = VERTEX_POINT ( 'NONE', #118 ) ;
#177 = EDGE_LOOP ( 'NONE', ( #218, #243, #235, #282 ) ) ;
#178 = CARTESIAN_POINT ( 'NONE',  ( 0.0000000000000000000, 0.0000000000000000000, 1.500000000000000222 ) ) ;
#179 = DIRECTION ( 'NONE',  ( -0.0000000000000000000, -0.0000000000000000000, -1.000000000000000000 ) ) ;
#180 = FACE_OUTER_BOUND ( 'NONE', #111, .T. ) ;
#181 = DIRECTION ( 'NONE',  ( 0.1736481776669313581, 0.0000000000000000000, 0.9848077530122077983 ) ) ;
#182 = CARTESIAN_POINT ( 'NONE',  ( 0.06250000000000002776, 7.654042494670959086E-18, 1.485000000000000764 ) ) ;
#183 = CIRCLE ( 'NONE', #132, 0.01098899999999999530 ) ;
#184 = CIRCLE ( 'NONE', #67, 0.04750000000000064587 ) ;
#185 = DIRECTION ( 'NONE',  ( 1.224646799147353700E-16, 0.0000000000000000000, 1.000000000000000000 ) ) ;
#186 = PRODUCT_DEFINITION_CONTEXT ( 'detailed design', #4, 'design' ) ;
#187 = DIRECTION ( 'NONE',  ( 0.0000000000000000000, 0.0000000000000000000, -1.000000000000000000 ) ) ;
#188 = ADVANCED_FACE ( 'NONE', ( #167 ), #134, .T. ) ;
#189 = DIRECTION ( 'NONE',  ( -1.224646799147353700E-16, -0.0000000000000000000, -1.000000000000000000 ) ) ;
#190 = CONICAL_SURFACE ( 'NONE', #56, 0.01098900000000000224, 0.1745329251994338637 ) ;
#191 = SURFACE_SIDE_STYLE ('',( #100 ) ) ;
#192 = VERTEX_POINT ( 'NONE', #270 ) ;
#193 =( NAMED_UNIT ( * ) PLANE_ANGLE_UNIT ( ) SI_UNIT ( $, .RADIAN. ) );
#194 = CIRCLE ( 'NONE', #223, 0.06250000000000002776 ) ;
#195 = ORIENTED_EDGE ( 'NONE', *, *, #278, .F. ) ;
#196 = PRODUCT_DEFINITION ( 'UNKNOWN', '', #265, #186 ) ;
#197 = ORIENTED_EDGE ( 'NONE', *, *, #227, .F. ) ;
#198 = LINE ( 'NONE', #59, #297 ) ;
#199 = VECTOR ( 'NONE', #93, 39.37007874015748143 ) ;
#200 = ORIENTED_EDGE ( 'NONE', *, *, #257, .F. ) ;
#201 = EDGE_CURVE ( 'NONE', #176, #102, #68, .T. ) ;
#202 = CARTESIAN_POINT ( 'NONE',  ( 0.0000000000000000000, 0.0000000000000000000, 1.500000000000000222 ) ) ;
#203 = SHAPE_DEFINITION_REPRESENTATION ( #57, #76 ) ;
#204 = VERTEX_POINT ( 'NONE', #252 ) ;
#205 = CIRCLE ( 'NONE', #16, 0.04750000000000064587 ) ;
#206 = ORIENTED_EDGE ( 'NONE', *, *, #127, .T. ) ;
#207 = CARTESIAN_POINT ( 'NONE',  ( -0.04750000000000064587, 0.0000000000000000000, 1.500000000000000222 ) ) ;
#208 = CARTESIAN_POINT ( 'NONE',  ( 0.0000000000000000000, 0.0000000000000000000, 1.500000000000000222 ) ) ;
#209 = UNCERTAINTY_MEASURE_WITH_UNIT (LENGTH_MEASURE( 1.000000000000000082E-05 ), #216, 'distance_accuracy_value', 'NONE');
#210 = CARTESIAN_POINT ( 'NONE',  ( 0.0000000000000000000, 0.0000000000000000000, 1.500000000000000222 ) ) ;
#211 = CIRCLE ( 'NONE', #95, 0.01098900000000000224 ) ;
#212 = EDGE_CURVE ( 'NONE', #102, #220, #236, .T. ) ;
#213 = DIRECTION ( 'NONE',  ( 1.000000000000000000, 0.0000000000000000000, 0.0000000000000000000 ) ) ;
#214 = CARTESIAN_POINT ( 'NONE',  ( 0.06250000000000002776, 7.654042494670959086E-18, 1.500000000000000222 ) ) ;
#215 = CIRCLE ( 'NONE', #147, 0.01098900000000000224 ) ;
#216 =( CONVERSION_BASED_UNIT ( 'INCH', #217 ) LENGTH_UNIT ( ) NAMED_UNIT ( #26 ) );
#217 = LENGTH_MEASURE_WITH_UNIT ( LENGTH_MEASURE( 0.02539999999999999897 ), #25 );
#218 = ORIENTED_EDGE ( 'NONE', *, *, #249, .F. ) ;
#219 = STYLED_ITEM ( 'NONE', ( #78 ), #285 ) ;
#220 = VERTEX_POINT ( 'NONE', #2 ) ;
#221 = DIRECTION ( 'NONE',  ( 1.000000000000000000, 0.0000000000000000000, 0.0000000000000000000 ) ) ;
#222 = AXIS2_PLACEMENT_3D ( 'NONE', #12, #264, #157 ) ;
#223 = AXIS2_PLACEMENT_3D ( 'NONE', #248, #121, #213 ) ;
#224 = CYLINDRICAL_SURFACE ( 'NONE', #61, 0.06250000000000002776 ) ;
#225 = LINE ( 'NONE', #115, #255 ) ;
#226 = ORIENTED_EDGE ( 'NONE', *, *, #23, .F. ) ;
#227 = EDGE_CURVE ( 'NONE', #204, #77, #141, .T. ) ;
#228 = CIRCLE ( 'NONE', #47, 0.06250000000000002776 ) ;
#229 = DIRECTION ( 'NONE',  ( -1.000000000000000000, 0.0000000000000000000, 0.0000000000000000000 ) ) ;
#230 = DIRECTION ( 'NONE',  ( -1.224646799147353700E-16, -0.0000000000000000000, -1.000000000000000000 ) ) ;
#231 = CARTESIAN_POINT ( 'NONE',  ( 4.041334437186267420E-18, 0.0000000000000000000, 0.03300000000000000155 ) ) ;
#232 = CARTESIAN_POINT ( 'NONE',  ( 0.0000000000000000000, 0.0000000000000000000, 0.0000000000000000000 ) ) ;
#233 = CARTESIAN_POINT ( 'NONE',  ( 0.0000000000000000000, 0.0000000000000000000, 0.0000000000000000000 ) ) ;
#234 =( LENGTH_UNIT ( ) NAMED_UNIT ( * ) SI_UNIT ( $, .METRE. ) );
#235 = ORIENTED_EDGE ( 'NONE', *, *, #13, .T. ) ;
#236 = CIRCLE ( 'NONE', #53, 0.06250000000000002776 ) ;
#237 = ORIENTED_EDGE ( 'NONE', *, *, #8, .T. ) ;
#238 = FACE_OUTER_BOUND ( 'NONE', #239, .T. ) ;
#239 = EDGE_LOOP ( 'NONE', ( #31, #260 ) ) ;
#240 = DIRECTION ( 'NONE',  ( -0.0000000000000000000, -0.0000000000000000000, -1.000000000000000000 ) ) ;
#241 = LINE ( 'NONE', #262, #27 ) ;
#242 =( GEOMETRIC_REPRESENTATION_CONTEXT ( 3 ) GLOBAL_UNCERTAINTY_ASSIGNED_CONTEXT ( ( #273 ) ) GLOBAL_UNIT_ASSIGNED_CONTEXT ( ( #30, #109, #35 ) ) REPRESENTATION_CONTEXT ( 'NONE', 'WORKASPACE' ) );
#243 = ORIENTED_EDGE ( 'NONE', *, *, #164, .T. ) ;
#244 = DIRECTION ( 'NONE',  ( 1.000000000000000000, 0.0000000000000000000, -0.0000000000000000000 ) ) ;
#245 = ADVANCED_FACE ( 'NONE', ( #22 ), #161, .T. ) ;
#246 = DIRECTION ( 'NONE',  ( -1.000000000000000000, 0.0000000000000000000, 1.224646799147353947E-16 ) ) ;
#247 = DIRECTION ( 'NONE',  ( -1.224646799147353700E-16, -0.0000000000000000000, -1.000000000000000000 ) ) ;
#248 = CARTESIAN_POINT ( 'NONE',  ( 3.981735749243193389E-17, 0.0000000000000000000, 0.3251333978103264077 ) ) ;
#249 = EDGE_CURVE ( 'NONE', #176, #125, #66, .T. ) ;
#250 = CARTESIAN_POINT ( 'NONE',  ( 0.01098900000000000571, 0.0000000000000000000, 0.03300000000000000155 ) ) ;
#251 = DIRECTION ( 'NONE',  ( -1.000000000000000000, 0.0000000000000000000, 0.0000000000000000000 ) ) ;
#252 = CARTESIAN_POINT ( 'NONE',  ( -0.04750000000000064587, 0.0000000000000000000, 1.500000000000000222 ) ) ;
#253 = SURFACE_STYLE_FILL_AREA ( #261 ) ;
#254 = SURFACE_SIDE_STYLE ('',( #253 ) ) ;
#255 = VECTOR ( 'NONE', #88, 39.37007874015748143 ) ;
#256 =( LENGTH_UNIT ( ) NAMED_UNIT ( * ) SI_UNIT ( $, .METRE. ) );
#257 = EDGE_CURVE ( 'NONE', #204, #133, #205, .T. ) ;
#258 = ORIENTED_EDGE ( 'NONE', *, *, #227, .T. ) ;
#259 = DIMENSIONAL_EXPONENTS ( 1.000000000000000000, 0.0000000000000000000, 0.0000000000000000000, 0.0000000000000000000, 0.0000000000000000000, 0.0000000000000000000, 0.0000000000000000000 ) ;
#260 = ORIENTED_EDGE ( 'NONE', *, *, #55, .T. ) ;
#261 = FILL_AREA_STYLE ('',( #143 ) ) ;
#262 = CARTESIAN_POINT ( 'NONE',  ( 0.04750000000000064587, 5.817072295950006528E-18, 1.500000000000000222 ) ) ;
#263 = CARTESIAN_POINT ( 'NONE',  ( -0.06250000000000002776, 0.0000000000000000000, 1.485000000000000764 ) ) ;
#264 = DIRECTION ( 'NONE',  ( 0.0000000000000000000, 0.0000000000000000000, -1.000000000000000000 ) ) ;
#265 = PRODUCT_DEFINITION_FORMATION_WITH_SPECIFIED_SOURCE ( 'ANY', '', #103, .NOT_KNOWN. ) ;
#266 =( GEOMETRIC_REPRESENTATION_CONTEXT ( 3 ) GLOBAL_UNCERTAINTY_ASSIGNED_CONTEXT ( ( #101 ) ) GLOBAL_UNIT_ASSIGNED_CONTEXT ( ( #83, #193, #126 ) ) REPRESENTATION_CONTEXT ( 'NONE', 'WORKASPACE' ) );
#267 = FACE_OUTER_BOUND ( 'NONE', #152, .T. ) ;
#268 = EDGE_CURVE ( 'NONE', #269, #77, #228, .T. ) ;
#269 = VERTEX_POINT ( 'NONE', #182 ) ;
#270 = CARTESIAN_POINT ( 'NONE',  ( -0.01098899999999999703, 4.499903431126993417E-18, 0.03300000000000000155 ) ) ;
#271 = AXIS2_PLACEMENT_3D ( 'NONE', #131, #112, #221 ) ;
#272 = CYLINDRICAL_SURFACE ( 'NONE', #165, 0.01098900000000000050 ) ;
#273 = UNCERTAINTY_MEASURE_WITH_UNIT (LENGTH_MEASURE( 1.000000000000000082E-05 ), #30, 'distance_accuracy_value', 'NONE');
#274 = DIRECTION ( 'NONE',  ( -0.1736481776669311639, 2.126576849575783008E-17, 0.9848077530122080203 ) ) ;
#275 = DIRECTION ( 'NONE',  ( -0.7071067811865462405, 0.0000000000000000000, -0.7071067811865486830 ) ) ;
#276 = CARTESIAN_POINT ( 'NONE',  ( 0.0000000000000000000, 0.0000000000000000000, 1.485000000000000764 ) ) ;
#277 = VECTOR ( 'NONE', #274, 39.37007874015747433 ) ;
#278 = EDGE_CURVE ( 'NONE', #220, #102, #194, .T. ) ;
#279 = ORIENTED_EDGE ( 'NONE', *, *, #81, .T. ) ;
#280 = SURFACE_STYLE_USAGE ( .BOTH. , #191 ) ;
#281 = EDGE_CURVE ( 'NONE', #192, #176, #211, .T. ) ;
#282 = ORIENTED_EDGE ( 'NONE', *, *, #55, .F. ) ;
#283 = SURFACE_STYLE_USAGE ( .BOTH. , #254 ) ;
#284 = ORIENTED_EDGE ( 'NONE', *, *, #92, .T. ) ;
#285 = MANIFOLD_SOLID_BREP ( 'Cut-Revolve1', #20 ) ;
#286 = EDGE_LOOP ( 'NONE', ( #154, #170, #110, #63 ) ) ;
#287 = FACE_OUTER_BOUND ( 'NONE', #85, .T. ) ;
#288 = PRESENTATION_LAYER_ASSIGNMENT (  '', '', ( #124 ) ) ;
#289 = ORIENTED_EDGE ( 'NONE', *, *, #127, .F. ) ;
#290 = ORIENTED_EDGE ( 'NONE', *, *, #268, .T. ) ;
#291 = ADVANCED_FACE ( 'NONE', ( #238 ), #48, .F. ) ;
#292 = CARTESIAN_POINT ( 'NONE',  ( 1.648086025167116200E-34, 0.0000000000000000000, 1.345764367583026593E-18 ) ) ;
#293 = AXIS2_PLACEMENT_3D ( 'NONE', #202, #40, #244 ) ;
#294 = CARTESIAN_POINT ( 'NONE',  ( 1.648086025167116200E-34, 0.0000000000000000000, 1.345764367583026593E-18 ) ) ;
#295 = CARTESIAN_POINT ( 'NONE',  ( -0.01098899999999999703, 1.345764367583026786E-18, 0.03300000000000000155 ) ) ;
#296 = DIRECTION ( 'NONE',  ( 0.0000000000000000000, 0.0000000000000000000, 1.000000000000000000 ) ) ;
#297 = VECTOR ( 'NONE', #240, 39.37007874015748143 ) ;
#298 = AXIS2_PLACEMENT_3D ( 'NONE', #79, #169, #145 ) ;
#299 = FACE_OUTER_BOUND ( 'NONE', #177, .T. ) ;
ENDSEC;
END-ISO-10303-21;
