ISO-10303-21;
HEADER;
FILE_DESCRIPTION (( 'STEP AP214' ),
    '1' );
FILE_NAME ('Micro_BEM-187-04X.STEP',
    '2021-09-03T13:05:53',
    ( '' ),
    ( '' ),
    'SwSTEP 2.0',
    'SolidWorks 2020',
    '' );
FILE_SCHEMA (( 'AUTOMOTIVE_DESIGN' ));
ENDSEC;

DATA;
#1 = CARTESIAN_POINT ( 'NONE',  ( -0.09374999999999994449, 0.0000000000000000000, 0.6255316826705892286 ) ) ;
#2 = VERTEX_POINT ( 'NONE', #105 ) ;
#3 = DIRECTION ( 'NONE',  ( -1.224646799147353207E-16, -0.0000000000000000000, -1.000000000000000000 ) ) ;
#4 = ORIENTED_EDGE ( 'NONE', *, *, #272, .F. ) ;
#5 = ORIENTED_EDGE ( 'NONE', *, *, #183, .F. ) ;
#6 = EDGE_LOOP ( 'NONE', ( #61, #200, #281, #155 ) ) ;
#7 = EDGE_LOOP ( 'NONE', ( #310, #108, #55, #288 ) ) ;
#8 = FACE_OUTER_BOUND ( 'NONE', #232, .T. ) ;
#9 = COLOUR_RGB ( '',0.7921568627450980005, 0.8196078431372548767, 0.9333333333333333481 ) ;
#10 = DIMENSIONAL_EXPONENTS ( 1.000000000000000000, 0.0000000000000000000, 0.0000000000000000000, 0.0000000000000000000, 0.0000000000000000000, 0.0000000000000000000, 0.0000000000000000000 ) ;
#11 = EDGE_CURVE ( 'NONE', #115, #197, #223, .T. ) ;
#12 = CARTESIAN_POINT ( 'NONE',  ( 0.0000000000000000000, 0.0000000000000000000, 2.000000000000000000 ) ) ;
#13 = FACE_OUTER_BOUND ( 'NONE', #306, .T. ) ;
#14 = VECTOR ( 'NONE', #297, 39.37007874015748143 ) ;
#15 = CARTESIAN_POINT ( 'NONE',  ( 0.09375000000000001388, 1.148106374200643863E-17, 2.000000000000000000 ) ) ;
#16 = CARTESIAN_POINT ( 'NONE',  ( 0.0000000000000000000, 0.0000000000000000000, 1.984999999999999654 ) ) ;
#17 = EDGE_CURVE ( 'NONE', #259, #197, #139, .T. ) ;
#18 = CARTESIAN_POINT ( 'NONE',  ( 0.0000000000000000000, 0.0000000000000000000, 2.000000000000000000 ) ) ;
#19 = PRODUCT_RELATED_PRODUCT_CATEGORY ( 'part', '', ( #217 ) ) ;
#20 = AXIS2_PLACEMENT_3D ( 'NONE', #229, #224, #96 ) ;
#21 =( NAMED_UNIT ( * ) PLANE_ANGLE_UNIT ( ) SI_UNIT ( $, .RADIAN. ) );
#22 = CARTESIAN_POINT ( 'NONE',  ( -0.09365624999999992706, 1.146958267826442798E-17, 0.6250000000000000000 ) ) ;
#23 =( NAMED_UNIT ( * ) PLANE_ANGLE_UNIT ( ) SI_UNIT ( $, .RADIAN. ) );
#24 = VECTOR ( 'NONE', #76, 39.37007874015748143 ) ;
#25 = CIRCLE ( 'NONE', #77, 0.09375000000000001388 ) ;
#26 = FACE_OUTER_BOUND ( 'NONE', #285, .T. ) ;
#27 = DIRECTION ( 'NONE',  ( -1.224646799147353207E-16, -0.0000000000000000000, -1.000000000000000000 ) ) ;
#28 = UNCERTAINTY_MEASURE_WITH_UNIT (LENGTH_MEASURE( 1.000000000000000082E-05 ), #192, 'distance_accuracy_value', 'NONE');
#29 = SURFACE_SIDE_STYLE ('',( #106 ) ) ;
#30 = VERTEX_POINT ( 'NONE', #81 ) ;
#31 = CARTESIAN_POINT ( 'NONE',  ( 0.0000000000000000000, 0.0000000000000000000, 2.000000000000000000 ) ) ;
#32 = AXIS2_PLACEMENT_3D ( 'NONE', #226, #179, #72 ) ;
#33 = AXIS2_PLACEMENT_3D ( 'NONE', #89, #312, #122 ) ;
#34 =( LENGTH_UNIT ( ) NAMED_UNIT ( * ) SI_UNIT ( $, .METRE. ) );
#35 = DIRECTION ( 'NONE',  ( -1.224646799147353207E-16, -0.0000000000000000000, -1.000000000000000000 ) ) ;
#36 = ADVANCED_BREP_SHAPE_REPRESENTATION ( 'Micro_BEM-187-04X', ( #194, #100 ), #257 ) ;
#37 = DIRECTION ( 'NONE',  ( 1.000000000000000000, 0.0000000000000000000, 0.0000000000000000000 ) ) ;
#38 = AXIS2_PLACEMENT_3D ( 'NONE', #73, #180, #144 ) ;
#39 = EDGE_CURVE ( 'NONE', #30, #80, #90, .T. ) ;
#40 = ORIENTED_EDGE ( 'NONE', *, *, #60, .F. ) ;
#41 = CARTESIAN_POINT ( 'NONE',  ( 7.654042494670957853E-17, 0.0000000000000000000, 0.6250000000000000000 ) ) ;
#42 = CARTESIAN_POINT ( 'NONE',  ( 0.09375000000000001388, 1.148106374200643863E-17, 1.984999999999999654 ) ) ;
#43 =( GEOMETRIC_REPRESENTATION_CONTEXT ( 3 ) GLOBAL_UNCERTAINTY_ASSIGNED_CONTEXT ( ( #321 ) ) GLOBAL_UNIT_ASSIGNED_CONTEXT ( ( #54, #21, #49 ) ) REPRESENTATION_CONTEXT ( 'NONE', 'WORKASPACE' ) );
#44 = SURFACE_STYLE_FILL_AREA ( #248 ) ;
#45 = APPLICATION_CONTEXT ( 'automotive_design' ) ;
#46 = DIRECTION ( 'NONE',  ( -0.7071067811865463515, 0.0000000000000000000, -0.7071067811865486830 ) ) ;
#47 = LINE ( 'NONE', #151, #118 ) ;
#48 = EDGE_CURVE ( 'NONE', #206, #2, #307, .T. ) ;
#49 =( NAMED_UNIT ( * ) SI_UNIT ( $, .STERADIAN. ) SOLID_ANGLE_UNIT ( ) );
#50 = AXIS2_PLACEMENT_3D ( 'NONE', #164, #88, #239 ) ;
#51 = DIRECTION ( 'NONE',  ( 0.0000000000000000000, 0.0000000000000000000, 1.000000000000000000 ) ) ;
#52 = PRODUCT_DEFINITION_FORMATION_WITH_SPECIFIED_SOURCE ( 'ANY', '', #217, .NOT_KNOWN. ) ;
#53 = CARTESIAN_POINT ( 'NONE',  ( 0.09365624999999999645, 1.146958267826442798E-17, -1.146958267826442798E-17 ) ) ;
#54 =( CONVERSION_BASED_UNIT ( 'INCH', #104 ) LENGTH_UNIT ( ) NAMED_UNIT ( #64 ) );
#55 = ORIENTED_EDGE ( 'NONE', *, *, #95, .T. ) ;
#56 = CARTESIAN_POINT ( 'NONE',  ( 7.660553729477949085E-17, 0.0000000000000000000, 0.6255316826705892286 ) ) ;
#57 = ORIENTED_EDGE ( 'NONE', *, *, #267, .F. ) ;
#58 = CARTESIAN_POINT ( 'NONE',  ( 7.654042494670957853E-17, 0.0000000000000000000, 0.6250000000000000000 ) ) ;
#59 = VECTOR ( 'NONE', #273, 39.37007874015748143 ) ;
#60 = EDGE_CURVE ( 'NONE', #197, #115, #145, .T. ) ;
#61 = ORIENTED_EDGE ( 'NONE', *, *, #219, .F. ) ;
#62 = ORIENTED_EDGE ( 'NONE', *, *, #95, .F. ) ;
#63 = DIRECTION ( 'NONE',  ( -1.224646799147353207E-16, -0.0000000000000000000, -1.000000000000000000 ) ) ;
#64 = DIMENSIONAL_EXPONENTS ( 1.000000000000000000, 0.0000000000000000000, 0.0000000000000000000, 0.0000000000000000000, 0.0000000000000000000, 0.0000000000000000000, 0.0000000000000000000 ) ;
#65 = LINE ( 'NONE', #15, #162 ) ;
#66 = LINE ( 'NONE', #264, #128 ) ;
#67 = DIRECTION ( 'NONE',  ( 0.0000000000000000000, -1.000000000000000000, 0.0000000000000000000 ) ) ;
#68 = DIRECTION ( 'NONE',  ( -1.000000000000000000, 0.0000000000000000000, 1.823055050827002517E-16 ) ) ;
#69 = EDGE_CURVE ( 'NONE', #87, #82, #319, .T. ) ;
#70 = MECHANICAL_DESIGN_GEOMETRIC_PRESENTATION_REPRESENTATION (  '', ( #75 ), #247 ) ;
#71 = CARTESIAN_POINT ( 'NONE',  ( 0.0000000000000000000, 0.0000000000000000000, 2.000000000000000000 ) ) ;
#72 = DIRECTION ( 'NONE',  ( 1.000000000000000000, 0.0000000000000000000, 0.0000000000000000000 ) ) ;
#73 = CARTESIAN_POINT ( 'NONE',  ( 7.654042494670957853E-17, 0.0000000000000000000, 0.6250000000000000000 ) ) ;
#74 = CARTESIAN_POINT ( 'NONE',  ( -0.09365624999999992706, 1.147532321013543253E-17, 0.6250000000000000000 ) ) ;
#75 = STYLED_ITEM ( 'NONE', ( #127 ), #194 ) ;
#76 = DIRECTION ( 'NONE',  ( -0.0000000000000000000, -0.0000000000000000000, -1.000000000000000000 ) ) ;
#77 = AXIS2_PLACEMENT_3D ( 'NONE', #83, #309, #218 ) ;
#78 = SPHERICAL_SURFACE ( 'NONE', #291, 0.09365624999999999645 ) ;
#79 = ORIENTED_EDGE ( 'NONE', *, *, #11, .F. ) ;
#80 = VERTEX_POINT ( 'NONE', #231 ) ;
#81 = CARTESIAN_POINT ( 'NONE',  ( -0.07874999999999980627, 0.0000000000000000000, 2.000000000000000000 ) ) ;
#82 = VERTEX_POINT ( 'NONE', #304 ) ;
#83 = CARTESIAN_POINT ( 'NONE',  ( 0.0000000000000000000, 0.0000000000000000000, 1.984999999999999654 ) ) ;
#84 = CIRCLE ( 'NONE', #268, 0.09365624999999999645 ) ;
#85 = EDGE_CURVE ( 'NONE', #2, #206, #176, .T. ) ;
#86 = DIRECTION ( 'NONE',  ( -1.000000000000000000, 0.0000000000000000000, 0.0000000000000000000 ) ) ;
#87 = VERTEX_POINT ( 'NONE', #311 ) ;
#88 = DIRECTION ( 'NONE',  ( 0.0000000000000000000, 0.0000000000000000000, 1.000000000000000000 ) ) ;
#89 = CARTESIAN_POINT ( 'NONE',  ( 1.146958267826442798E-17, 0.0000000000000000000, 0.09365624999999999645 ) ) ;
#90 = CIRCLE ( 'NONE', #236, 0.07874999999999980627 ) ;
#91 = AXIS2_PLACEMENT_3D ( 'NONE', #16, #170, #314 ) ;
#92 = PRESENTATION_LAYER_ASSIGNMENT (  '', '', ( #282 ) ) ;
#93 = EDGE_CURVE ( 'NONE', #80, #30, #94, .T. ) ;
#94 = CIRCLE ( 'NONE', #50, 0.07874999999999980627 ) ;
#95 = EDGE_CURVE ( 'NONE', #228, #82, #84, .T. ) ;
#96 = DIRECTION ( 'NONE',  ( 1.000000000000000000, 0.0000000000000000000, -0.0000000000000000000 ) ) ;
#97 = FILL_AREA_STYLE_COLOUR ( '', #262 ) ;
#98 = DIRECTION ( 'NONE',  ( -0.1736481776669311639, 2.126576849575783008E-17, 0.9848077530122080203 ) ) ;
#99 = AXIS2_PLACEMENT_3D ( 'NONE', #58, #35, #234 ) ;
#100 = AXIS2_PLACEMENT_3D ( 'NONE', #196, #193, #325 ) ;
#101 = DIRECTION ( 'NONE',  ( 0.0000000000000000000, 1.000000000000000000, 0.0000000000000000000 ) ) ;
#102 = ORIENTED_EDGE ( 'NONE', *, *, #134, .F. ) ;
#103 = FACE_OUTER_BOUND ( 'NONE', #111, .T. ) ;
#104 = LENGTH_MEASURE_WITH_UNIT ( LENGTH_MEASURE( 0.02539999999999999897 ), #129 );
#105 = CARTESIAN_POINT ( 'NONE',  ( 0.09365625000000006584, 0.0000000000000000000, 0.6250000000000000000 ) ) ;
#106 = SURFACE_STYLE_FILL_AREA ( #227 ) ;
#107 = AXIS2_PLACEMENT_3D ( 'NONE', #156, #277, #230 ) ;
#108 = ORIENTED_EDGE ( 'NONE', *, *, #244, .T. ) ;
#109 = ORIENTED_EDGE ( 'NONE', *, *, #154, .F. ) ;
#110 = ORIENTED_EDGE ( 'NONE', *, *, #17, .T. ) ;
#111 = EDGE_LOOP ( 'NONE', ( #5, #133, #62 ) ) ;
#112 = EDGE_CURVE ( 'NONE', #80, #184, #66, .T. ) ;
#113 = CYLINDRICAL_SURFACE ( 'NONE', #316, 0.09365624999999999645 ) ;
#114 = PRODUCT_DEFINITION ( 'UNKNOWN', '', #52, #276 ) ;
#115 = VERTEX_POINT ( 'NONE', #241 ) ;
#116 = ORIENTED_EDGE ( 'NONE', *, *, #112, .T. ) ;
#117 = DIRECTION ( 'NONE',  ( -1.000000000000000000, 0.0000000000000000000, 0.0000000000000000000 ) ) ;
#118 = VECTOR ( 'NONE', #130, 39.37007874015748143 ) ;
#119 = EDGE_CURVE ( 'NONE', #184, #259, #136, .T. ) ;
#120 = DIRECTION ( 'NONE',  ( -0.0000000000000000000, -0.0000000000000000000, -1.000000000000000000 ) ) ;
#121 = DIRECTION ( 'NONE',  ( -0.0000000000000000000, -0.0000000000000000000, -1.000000000000000000 ) ) ;
#122 = DIRECTION ( 'NONE',  ( 1.000000000000000000, 0.0000000000000000000, 0.0000000000000000000 ) ) ;
#123 = VECTOR ( 'NONE', #98, 39.37007874015747433 ) ;
#124 = FACE_OUTER_BOUND ( 'NONE', #263, .T. ) ;
#125 =( NAMED_UNIT ( * ) PLANE_ANGLE_UNIT ( ) SI_UNIT ( $, .RADIAN. ) );
#126 = DIRECTION ( 'NONE',  ( 0.0000000000000000000, 0.0000000000000000000, -1.000000000000000000 ) ) ;
#127 = PRESENTATION_STYLE_ASSIGNMENT (( #270 ) ) ;
#128 = VECTOR ( 'NONE', #213, 39.37007874015748143 ) ;
#129 =( LENGTH_UNIT ( ) NAMED_UNIT ( * ) SI_UNIT ( $, .METRE. ) );
#130 = DIRECTION ( 'NONE',  ( 0.1736481776669313581, 0.0000000000000000000, 0.9848077530122077983 ) ) ;
#131 = ORIENTED_EDGE ( 'NONE', *, *, #85, .T. ) ;
#132 = DIRECTION ( 'NONE',  ( -1.000000000000000000, 0.0000000000000000000, 0.0000000000000000000 ) ) ;
#133 = ORIENTED_EDGE ( 'NONE', *, *, #69, .T. ) ;
#134 = EDGE_CURVE ( 'NONE', #184, #115, #65, .T. ) ;
#135 = LENGTH_MEASURE_WITH_UNIT ( LENGTH_MEASURE( 0.02539999999999999897 ), #34 );
#136 = CIRCLE ( 'NONE', #91, 0.09375000000000001388 ) ;
#137 = ORIENTED_EDGE ( 'NONE', *, *, #48, .F. ) ;
#138 = ORIENTED_EDGE ( 'NONE', *, *, #283, .T. ) ;
#139 = LINE ( 'NONE', #301, #24 ) ;
#140 = APPLICATION_CONTEXT ( 'automotive_design' ) ;
#141 = DIMENSIONAL_EXPONENTS ( 1.000000000000000000, 0.0000000000000000000, 0.0000000000000000000, 0.0000000000000000000, 0.0000000000000000000, 0.0000000000000000000, 0.0000000000000000000 ) ;
#142 = DIRECTION ( 'NONE',  ( -1.000000000000000000, 0.0000000000000000000, 1.224646799147352961E-16 ) ) ;
#143 = CONICAL_SURFACE ( 'NONE', #240, 0.07874999999999980627, 0.7853981633974466137 ) ;
#144 = DIRECTION ( 'NONE',  ( -1.000000000000000000, 0.0000000000000000000, 0.0000000000000000000 ) ) ;
#145 = CIRCLE ( 'NONE', #166, 0.09375000000000001388 ) ;
#146 = DIRECTION ( 'NONE',  ( 1.224646799147353207E-16, 0.0000000000000000000, 1.000000000000000000 ) ) ;
#147 = FACE_OUTER_BOUND ( 'NONE', #6, .T. ) ;
#148 = FACE_OUTER_BOUND ( 'NONE', #182, .T. ) ;
#149 = CARTESIAN_POINT ( 'NONE',  ( -0.09375000000000001388, 0.0000000000000000000, 1.984999999999999654 ) ) ;
#150 = UNCERTAINTY_MEASURE_WITH_UNIT (LENGTH_MEASURE( 1.000000000000000082E-05 ), #260, 'distance_accuracy_value', 'NONE');
#151 = CARTESIAN_POINT ( 'NONE',  ( 0.09365625000000006584, 0.0000000000000000000, 0.6250000000000000000 ) ) ;
#152 = ORIENTED_EDGE ( 'NONE', *, *, #69, .F. ) ;
#153 = CYLINDRICAL_SURFACE ( 'NONE', #315, 0.09365624999999999645 ) ;
#154 = EDGE_CURVE ( 'NONE', #82, #228, #313, .T. ) ;
#155 = ORIENTED_EDGE ( 'NONE', *, *, #11, .T. ) ;
#156 = CARTESIAN_POINT ( 'NONE',  ( 1.146958267826442798E-17, 0.0000000000000000000, 0.09365624999999999645 ) ) ;
#157 = ORIENTED_EDGE ( 'NONE', *, *, #154, .T. ) ;
#158 = AXIS2_PLACEMENT_3D ( 'NONE', #18, #121, #318 ) ;
#159 = ORIENTED_EDGE ( 'NONE', *, *, #119, .F. ) ;
#160 = EDGE_LOOP ( 'NONE', ( #138, #210, #40, #235 ) ) ;
#161 = DIRECTION ( 'NONE',  ( 0.0000000000000000000, 0.0000000000000000000, -1.000000000000000000 ) ) ;
#162 = VECTOR ( 'NONE', #120, 39.37007874015748143 ) ;
#163 = MECHANICAL_DESIGN_GEOMETRIC_PRESENTATION_REPRESENTATION (  '', ( #282 ), #43 ) ;
#164 = CARTESIAN_POINT ( 'NONE',  ( 0.0000000000000000000, 0.0000000000000000000, 2.000000000000000000 ) ) ;
#165 = CARTESIAN_POINT ( 'NONE',  ( 0.0000000000000000000, 0.0000000000000000000, 0.0000000000000000000 ) ) ;
#166 = AXIS2_PLACEMENT_3D ( 'NONE', #56, #27, #258 ) ;
#167 = ADVANCED_FACE ( 'NONE', ( #289 ), #189, .T. ) ;
#168 = DIRECTION ( 'NONE',  ( 0.0000000000000000000, 0.0000000000000000000, -1.000000000000000000 ) ) ;
#169 = DIRECTION ( 'NONE',  ( 1.224646799147353207E-16, 0.0000000000000000000, 1.000000000000000000 ) ) ;
#170 = DIRECTION ( 'NONE',  ( 0.0000000000000000000, 0.0000000000000000000, -1.000000000000000000 ) ) ;
#171 = LINE ( 'NONE', #245, #216 ) ;
#172 = PLANE ( 'NONE',  #20 ) ;
#173 = LINE ( 'NONE', #53, #59 ) ;
#174 = CARTESIAN_POINT ( 'NONE',  ( 1.146958267826442798E-17, 0.0000000000000000000, 0.09365624999999999645 ) ) ;
#175 = FACE_OUTER_BOUND ( 'NONE', #279, .T. ) ;
#176 = CIRCLE ( 'NONE', #99, 0.09365624999999999645 ) ;
#177 = APPLICATION_PROTOCOL_DEFINITION ( 'draft international standard', 'automotive_design', 1998, #140 ) ;
#178 = ORIENTED_EDGE ( 'NONE', *, *, #183, .T. ) ;
#179 = DIRECTION ( 'NONE',  ( 1.224646799147353207E-16, 0.0000000000000000000, 1.000000000000000000 ) ) ;
#180 = DIRECTION ( 'NONE',  ( -1.224646799147353207E-16, -0.0000000000000000000, -1.000000000000000000 ) ) ;
#181 = EDGE_LOOP ( 'NONE', ( #102, #203, #110, #79 ) ) ;
#182 = EDGE_LOOP ( 'NONE', ( #152, #178, #109 ) ) ;
#183 = EDGE_CURVE ( 'NONE', #87, #228, #207, .T. ) ;
#184 = VERTEX_POINT ( 'NONE', #42 ) ;
#185 = ADVANCED_FACE ( 'NONE', ( #147 ), #261, .T. ) ;
#186 = CARTESIAN_POINT ( 'NONE',  ( 7.660553729477949085E-17, 0.0000000000000000000, 0.6255316826705892286 ) ) ;
#187 = AXIS2_PLACEMENT_3D ( 'NONE', #188, #242, #215 ) ;
#188 = CARTESIAN_POINT ( 'NONE',  ( 1.146958267826442798E-17, 0.0000000000000000000, 0.09365624999999999645 ) ) ;
#189 = CYLINDRICAL_SURFACE ( 'NONE', #158, 0.09375000000000001388 ) ;
#190 = AXIS2_PLACEMENT_3D ( 'NONE', #12, #208, #86 ) ;
#191 = DIRECTION ( 'NONE',  ( -1.000000000000000000, 0.0000000000000000000, 1.224646799147352961E-16 ) ) ;
#192 =( CONVERSION_BASED_UNIT ( 'INCH', #322 ) LENGTH_UNIT ( ) NAMED_UNIT ( #141 ) );
#193 = DIRECTION ( 'NONE',  ( 0.0000000000000000000, 0.0000000000000000000, 1.000000000000000000 ) ) ;
#194 = MANIFOLD_SOLID_BREP ( 'Fillet1', #202 ) ;
#195 = DIRECTION ( 'NONE',  ( 1.000000000000000000, 0.0000000000000000000, 0.0000000000000000000 ) ) ;
#196 = CARTESIAN_POINT ( 'NONE',  ( 0.0000000000000000000, 0.0000000000000000000, 0.0000000000000000000 ) ) ;
#197 = VERTEX_POINT ( 'NONE', #1 ) ;
#198 = ADVANCED_FACE ( 'NONE', ( #103 ), #78, .T. ) ;
#199 = CARTESIAN_POINT ( 'NONE',  ( 1.146958267826442798E-17, 0.0000000000000000000, 0.09365624999999999645 ) ) ;
#200 = ORIENTED_EDGE ( 'NONE', *, *, #85, .F. ) ;
#201 =( NAMED_UNIT ( * ) SI_UNIT ( $, .STERADIAN. ) SOLID_ANGLE_UNIT ( ) );
#202 = CLOSED_SHELL ( 'NONE', ( #198, #317, #290, #212, #323, #167, #225, #302, #185, #249, #308 ) ) ;
#203 = ORIENTED_EDGE ( 'NONE', *, *, #119, .T. ) ;
#204 = ORIENTED_EDGE ( 'NONE', *, *, #244, .F. ) ;
#205 = DIRECTION ( 'NONE',  ( 1.000000000000000000, 0.0000000000000000000, 0.0000000000000000000 ) ) ;
#206 = VERTEX_POINT ( 'NONE', #74 ) ;
#207 = CIRCLE ( 'NONE', #265, 0.09365624999999999645 ) ;
#208 = DIRECTION ( 'NONE',  ( -0.0000000000000000000, -0.0000000000000000000, -1.000000000000000000 ) ) ;
#209 = ORIENTED_EDGE ( 'NONE', *, *, #219, .T. ) ;
#210 = ORIENTED_EDGE ( 'NONE', *, *, #134, .T. ) ;
#211 = FACE_OUTER_BOUND ( 'NONE', #7, .T. ) ;
#212 = ADVANCED_FACE ( 'NONE', ( #175 ), #143, .T. ) ;
#213 = DIRECTION ( 'NONE',  ( 0.7071067811865463515, 8.659560562354916834E-17, -0.7071067811865486830 ) ) ;
#214 = AXIS2_PLACEMENT_3D ( 'NONE', #186, #63, #299 ) ;
#215 = DIRECTION ( 'NONE',  ( -1.000000000000000000, 0.0000000000000000000, 1.823055050827002517E-16 ) ) ;
#216 = VECTOR ( 'NONE', #46, 39.37007874015748143 ) ;
#217 = PRODUCT ( 'Micro_BEM-187-04X', 'Micro_BEM-187-04X', '', ( #298 ) ) ;
#218 = DIRECTION ( 'NONE',  ( 1.000000000000000000, 0.0000000000000000000, 0.0000000000000000000 ) ) ;
#219 = EDGE_CURVE ( 'NONE', #206, #197, #295, .T. ) ;
#220 = CARTESIAN_POINT ( 'NONE',  ( 0.0000000000000000000, 0.0000000000000000000, 0.0000000000000000000 ) ) ;
#221 = SHAPE_DEFINITION_REPRESENTATION ( #250, #36 ) ;
#222 = PRESENTATION_STYLE_ASSIGNMENT (( #253 ) ) ;
#223 = CIRCLE ( 'NONE', #214, 0.09375000000000001388 ) ;
#224 = DIRECTION ( 'NONE',  ( 0.0000000000000000000, 0.0000000000000000000, 1.000000000000000000 ) ) ;
#225 = ADVANCED_FACE ( 'NONE', ( #26 ), #172, .T. ) ;
#226 = CARTESIAN_POINT ( 'NONE',  ( 7.654042494670957853E-17, 0.0000000000000000000, 0.6250000000000000000 ) ) ;
#227 = FILL_AREA_STYLE ('',( #97 ) ) ;
#228 = VERTEX_POINT ( 'NONE', #300 ) ;
#229 = CARTESIAN_POINT ( 'NONE',  ( 0.0000000000000000000, 0.0000000000000000000, 2.000000000000000000 ) ) ;
#230 = DIRECTION ( 'NONE',  ( -1.000000000000000000, 1.224646799147352961E-16, 0.0000000000000000000 ) ) ;
#231 = CARTESIAN_POINT ( 'NONE',  ( 0.07874999999999980627, 1.056257864264590573E-17, 2.000000000000000000 ) ) ;
#232 = EDGE_LOOP ( 'NONE', ( #137, #209, #280, #4 ) ) ;
#233 = EDGE_CURVE ( 'NONE', #206, #82, #275, .T. ) ;
#234 = DIRECTION ( 'NONE',  ( -1.000000000000000000, 0.0000000000000000000, 0.0000000000000000000 ) ) ;
#235 = ORIENTED_EDGE ( 'NONE', *, *, #17, .F. ) ;
#236 = AXIS2_PLACEMENT_3D ( 'NONE', #31, #51, #205 ) ;
#237 = AXIS2_PLACEMENT_3D ( 'NONE', #286, #161, #117 ) ;
#238 = CYLINDRICAL_SURFACE ( 'NONE', #190, 0.09375000000000001388 ) ;
#239 = DIRECTION ( 'NONE',  ( 1.000000000000000000, 0.0000000000000000000, 0.0000000000000000000 ) ) ;
#240 = AXIS2_PLACEMENT_3D ( 'NONE', #71, #126, #132 ) ;
#241 = CARTESIAN_POINT ( 'NONE',  ( 0.09375000000000006939, 1.148106374200644633E-17, 0.6255316826705892286 ) ) ;
#242 = DIRECTION ( 'NONE',  ( 1.224646799147353207E-16, 0.0000000000000000000, 1.000000000000000000 ) ) ;
#243 = SPHERICAL_SURFACE ( 'NONE', #33, 0.09365624999999999645 ) ;
#244 = EDGE_CURVE ( 'NONE', #2, #228, #173, .T. ) ;
#245 = CARTESIAN_POINT ( 'NONE',  ( -0.07874999999999980627, 0.0000000000000000000, 2.000000000000000000 ) ) ;
#246 =( NAMED_UNIT ( * ) SI_UNIT ( $, .STERADIAN. ) SOLID_ANGLE_UNIT ( ) );
#247 =( GEOMETRIC_REPRESENTATION_CONTEXT ( 3 ) GLOBAL_UNCERTAINTY_ASSIGNED_CONTEXT ( ( #28 ) ) GLOBAL_UNIT_ASSIGNED_CONTEXT ( ( #192, #23, #201 ) ) REPRESENTATION_CONTEXT ( 'NONE', 'WORKASPACE' ) );
#248 = FILL_AREA_STYLE ('',( #293 ) ) ;
#249 = ADVANCED_FACE ( 'NONE', ( #124 ), #153, .T. ) ;
#250 = PRODUCT_DEFINITION_SHAPE ( 'NONE', 'NONE',  #114 ) ;
#251 = ORIENTED_EDGE ( 'NONE', *, *, #93, .F. ) ;
#252 =( LENGTH_UNIT ( ) NAMED_UNIT ( * ) SI_UNIT ( $, .METRE. ) );
#253 = SURFACE_STYLE_USAGE ( .BOTH. , #29 ) ;
#254 = ORIENTED_EDGE ( 'NONE', *, *, #283, .F. ) ;
#255 = ORIENTED_EDGE ( 'NONE', *, *, #39, .F. ) ;
#256 = ORIENTED_EDGE ( 'NONE', *, *, #112, .F. ) ;
#257 =( GEOMETRIC_REPRESENTATION_CONTEXT ( 3 ) GLOBAL_UNCERTAINTY_ASSIGNED_CONTEXT ( ( #150 ) ) GLOBAL_UNIT_ASSIGNED_CONTEXT ( ( #260, #125, #246 ) ) REPRESENTATION_CONTEXT ( 'NONE', 'WORKASPACE' ) );
#258 = DIRECTION ( 'NONE',  ( 1.000000000000000000, 0.0000000000000000000, 0.0000000000000000000 ) ) ;
#259 = VERTEX_POINT ( 'NONE', #149 ) ;
#260 =( CONVERSION_BASED_UNIT ( 'INCH', #135 ) LENGTH_UNIT ( ) NAMED_UNIT ( #10 ) );
#261 = CONICAL_SURFACE ( 'NONE', #32, 0.09365624999999999645, 0.1745329251994338637 ) ;
#262 = COLOUR_RGB ( '',0.7921568627450980005, 0.8196078431372548767, 0.9333333333333333481 ) ;
#263 = EDGE_LOOP ( 'NONE', ( #204, #131, #287, #157 ) ) ;
#264 = CARTESIAN_POINT ( 'NONE',  ( 0.07874999999999980627, 9.644093543285380530E-18, 2.000000000000000000 ) ) ;
#265 = AXIS2_PLACEMENT_3D ( 'NONE', #292, #67, #168 ) ;
#266 = FACE_OUTER_BOUND ( 'NONE', #160, .T. ) ;
#267 = EDGE_CURVE ( 'NONE', #30, #259, #171, .T. ) ;
#268 = AXIS2_PLACEMENT_3D ( 'NONE', #174, #146, #68 ) ;
#269 = CONICAL_SURFACE ( 'NONE', #237, 0.07874999999999980627, 0.7853981633974466137 ) ;
#270 = SURFACE_STYLE_USAGE ( .BOTH. , #278 ) ;
#271 = CARTESIAN_POINT ( 'NONE',  ( -0.09365624999999999645, 0.0000000000000000000, 1.146958267826442798E-17 ) ) ;
#272 = EDGE_CURVE ( 'NONE', #2, #115, #47, .T. ) ;
#273 = DIRECTION ( 'NONE',  ( -1.224646799147353207E-16, -0.0000000000000000000, -1.000000000000000000 ) ) ;
#274 = ORIENTED_EDGE ( 'NONE', *, *, #39, .T. ) ;
#275 = LINE ( 'NONE', #271, #14 ) ;
#276 = PRODUCT_DEFINITION_CONTEXT ( 'detailed design', #140, 'design' ) ;
#277 = DIRECTION ( 'NONE',  ( 1.224646799147353207E-16, 1.000000000000000000, -0.0000000000000000000 ) ) ;
#278 = SURFACE_SIDE_STYLE ('',( #44 ) ) ;
#279 = EDGE_LOOP ( 'NONE', ( #251, #116, #254, #57 ) ) ;
#280 = ORIENTED_EDGE ( 'NONE', *, *, #60, .T. ) ;
#281 = ORIENTED_EDGE ( 'NONE', *, *, #272, .T. ) ;
#282 = STYLED_ITEM ( 'NONE', ( #222 ), #36 ) ;
#283 = EDGE_CURVE ( 'NONE', #259, #184, #25, .T. ) ;
#284 = DIRECTION ( 'NONE',  ( -1.224646799147353207E-16, -0.0000000000000000000, -1.000000000000000000 ) ) ;
#285 = EDGE_LOOP ( 'NONE', ( #274, #305 ) ) ;
#286 = CARTESIAN_POINT ( 'NONE',  ( 0.0000000000000000000, 0.0000000000000000000, 2.000000000000000000 ) ) ;
#287 = ORIENTED_EDGE ( 'NONE', *, *, #233, .T. ) ;
#288 = ORIENTED_EDGE ( 'NONE', *, *, #233, .F. ) ;
#289 = FACE_OUTER_BOUND ( 'NONE', #181, .T. ) ;
#290 = ADVANCED_FACE ( 'NONE', ( #8 ), #320, .T. ) ;
#291 = AXIS2_PLACEMENT_3D ( 'NONE', #199, #101, #195 ) ;
#292 = CARTESIAN_POINT ( 'NONE',  ( 1.146958267826442798E-17, 0.0000000000000000000, 0.09365624999999999645 ) ) ;
#293 = FILL_AREA_STYLE_COLOUR ( '', #9 ) ;
#294 = AXIS2_PLACEMENT_3D ( 'NONE', #41, #169, #37 ) ;
#295 = LINE ( 'NONE', #22, #123 ) ;
#296 = APPLICATION_PROTOCOL_DEFINITION ( 'draft international standard', 'automotive_design', 1998, #45 ) ;
#297 = DIRECTION ( 'NONE',  ( -1.224646799147353207E-16, -0.0000000000000000000, -1.000000000000000000 ) ) ;
#298 = PRODUCT_CONTEXT ( 'NONE', #45, 'mechanical' ) ;
#299 = DIRECTION ( 'NONE',  ( 1.000000000000000000, 0.0000000000000000000, 0.0000000000000000000 ) ) ;
#300 = CARTESIAN_POINT ( 'NONE',  ( 0.09365625000000001033, 1.146958267826442798E-17, 0.09365624999999996869 ) ) ;
#301 = CARTESIAN_POINT ( 'NONE',  ( -0.09375000000000001388, 0.0000000000000000000, 2.000000000000000000 ) ) ;
#302 = ADVANCED_FACE ( 'NONE', ( #13 ), #269, .T. ) ;
#303 = ORIENTED_EDGE ( 'NONE', *, *, #267, .T. ) ;
#304 = CARTESIAN_POINT ( 'NONE',  ( -0.09365624999999996869, 0.0000000000000000000, 0.09365625000000001033 ) ) ;
#305 = ORIENTED_EDGE ( 'NONE', *, *, #93, .T. ) ;
#306 = EDGE_LOOP ( 'NONE', ( #256, #255, #303, #159 ) ) ;
#307 = CIRCLE ( 'NONE', #38, 0.09365624999999999645 ) ;
#308 = ADVANCED_FACE ( 'NONE', ( #148 ), #243, .T. ) ;
#309 = DIRECTION ( 'NONE',  ( 0.0000000000000000000, 0.0000000000000000000, -1.000000000000000000 ) ) ;
#310 = ORIENTED_EDGE ( 'NONE', *, *, #48, .T. ) ;
#311 = CARTESIAN_POINT ( 'NONE',  ( 1.720437401739664274E-17, 0.0000000000000000000, 0.0000000000000000000 ) ) ;
#312 = DIRECTION ( 'NONE',  ( 0.0000000000000000000, 1.000000000000000000, 0.0000000000000000000 ) ) ;
#313 = CIRCLE ( 'NONE', #187, 0.09365624999999999645 ) ;
#314 = DIRECTION ( 'NONE',  ( 1.000000000000000000, 0.0000000000000000000, 0.0000000000000000000 ) ) ;
#315 = AXIS2_PLACEMENT_3D ( 'NONE', #220, #3, #191 ) ;
#316 = AXIS2_PLACEMENT_3D ( 'NONE', #165, #284, #142 ) ;
#317 = ADVANCED_FACE ( 'NONE', ( #211 ), #113, .T. ) ;
#318 = DIRECTION ( 'NONE',  ( -1.000000000000000000, 0.0000000000000000000, 0.0000000000000000000 ) ) ;
#319 = CIRCLE ( 'NONE', #107, 0.09365624999999999645 ) ;
#320 = CONICAL_SURFACE ( 'NONE', #294, 0.09365624999999999645, 0.1745329251994338637 ) ;
#321 = UNCERTAINTY_MEASURE_WITH_UNIT (LENGTH_MEASURE( 1.000000000000000082E-05 ), #54, 'distance_accuracy_value', 'NONE');
#322 = LENGTH_MEASURE_WITH_UNIT ( LENGTH_MEASURE( 0.02539999999999999897 ), #252 );
#323 = ADVANCED_FACE ( 'NONE', ( #266 ), #238, .T. ) ;
#324 = PRESENTATION_LAYER_ASSIGNMENT (  '', '', ( #75 ) ) ;
#325 = DIRECTION ( 'NONE',  ( 1.000000000000000000, 0.0000000000000000000, 0.0000000000000000000 ) ) ;
ENDSEC;
END-ISO-10303-21;
