ISO-10303-21;
HEADER;
FILE_DESCRIPTION (( 'STEP AP214' ),
    '1' );
FILE_NAME ('Micro_AMRM-011-2.STEP',
    '2021-09-01T17:12:33',
    ( '' ),
    ( '' ),
    'SwSTEP 2.0',
    'SolidWorks 2020',
    '' );
FILE_SCHEMA (( 'AUTOMOTIVE_DESIGN' ));
ENDSEC;

DATA;
#1 = PRESENTATION_LAYER_ASSIGNMENT (  '', '', ( #221 ) ) ;
#2 = AXIS2_PLACEMENT_3D ( 'NONE', #66, #165, #114 ) ;
#3 = UNCERTAINTY_MEASURE_WITH_UNIT (LENGTH_MEASURE( 1.000000000000000082E-05 ), #71, 'distance_accuracy_value', 'NONE');
#4 = DIRECTION ( 'NONE',  ( 0.0000000000000000000, 0.0000000000000000000, -1.000000000000000000 ) ) ;
#5 = CIRCLE ( 'NONE', #295, 0.07874000000000001831 ) ;
#6 = CIRCLE ( 'NONE', #190, 0.02163184649999999598 ) ;
#7 = CARTESIAN_POINT ( 'NONE',  ( 0.0000000000000000000, 0.0000000000000000000, 1.968503999999999809 ) ) ;
#8 = ORIENTED_EDGE ( 'NONE', *, *, #70, .F. ) ;
#9 = DIRECTION ( 'NONE',  ( 0.0000000000000000000, 0.0000000000000000000, -1.000000000000000000 ) ) ;
#10 = CARTESIAN_POINT ( 'NONE',  ( 1.591073367920233116E-17, 0.0000000000000000000, 0.1299210000000000087 ) ) ;
#11 = DIMENSIONAL_EXPONENTS ( 1.000000000000000000, 0.0000000000000000000, 0.0000000000000000000, 0.0000000000000000000, 0.0000000000000000000, 0.0000000000000000000, 0.0000000000000000000 ) ;
#12 = PRESENTATION_STYLE_ASSIGNMENT (( #127 ) ) ;
#13 = DIRECTION ( 'NONE',  ( 0.0000000000000000000, 0.0000000000000000000, 1.000000000000000000 ) ) ;
#14 = LINE ( 'NONE', #117, #90 ) ;
#15 = ORIENTED_EDGE ( 'NONE', *, *, #280, .T. ) ;
#16 = DIRECTION ( 'NONE',  ( -1.224646799147353207E-16, -0.0000000000000000000, -1.000000000000000000 ) ) ;
#17 = CARTESIAN_POINT ( 'NONE',  ( 1.591073367920233116E-17, 0.0000000000000000000, 0.1299210000000000087 ) ) ;
#18 = ADVANCED_FACE ( 'NONE', ( #288 ), #135, .T. ) ;
#19 = PRODUCT ( 'Micro_AMRM-011-2', 'Micro_AMRM-011-2', '', ( #257 ) ) ;
#20 = LENGTH_MEASURE_WITH_UNIT ( LENGTH_MEASURE( 0.02539999999999999897 ), #256 );
#21 = DIRECTION ( 'NONE',  ( 0.0000000000000000000, 0.0000000000000000000, 1.000000000000000000 ) ) ;
#22 = VECTOR ( 'NONE', #214, 39.37007874015748143 ) ;
#23 = FILL_AREA_STYLE ('',( #93 ) ) ;
#24 = ORIENTED_EDGE ( 'NONE', *, *, #95, .F. ) ;
#25 = VECTOR ( 'NONE', #32, 39.37007874015748143 ) ;
#26 = AXIS2_PLACEMENT_3D ( 'NONE', #17, #153, #284 ) ;
#27 = ORIENTED_EDGE ( 'NONE', *, *, #195, .F. ) ;
#28 =( CONVERSION_BASED_UNIT ( 'INCH', #240 ) LENGTH_UNIT ( ) NAMED_UNIT ( #205 ) );
#29 = ADVANCED_FACE ( 'NONE', ( #212 ), #272, .F. ) ;
#30 = SURFACE_SIDE_STYLE ('',( #98 ) ) ;
#31 = CIRCLE ( 'NONE', #217, 0.07874000000000001831 ) ;
#32 = DIRECTION ( 'NONE',  ( -1.224646799147353207E-16, -0.0000000000000000000, -1.000000000000000000 ) ) ;
#33 = LINE ( 'NONE', #130, #154 ) ;
#34 = CARTESIAN_POINT ( 'NONE',  ( 0.0000000000000000000, 0.0000000000000000000, 1.968503999999999809 ) ) ;
#35 = DIRECTION ( 'NONE',  ( 1.000000000000000000, 0.0000000000000000000, -0.0000000000000000000 ) ) ;
#36 = DIRECTION ( 'NONE',  ( 1.000000000000000000, 0.0000000000000000000, 0.0000000000000000000 ) ) ;
#37 = ORIENTED_EDGE ( 'NONE', *, *, #152, .F. ) ;
#38 = FACE_OUTER_BOUND ( 'NONE', #281, .T. ) ;
#39 = EDGE_CURVE ( 'NONE', #207, #198, #87, .T. ) ;
#40 = ORIENTED_EDGE ( 'NONE', *, *, #74, .F. ) ;
#41 = DIRECTION ( 'NONE',  ( 0.0000000000000000000, 0.0000000000000000000, 1.000000000000000000 ) ) ;
#42 = EDGE_CURVE ( 'NONE', #283, #73, #33, .T. ) ;
#43 = CARTESIAN_POINT ( 'NONE',  ( 0.0000000000000000000, 0.0000000000000000000, 1.953504000000000129 ) ) ;
#44 = EDGE_CURVE ( 'NONE', #99, #207, #196, .T. ) ;
#45 = PRODUCT_DEFINITION_SHAPE ( 'NONE', 'NONE',  #261 ) ;
#46 = PRESENTATION_LAYER_ASSIGNMENT (  '', '', ( #72 ) ) ;
#47 = CONICAL_SURFACE ( 'NONE', #169, 0.02163184650000000292, 0.1745329251994338637 ) ;
#48 = SHAPE_DEFINITION_REPRESENTATION ( #45, #175 ) ;
#49 = ADVANCED_FACE ( 'NONE', ( #183 ), #232, .T. ) ;
#50 = DIRECTION ( 'NONE',  ( 1.000000000000000000, 0.0000000000000000000, 0.0000000000000000000 ) ) ;
#51 = ORIENTED_EDGE ( 'NONE', *, *, #235, .F. ) ;
#52 = DIRECTION ( 'NONE',  ( -1.000000000000000000, 0.0000000000000000000, 0.0000000000000000000 ) ) ;
#53 = LINE ( 'NONE', #182, #25 ) ;
#54 = ORIENTED_EDGE ( 'NONE', *, *, #42, .F. ) ;
#55 = DIRECTION ( 'NONE',  ( 1.000000000000000000, 0.0000000000000000000, 0.0000000000000000000 ) ) ;
#56 = CIRCLE ( 'NONE', #115, 0.07874000000000001831 ) ;
#57 = AXIS2_PLACEMENT_3D ( 'NONE', #191, #61, #213 ) ;
#58 = VERTEX_POINT ( 'NONE', #161 ) ;
#59 = FACE_OUTER_BOUND ( 'NONE', #262, .T. ) ;
#60 = ORIENTED_EDGE ( 'NONE', *, *, #280, .F. ) ;
#61 = DIRECTION ( 'NONE',  ( -1.224646799147353207E-16, -0.0000000000000000000, -1.000000000000000000 ) ) ;
#62 = ORIENTED_EDGE ( 'NONE', *, *, #74, .T. ) ;
#63 = DIRECTION ( 'NONE',  ( 1.000000000000000000, 0.0000000000000000000, 0.0000000000000000000 ) ) ;
#64 = ORIENTED_EDGE ( 'NONE', *, *, #39, .F. ) ;
#65 = LINE ( 'NONE', #255, #297 ) ;
#66 = CARTESIAN_POINT ( 'NONE',  ( 0.0000000000000000000, 0.0000000000000000000, 1.968503999999999809 ) ) ;
#67 =( NAMED_UNIT ( * ) SI_UNIT ( $, .STERADIAN. ) SOLID_ANGLE_UNIT ( ) );
#68 = AXIS2_PLACEMENT_3D ( 'NONE', #168, #259, #50 ) ;
#69 = EDGE_CURVE ( 'NONE', #99, #73, #234, .T. ) ;
#70 = EDGE_CURVE ( 'NONE', #186, #198, #133, .T. ) ;
#71 =( CONVERSION_BASED_UNIT ( 'INCH', #145 ) LENGTH_UNIT ( ) NAMED_UNIT ( #279 ) );
#72 = STYLED_ITEM ( 'NONE', ( #192 ), #175 ) ;
#73 = VERTEX_POINT ( 'NONE', #298 ) ;
#74 = EDGE_CURVE ( 'NONE', #156, #247, #276, .T. ) ;
#75 = ORIENTED_EDGE ( 'NONE', *, *, #141, .T. ) ;
#76 = CARTESIAN_POINT ( 'NONE',  ( -0.02163184649999998557, 6.146003027036726446E-18, 0.1299210000000000087 ) ) ;
#77 = ORIENTED_EDGE ( 'NONE', *, *, #184, .F. ) ;
#78 = UNCERTAINTY_MEASURE_WITH_UNIT (LENGTH_MEASURE( 1.000000000000000082E-05 ), #118, 'distance_accuracy_value', 'NONE');
#79 = CARTESIAN_POINT ( 'NONE',  ( 0.0000000000000000000, 0.0000000000000000000, 1.968503999999999809 ) ) ;
#80 = APPLICATION_CONTEXT ( 'automotive_design' ) ;
#81 = ORIENTED_EDGE ( 'NONE', *, *, #124, .T. ) ;
#82 = DIRECTION ( 'NONE',  ( -1.000000000000000000, 0.0000000000000000000, 0.0000000000000000000 ) ) ;
#83 = DIRECTION ( 'NONE',  ( -1.000000000000000000, 0.0000000000000000000, 0.0000000000000000000 ) ) ;
#84 = DIRECTION ( 'NONE',  ( -1.000000000000000000, 0.0000000000000000000, 1.224646799147353207E-16 ) ) ;
#85 = DIRECTION ( 'NONE',  ( -0.0000000000000000000, -0.0000000000000000000, -1.000000000000000000 ) ) ;
#86 = DIRECTION ( 'NONE',  ( 1.000000000000000000, 0.0000000000000000000, 0.0000000000000000000 ) ) ;
#87 = LINE ( 'NONE', #188, #120 ) ;
#88 = CARTESIAN_POINT ( 'NONE',  ( 0.0000000000000000000, 0.0000000000000000000, 1.968503999999999809 ) ) ;
#89 = CIRCLE ( 'NONE', #208, 0.06374000000000018540 ) ;
#90 = VECTOR ( 'NONE', #254, 39.37007874015748143 ) ;
#91 = DIRECTION ( 'NONE',  ( -1.000000000000000000, 0.0000000000000000000, 1.224646799147352961E-16 ) ) ;
#92 =( NAMED_UNIT ( * ) PLANE_ANGLE_UNIT ( ) SI_UNIT ( $, .RADIAN. ) );
#93 = FILL_AREA_STYLE_COLOUR ( '', #216 ) ;
#94 =( LENGTH_UNIT ( ) NAMED_UNIT ( * ) SI_UNIT ( $, .METRE. ) );
#95 = EDGE_CURVE ( 'NONE', #148, #58, #147, .T. ) ;
#96 = CONICAL_SURFACE ( 'NONE', #267, 0.06374000000000018540, 0.7853981633974528309 ) ;
#97 = ORIENTED_EDGE ( 'NONE', *, *, #69, .T. ) ;
#98 = SURFACE_STYLE_FILL_AREA ( #149 ) ;
#99 = VERTEX_POINT ( 'NONE', #111 ) ;
#100 =( GEOMETRIC_REPRESENTATION_CONTEXT ( 3 ) GLOBAL_UNCERTAINTY_ASSIGNED_CONTEXT ( ( #78 ) ) GLOBAL_UNIT_ASSIGNED_CONTEXT ( ( #118, #92, #139 ) ) REPRESENTATION_CONTEXT ( 'NONE', 'WORKASPACE' ) );
#101 = DIRECTION ( 'NONE',  ( 0.0000000000000000000, 0.0000000000000000000, 1.000000000000000000 ) ) ;
#102 = VECTOR ( 'NONE', #296, 39.37007874015748143 ) ;
#103 = PRODUCT_DEFINITION_CONTEXT ( 'detailed design', #158, 'design' ) ;
#104 =( NAMED_UNIT ( * ) PLANE_ANGLE_UNIT ( ) SI_UNIT ( $, .RADIAN. ) );
#105 = PRODUCT_RELATED_PRODUCT_CATEGORY ( 'part', '', ( #19 ) ) ;
#106 = FACE_OUTER_BOUND ( 'NONE', #200, .T. ) ;
#107 = DIRECTION ( 'NONE',  ( -1.224646799147353207E-16, -0.0000000000000000000, -1.000000000000000000 ) ) ;
#108 = CARTESIAN_POINT ( 'NONE',  ( 0.06374000000000018540, 7.805898697765251255E-18, 1.968503999999999809 ) ) ;
#109 = MECHANICAL_DESIGN_GEOMETRIC_PRESENTATION_REPRESENTATION (  '', ( #221 ), #119 ) ;
#110 = ORIENTED_EDGE ( 'NONE', *, *, #69, .F. ) ;
#111 = CARTESIAN_POINT ( 'NONE',  ( 0.02163184650000002027, 0.0000000000000000000, 0.1299210000000000087 ) ) ;
#112 = EDGE_LOOP ( 'NONE', ( #54, #172, #268, #60 ) ) ;
#113 = FACE_OUTER_BOUND ( 'NONE', #176, .T. ) ;
#114 = DIRECTION ( 'NONE',  ( -1.000000000000000000, 0.0000000000000000000, 0.0000000000000000000 ) ) ;
#115 = AXIS2_PLACEMENT_3D ( 'NONE', #204, #9, #151 ) ;
#116 = AXIS2_PLACEMENT_3D ( 'NONE', #88, #21, #189 ) ;
#117 = CARTESIAN_POINT ( 'NONE',  ( -0.06374000000000018540, 0.0000000000000000000, 1.968503999999999809 ) ) ;
#118 =( CONVERSION_BASED_UNIT ( 'INCH', #20 ) LENGTH_UNIT ( ) NAMED_UNIT ( #11 ) );
#119 =( GEOMETRIC_REPRESENTATION_CONTEXT ( 3 ) GLOBAL_UNCERTAINTY_ASSIGNED_CONTEXT ( ( #173 ) ) GLOBAL_UNIT_ASSIGNED_CONTEXT ( ( #28, #104, #242 ) ) REPRESENTATION_CONTEXT ( 'NONE', 'WORKASPACE' ) );
#120 = VECTOR ( 'NONE', #286, 39.37007874015747433 ) ;
#121 = ORIENTED_EDGE ( 'NONE', *, *, #44, .T. ) ;
#122 = EDGE_CURVE ( 'NONE', #247, #156, #6, .T. ) ;
#123 = CONICAL_SURFACE ( 'NONE', #26, 0.02163184650000000292, 0.1745329251994338637 ) ;
#124 = EDGE_CURVE ( 'NONE', #148, #186, #14, .T. ) ;
#125 = DIRECTION ( 'NONE',  ( -1.224646799147353207E-16, -0.0000000000000000000, -1.000000000000000000 ) ) ;
#126 = ORIENTED_EDGE ( 'NONE', *, *, #195, .T. ) ;
#127 = SURFACE_STYLE_USAGE ( .BOTH. , #30 ) ;
#128 = ORIENTED_EDGE ( 'NONE', *, *, #95, .T. ) ;
#129 = DIRECTION ( 'NONE',  ( 1.000000000000000000, 0.0000000000000000000, 0.0000000000000000000 ) ) ;
#130 = CARTESIAN_POINT ( 'NONE',  ( 0.07874000000000001831, 9.642868896486260050E-18, 1.968503999999999809 ) ) ;
#131 = DIRECTION ( 'NONE',  ( -1.000000000000000000, 0.0000000000000000000, 0.0000000000000000000 ) ) ;
#132 = ORIENTED_EDGE ( 'NONE', *, *, #44, .F. ) ;
#133 = LINE ( 'NONE', #163, #102 ) ;
#134 = ADVANCED_FACE ( 'NONE', ( #277 ), #47, .T. ) ;
#135 = CYLINDRICAL_SURFACE ( 'NONE', #289, 0.07874000000000001831 ) ;
#136 = CYLINDRICAL_SURFACE ( 'NONE', #244, 0.02163184649999999945 ) ;
#137 = ORIENTED_EDGE ( 'NONE', *, *, #220, .F. ) ;
#138 = CARTESIAN_POINT ( 'NONE',  ( -0.06374000000000018540, 0.0000000000000000000, 1.968503999999999809 ) ) ;
#139 =( NAMED_UNIT ( * ) SI_UNIT ( $, .STERADIAN. ) SOLID_ANGLE_UNIT ( ) );
#140 = CARTESIAN_POINT ( 'NONE',  ( 0.0000000000000000000, 0.0000000000000000000, 0.0000000000000000000 ) ) ;
#141 = EDGE_CURVE ( 'NONE', #99, #156, #65, .T. ) ;
#142 = SURFACE_STYLE_FILL_AREA ( #23 ) ;
#143 = SURFACE_SIDE_STYLE ('',( #142 ) ) ;
#144 = APPLICATION_PROTOCOL_DEFINITION ( 'draft international standard', 'automotive_design', 1998, #158 ) ;
#145 = LENGTH_MEASURE_WITH_UNIT ( LENGTH_MEASURE( 0.02539999999999999897 ), #94 );
#146 = PRODUCT_DEFINITION_FORMATION_WITH_SPECIFIED_SOURCE ( 'ANY', '', #19, .NOT_KNOWN. ) ;
#147 = CIRCLE ( 'NONE', #215, 0.06374000000000018540 ) ;
#148 = VERTEX_POINT ( 'NONE', #138 ) ;
#149 = FILL_AREA_STYLE ('',( #229 ) ) ;
#150 = ORIENTED_EDGE ( 'NONE', *, *, #122, .F. ) ;
#151 = DIRECTION ( 'NONE',  ( 1.000000000000000000, 0.0000000000000000000, 0.0000000000000000000 ) ) ;
#152 = EDGE_CURVE ( 'NONE', #186, #283, #31, .T. ) ;
#153 = DIRECTION ( 'NONE',  ( 1.224646799147353207E-16, 0.0000000000000000000, 1.000000000000000000 ) ) ;
#154 = VECTOR ( 'NONE', #228, 39.37007874015748143 ) ;
#155 = ADVANCED_FACE ( 'NONE', ( #38 ), #136, .T. ) ;
#156 = VERTEX_POINT ( 'NONE', #236 ) ;
#157 = CARTESIAN_POINT ( 'NONE',  ( 0.0000000000000000000, 0.0000000000000000000, 0.0000000000000000000 ) ) ;
#158 = APPLICATION_CONTEXT ( 'automotive_design' ) ;
#159 = EDGE_LOOP ( 'NONE', ( #64, #132, #97, #15 ) ) ;
#160 = ADVANCED_FACE ( 'NONE', ( #113 ), #294, .T. ) ;
#161 = CARTESIAN_POINT ( 'NONE',  ( 0.06374000000000018540, 8.724383797125754882E-18, 1.968503999999999809 ) ) ;
#162 = CARTESIAN_POINT ( 'NONE',  ( 0.0000000000000000000, 0.0000000000000000000, 0.0000000000000000000 ) ) ;
#163 = CARTESIAN_POINT ( 'NONE',  ( -0.07874000000000001831, 0.0000000000000000000, 1.968503999999999809 ) ) ;
#164 = EDGE_LOOP ( 'NONE', ( #291, #62 ) ) ;
#165 = DIRECTION ( 'NONE',  ( -0.0000000000000000000, -0.0000000000000000000, -1.000000000000000000 ) ) ;
#166 = ADVANCED_FACE ( 'NONE', ( #275 ), #123, .T. ) ;
#167 = CARTESIAN_POINT ( 'NONE',  ( 3.244257340541465489E-34, 0.0000000000000000000, 2.649137157587186679E-18 ) ) ;
#168 = CARTESIAN_POINT ( 'NONE',  ( 0.0000000000000000000, 0.0000000000000000000, 0.0000000000000000000 ) ) ;
#169 = AXIS2_PLACEMENT_3D ( 'NONE', #251, #292, #86 ) ;
#170 = ORIENTED_EDGE ( 'NONE', *, *, #42, .T. ) ;
#171 = AXIS2_PLACEMENT_3D ( 'NONE', #287, #227, #82 ) ;
#172 = ORIENTED_EDGE ( 'NONE', *, *, #220, .T. ) ;
#173 = UNCERTAINTY_MEASURE_WITH_UNIT (LENGTH_MEASURE( 1.000000000000000082E-05 ), #28, 'distance_accuracy_value', 'NONE');
#174 = CARTESIAN_POINT ( 'NONE',  ( -0.07873999999999996280, 0.0000000000000000000, 0.4537974326964858696 ) ) ;
#175 = ADVANCED_BREP_SHAPE_REPRESENTATION ( 'Micro_AMRM-011-2', ( #258, #68 ), #100 ) ;
#176 = EDGE_LOOP ( 'NONE', ( #128, #250 ) ) ;
#177 = DIRECTION ( 'NONE',  ( 1.000000000000000000, 0.0000000000000000000, 0.0000000000000000000 ) ) ;
#178 =( LENGTH_UNIT ( ) NAMED_UNIT ( * ) SI_UNIT ( $, .METRE. ) );
#179 = AXIS2_PLACEMENT_3D ( 'NONE', #162, #13, #35 ) ;
#180 = EDGE_LOOP ( 'NONE', ( #77, #233, #126, #110 ) ) ;
#181 = AXIS2_PLACEMENT_3D ( 'NONE', #34, #263, #52 ) ;
#182 = CARTESIAN_POINT ( 'NONE',  ( -0.02163184649999999945, 0.0000000000000000000, 2.649137157587187450E-18 ) ) ;
#183 = FACE_OUTER_BOUND ( 'NONE', #223, .T. ) ;
#184 = EDGE_CURVE ( 'NONE', #207, #99, #222, .T. ) ;
#185 = DIRECTION ( 'NONE',  ( -1.224646799147353207E-16, -0.0000000000000000000, -1.000000000000000000 ) ) ;
#186 = VERTEX_POINT ( 'NONE', #265 ) ;
#187 = DIRECTION ( 'NONE',  ( -1.224646799147353207E-16, -0.0000000000000000000, -1.000000000000000000 ) ) ;
#188 = CARTESIAN_POINT ( 'NONE',  ( -0.02163184649999998557, 2.649137157587188220E-18, 0.1299210000000000087 ) ) ;
#189 = DIRECTION ( 'NONE',  ( 1.000000000000000000, 0.0000000000000000000, -0.0000000000000000000 ) ) ;
#190 = AXIS2_PLACEMENT_3D ( 'NONE', #167, #211, #91 ) ;
#191 = CARTESIAN_POINT ( 'NONE',  ( 3.244257340541465489E-34, 0.0000000000000000000, 2.649137157587186679E-18 ) ) ;
#192 = PRESENTATION_STYLE_ASSIGNMENT (( #218 ) ) ;
#193 = EDGE_CURVE ( 'NONE', #58, #148, #89, .T. ) ;
#194 = APPLICATION_PROTOCOL_DEFINITION ( 'draft international standard', 'automotive_design', 1998, #80 ) ;
#195 = EDGE_CURVE ( 'NONE', #198, #73, #260, .T. ) ;
#196 = CIRCLE ( 'NONE', #197, 0.02163184650000000292 ) ;
#197 = AXIS2_PLACEMENT_3D ( 'NONE', #10, #107, #83 ) ;
#198 = VERTEX_POINT ( 'NONE', #174 ) ;
#199 = COLOUR_RGB ( '',0.7921568627450980005, 0.8196078431372548767, 0.9333333333333333481 ) ;
#200 = EDGE_LOOP ( 'NONE', ( #210, #264, #37, #231 ) ) ;
#201 = EDGE_CURVE ( 'NONE', #58, #283, #266, .T. ) ;
#202 = CARTESIAN_POINT ( 'NONE',  ( 5.557415734130377898E-17, 0.0000000000000000000, 0.4537974326964858696 ) ) ;
#203 = CARTESIAN_POINT ( 'NONE',  ( 0.0000000000000000000, 0.0000000000000000000, 1.968503999999999809 ) ) ;
#204 = CARTESIAN_POINT ( 'NONE',  ( 0.0000000000000000000, 0.0000000000000000000, 1.953504000000000129 ) ) ;
#205 = DIMENSIONAL_EXPONENTS ( 1.000000000000000000, 0.0000000000000000000, 0.0000000000000000000, 0.0000000000000000000, 0.0000000000000000000, 0.0000000000000000000, 0.0000000000000000000 ) ;
#206 = MECHANICAL_DESIGN_GEOMETRIC_PRESENTATION_REPRESENTATION (  '', ( #72 ), #299 ) ;
#207 = VERTEX_POINT ( 'NONE', #76 ) ;
#208 = AXIS2_PLACEMENT_3D ( 'NONE', #7, #101, #55 ) ;
#209 = DIRECTION ( 'NONE',  ( -1.224646799147353207E-16, -0.0000000000000000000, -1.000000000000000000 ) ) ;
#210 = ORIENTED_EDGE ( 'NONE', *, *, #193, .F. ) ;
#211 = DIRECTION ( 'NONE',  ( -1.224646799147353207E-16, -0.0000000000000000000, -1.000000000000000000 ) ) ;
#212 = FACE_OUTER_BOUND ( 'NONE', #164, .T. ) ;
#213 = DIRECTION ( 'NONE',  ( -1.000000000000000000, 0.0000000000000000000, 1.224646799147352961E-16 ) ) ;
#214 = DIRECTION ( 'NONE',  ( 0.1736481776669313581, 0.0000000000000000000, 0.9848077530122077983 ) ) ;
#215 = AXIS2_PLACEMENT_3D ( 'NONE', #248, #41, #36 ) ;
#216 = COLOUR_RGB ( '',0.7921568627450980005, 0.8196078431372548767, 0.9333333333333333481 ) ;
#217 = AXIS2_PLACEMENT_3D ( 'NONE', #43, #273, #63 ) ;
#218 = SURFACE_STYLE_USAGE ( .BOTH. , #143 ) ;
#219 = CARTESIAN_POINT ( 'NONE',  ( 0.02163184650000002027, 0.0000000000000000000, 0.1299210000000000087 ) ) ;
#220 = EDGE_CURVE ( 'NONE', #283, #186, #56, .T. ) ;
#221 = STYLED_ITEM ( 'NONE', ( #12 ), #258 ) ;
#222 = CIRCLE ( 'NONE', #171, 0.02163184650000000292 ) ;
#223 = EDGE_LOOP ( 'NONE', ( #274, #170, #27, #8 ) ) ;
#224 = ORIENTED_EDGE ( 'NONE', *, *, #141, .F. ) ;
#225 = CARTESIAN_POINT ( 'NONE',  ( 0.07874000000000001831, 9.642868896486260050E-18, 1.953504000000000129 ) ) ;
#226 = VECTOR ( 'NONE', #246, 39.37007874015748143 ) ;
#227 = DIRECTION ( 'NONE',  ( -1.224646799147353207E-16, -0.0000000000000000000, -1.000000000000000000 ) ) ;
#228 = DIRECTION ( 'NONE',  ( -0.0000000000000000000, -0.0000000000000000000, -1.000000000000000000 ) ) ;
#229 = FILL_AREA_STYLE_COLOUR ( '', #199 ) ;
#230 = CONICAL_SURFACE ( 'NONE', #181, 0.06374000000000018540, 0.7853981633974528309 ) ;
#231 = ORIENTED_EDGE ( 'NONE', *, *, #124, .F. ) ;
#232 = CYLINDRICAL_SURFACE ( 'NONE', #2, 0.07874000000000001831 ) ;
#233 = ORIENTED_EDGE ( 'NONE', *, *, #39, .T. ) ;
#234 = LINE ( 'NONE', #219, #22 ) ;
#235 = EDGE_CURVE ( 'NONE', #207, #247, #53, .T. ) ;
#236 = CARTESIAN_POINT ( 'NONE',  ( 0.02163184649999999598, 2.649137157587187450E-18, 0.0000000000000000000 ) ) ;
#237 = DIRECTION ( 'NONE',  ( -1.000000000000000000, 0.0000000000000000000, 1.224646799147353207E-16 ) ) ;
#238 = ADVANCED_FACE ( 'NONE', ( #59 ), #270, .T. ) ;
#239 = ORIENTED_EDGE ( 'NONE', *, *, #201, .F. ) ;
#240 = LENGTH_MEASURE_WITH_UNIT ( LENGTH_MEASURE( 0.02539999999999999897 ), #178 );
#241 = ADVANCED_FACE ( 'NONE', ( #285 ), #230, .T. ) ;
#242 =( NAMED_UNIT ( * ) SI_UNIT ( $, .STERADIAN. ) SOLID_ANGLE_UNIT ( ) );
#243 = CARTESIAN_POINT ( 'NONE',  ( -0.02163184649999999598, 0.0000000000000000000, 5.298274315174373359E-18 ) ) ;
#244 = AXIS2_PLACEMENT_3D ( 'NONE', #140, #16, #237 ) ;
#245 = EDGE_LOOP ( 'NONE', ( #239, #24, #81, #137 ) ) ;
#246 = DIRECTION ( 'NONE',  ( 0.7071067811865507924, 8.659560562354973534E-17, -0.7071067811865443531 ) ) ;
#247 = VERTEX_POINT ( 'NONE', #243 ) ;
#248 = CARTESIAN_POINT ( 'NONE',  ( 0.0000000000000000000, 0.0000000000000000000, 1.968503999999999809 ) ) ;
#249 = AXIS2_PLACEMENT_3D ( 'NONE', #157, #185, #84 ) ;
#250 = ORIENTED_EDGE ( 'NONE', *, *, #193, .T. ) ;
#251 = CARTESIAN_POINT ( 'NONE',  ( 1.591073367920233116E-17, 0.0000000000000000000, 0.1299210000000000087 ) ) ;
#252 = ADVANCED_FACE ( 'NONE', ( #106 ), #96, .T. ) ;
#253 = DIRECTION ( 'NONE',  ( -1.000000000000000000, 0.0000000000000000000, 0.0000000000000000000 ) ) ;
#254 = DIRECTION ( 'NONE',  ( -0.7071067811865507924, 0.0000000000000000000, -0.7071067811865443531 ) ) ;
#255 = CARTESIAN_POINT ( 'NONE',  ( 0.02163184649999999945, 2.649137157587187450E-18, -2.649137157587187450E-18 ) ) ;
#256 =( LENGTH_UNIT ( ) NAMED_UNIT ( * ) SI_UNIT ( $, .METRE. ) );
#257 = PRODUCT_CONTEXT ( 'NONE', #80, 'mechanical' ) ;
#258 = MANIFOLD_SOLID_BREP ( 'Cut-Revolve1', #269 ) ;
#259 = DIRECTION ( 'NONE',  ( 0.0000000000000000000, 0.0000000000000000000, 1.000000000000000000 ) ) ;
#260 = CIRCLE ( 'NONE', #282, 0.07874000000000001831 ) ;
#261 = PRODUCT_DEFINITION ( 'UNKNOWN', '', #146, #103 ) ;
#262 = EDGE_LOOP ( 'NONE', ( #224, #121, #293, #40 ) ) ;
#263 = DIRECTION ( 'NONE',  ( 0.0000000000000000000, 0.0000000000000000000, -1.000000000000000000 ) ) ;
#264 = ORIENTED_EDGE ( 'NONE', *, *, #201, .T. ) ;
#265 = CARTESIAN_POINT ( 'NONE',  ( -0.07874000000000001831, 0.0000000000000000000, 1.953504000000000129 ) ) ;
#266 = LINE ( 'NONE', #108, #226 ) ;
#267 = AXIS2_PLACEMENT_3D ( 'NONE', #79, #4, #131 ) ;
#268 = ORIENTED_EDGE ( 'NONE', *, *, #70, .T. ) ;
#269 = CLOSED_SHELL ( 'NONE', ( #155, #134, #252, #49, #18, #160, #241, #166, #238, #29 ) ) ;
#270 = CYLINDRICAL_SURFACE ( 'NONE', #249, 0.02163184649999999945 ) ;
#271 = ORIENTED_EDGE ( 'NONE', *, *, #184, .T. ) ;
#272 = PLANE ( 'NONE',  #179 ) ;
#273 = DIRECTION ( 'NONE',  ( 0.0000000000000000000, 0.0000000000000000000, -1.000000000000000000 ) ) ;
#274 = ORIENTED_EDGE ( 'NONE', *, *, #152, .T. ) ;
#275 = FACE_OUTER_BOUND ( 'NONE', #159, .T. ) ;
#276 = CIRCLE ( 'NONE', #57, 0.02163184649999999598 ) ;
#277 = FACE_OUTER_BOUND ( 'NONE', #180, .T. ) ;
#278 =( NAMED_UNIT ( * ) PLANE_ANGLE_UNIT ( ) SI_UNIT ( $, .RADIAN. ) );
#279 = DIMENSIONAL_EXPONENTS ( 1.000000000000000000, 0.0000000000000000000, 0.0000000000000000000, 0.0000000000000000000, 0.0000000000000000000, 0.0000000000000000000, 0.0000000000000000000 ) ;
#280 = EDGE_CURVE ( 'NONE', #73, #198, #5, .T. ) ;
#281 = EDGE_LOOP ( 'NONE', ( #271, #75, #150, #51 ) ) ;
#282 = AXIS2_PLACEMENT_3D ( 'NONE', #290, #209, #177 ) ;
#283 = VERTEX_POINT ( 'NONE', #225 ) ;
#284 = DIRECTION ( 'NONE',  ( 1.000000000000000000, 0.0000000000000000000, 0.0000000000000000000 ) ) ;
#285 = FACE_OUTER_BOUND ( 'NONE', #245, .T. ) ;
#286 = DIRECTION ( 'NONE',  ( -0.1736481776669311639, 2.126576849575783008E-17, 0.9848077530122080203 ) ) ;
#287 = CARTESIAN_POINT ( 'NONE',  ( 1.591073367920233116E-17, 0.0000000000000000000, 0.1299210000000000087 ) ) ;
#288 = FACE_OUTER_BOUND ( 'NONE', #112, .T. ) ;
#289 = AXIS2_PLACEMENT_3D ( 'NONE', #203, #85, #253 ) ;
#290 = CARTESIAN_POINT ( 'NONE',  ( 5.557415734130377898E-17, 0.0000000000000000000, 0.4537974326964858696 ) ) ;
#291 = ORIENTED_EDGE ( 'NONE', *, *, #122, .T. ) ;
#292 = DIRECTION ( 'NONE',  ( 1.224646799147353207E-16, 0.0000000000000000000, 1.000000000000000000 ) ) ;
#293 = ORIENTED_EDGE ( 'NONE', *, *, #235, .T. ) ;
#294 = PLANE ( 'NONE',  #116 ) ;
#295 = AXIS2_PLACEMENT_3D ( 'NONE', #202, #125, #129 ) ;
#296 = DIRECTION ( 'NONE',  ( -0.0000000000000000000, -0.0000000000000000000, -1.000000000000000000 ) ) ;
#297 = VECTOR ( 'NONE', #187, 39.37007874015748143 ) ;
#298 = CARTESIAN_POINT ( 'NONE',  ( 0.07874000000000007382, 9.642868896486266213E-18, 0.4537974326964858696 ) ) ;
#299 =( GEOMETRIC_REPRESENTATION_CONTEXT ( 3 ) GLOBAL_UNCERTAINTY_ASSIGNED_CONTEXT ( ( #3 ) ) GLOBAL_UNIT_ASSIGNED_CONTEXT ( ( #71, #278, #67 ) ) REPRESENTATION_CONTEXT ( 'NONE', 'WORKASPACE' ) );
ENDSEC;
END-ISO-10303-21;
