ISO-10303-21;
HEADER;
FILE_DESCRIPTION (( 'STEP AP214' ),
    '1' );
FILE_NAME ('Micro_SFA-250-46.STEP',
    '2021-09-02T04:00:02',
    ( '' ),
    ( '' ),
    'SwSTEP 2.0',
    'SolidWorks 2020',
    '' );
FILE_SCHEMA (( 'AUTOMOTIVE_DESIGN' ));
ENDSEC;

DATA;
#1 = EDGE_LOOP ( 'NONE', ( #143, #21, #28, #228 ) ) ;
#2 = DIRECTION ( 'NONE',  ( 1.000000000000000000, 0.0000000000000000000, 0.0000000000000000000 ) ) ;
#3 = CARTESIAN_POINT ( 'NONE',  ( -0.1250000000000000000, 0.0000000000000000000, 2.485000000000000320 ) ) ;
#4 = LINE ( 'NONE', #101, #126 ) ;
#5 = FILL_AREA_STYLE ('',( #287 ) ) ;
#6 = CONICAL_SURFACE ( 'NONE', #75, 0.1248749999999999999, 0.1745329251994338082 ) ;
#7 = ADVANCED_FACE ( 'NONE', ( #212 ), #97, .T. ) ;
#8 = ORIENTED_EDGE ( 'NONE', *, *, #245, .F. ) ;
#9 = DIRECTION ( 'NONE',  ( 1.000000000000000000, 0.0000000000000000000, 0.0000000000000000000 ) ) ;
#10 = DIRECTION ( 'NONE',  ( -0.0000000000000000000, -0.0000000000000000000, -1.000000000000000000 ) ) ;
#11 = APPLICATION_PROTOCOL_DEFINITION ( 'draft international standard', 'automotive_design', 1998, #102 ) ;
#12 = FACE_OUTER_BOUND ( 'NONE', #89, .T. ) ;
#13 =( GEOMETRIC_REPRESENTATION_CONTEXT ( 3 ) GLOBAL_UNCERTAINTY_ASSIGNED_CONTEXT ( ( #256 ) ) GLOBAL_UNIT_ASSIGNED_CONTEXT ( ( #90, #20, #139 ) ) REPRESENTATION_CONTEXT ( 'NONE', 'WORKASPACE' ) );
#14 = CARTESIAN_POINT ( 'NONE',  ( 9.193532640014472135E-17, 0.0000000000000000000, 0.7507089102274522308 ) ) ;
#15 = VERTEX_POINT ( 'NONE', #3 ) ;
#16 = CARTESIAN_POINT ( 'NONE',  ( 0.0000000000000000000, 0.0000000000000000000, 0.0000000000000000000 ) ) ;
#17 = EDGE_CURVE ( 'NONE', #246, #283, #99, .T. ) ;
#18 = CLOSED_SHELL ( 'NONE', ( #25, #189, #133, #159, #162, #7, #182, #65, #55, #109 ) ) ;
#19 = EDGE_LOOP ( 'NONE', ( #148, #51 ) ) ;
#20 =( NAMED_UNIT ( * ) PLANE_ANGLE_UNIT ( ) SI_UNIT ( $, .RADIAN. ) );
#21 = ORIENTED_EDGE ( 'NONE', *, *, #275, .T. ) ;
#22 = AXIS2_PLACEMENT_3D ( 'NONE', #84, #179, #175 ) ;
#23 = DIRECTION ( 'NONE',  ( -1.000000000000000000, 0.0000000000000000000, 0.0000000000000000000 ) ) ;
#24 = DIRECTION ( 'NONE',  ( 0.0000000000000000000, 0.0000000000000000000, 1.000000000000000000 ) ) ;
#25 = ADVANCED_FACE ( 'NONE', ( #63 ), #265, .T. ) ;
#26 = AXIS2_PLACEMENT_3D ( 'NONE', #98, #229, #73 ) ;
#27 = CARTESIAN_POINT ( 'NONE',  ( -0.1250000000000000000, 0.0000000000000000000, 2.500000000000000000 ) ) ;
#28 = ORIENTED_EDGE ( 'NONE', *, *, #100, .F. ) ;
#29 = ORIENTED_EDGE ( 'NONE', *, *, #276, .F. ) ;
#30 = CARTESIAN_POINT ( 'NONE',  ( 0.0000000000000000000, 0.0000000000000000000, 2.485000000000000320 ) ) ;
#31 = ORIENTED_EDGE ( 'NONE', *, *, #291, .F. ) ;
#32 = CARTESIAN_POINT ( 'NONE',  ( 0.0000000000000000000, 0.0000000000000000000, 2.500000000000000000 ) ) ;
#33 = VECTOR ( 'NONE', #10, 39.37007874015748143 ) ;
#34 = FILL_AREA_STYLE_COLOUR ( '', #103 ) ;
#35 = UNCERTAINTY_MEASURE_WITH_UNIT (LENGTH_MEASURE( 1.000000000000000082E-05 ), #44, 'distance_accuracy_value', 'NONE');
#36 = SHAPE_DEFINITION_REPRESENTATION ( #116, #61 ) ;
#37 = CARTESIAN_POINT ( 'NONE',  ( 0.0000000000000000000, 0.0000000000000000000, 0.0000000000000000000 ) ) ;
#38 = FACE_OUTER_BOUND ( 'NONE', #68, .T. ) ;
#39 = PRODUCT_CONTEXT ( 'NONE', #102, 'mechanical' ) ;
#40 = AXIS2_PLACEMENT_3D ( 'NONE', #213, #257, #165 ) ;
#41 = DIRECTION ( 'NONE',  ( -1.224646799147353207E-16, -0.0000000000000000000, -1.000000000000000000 ) ) ;
#42 = AXIS2_PLACEMENT_3D ( 'NONE', #32, #167, #23 ) ;
#43 = VERTEX_POINT ( 'NONE', #218 ) ;
#44 =( CONVERSION_BASED_UNIT ( 'INCH', #288 ) LENGTH_UNIT ( ) NAMED_UNIT ( #53 ) );
#45 = SURFACE_SIDE_STYLE ('',( #292 ) ) ;
#46 = CIRCLE ( 'NONE', #235, 0.1248749999999999999 ) ;
#47 = EDGE_CURVE ( 'NONE', #204, #43, #82, .T. ) ;
#48 = ORIENTED_EDGE ( 'NONE', *, *, #238, .F. ) ;
#49 = VECTOR ( 'NONE', #121, 39.37007874015748143 ) ;
#50 = DIRECTION ( 'NONE',  ( -1.224646799147353207E-16, -0.0000000000000000000, -1.000000000000000000 ) ) ;
#51 = ORIENTED_EDGE ( 'NONE', *, *, #163, .T. ) ;
#52 = CARTESIAN_POINT ( 'NONE',  ( 9.193532640014472135E-17, 0.0000000000000000000, 0.7507089102274522308 ) ) ;
#53 = DIMENSIONAL_EXPONENTS ( 1.000000000000000000, 0.0000000000000000000, 0.0000000000000000000, 0.0000000000000000000, 0.0000000000000000000, 0.0000000000000000000, 0.0000000000000000000 ) ;
#54 = CARTESIAN_POINT ( 'NONE',  ( 9.184850993605150903E-17, 0.0000000000000000000, 0.7500000000000001110 ) ) ;
#55 = ADVANCED_FACE ( 'NONE', ( #38 ), #157, .T. ) ;
#56 = AXIS2_PLACEMENT_3D ( 'NONE', #105, #224, #64 ) ;
#57 = DIRECTION ( 'NONE',  ( 1.000000000000000000, 0.0000000000000000000, 0.0000000000000000000 ) ) ;
#58 = FACE_OUTER_BOUND ( 'NONE', #71, .T. ) ;
#59 = AXIS2_PLACEMENT_3D ( 'NONE', #52, #261, #184 ) ;
#60 = CARTESIAN_POINT ( 'NONE',  ( 9.184850993605150903E-17, 0.0000000000000000000, 0.7500000000000001110 ) ) ;
#61 = ADVANCED_BREP_SHAPE_REPRESENTATION ( 'Micro_SFA-250-46', ( #144, #94 ), #249 ) ;
#62 = APPLICATION_PROTOCOL_DEFINITION ( 'draft international standard', 'automotive_design', 1998, #260 ) ;
#63 = FACE_OUTER_BOUND ( 'NONE', #1, .T. ) ;
#64 = DIRECTION ( 'NONE',  ( -1.000000000000000000, 0.0000000000000000000, 1.224646799147353454E-16 ) ) ;
#65 = ADVANCED_FACE ( 'NONE', ( #12 ), #209, .T. ) ;
#66 = LENGTH_MEASURE_WITH_UNIT ( LENGTH_MEASURE( 0.02539999999999999897 ), #193 );
#67 = ORIENTED_EDGE ( 'NONE', *, *, #275, .F. ) ;
#68 = EDGE_LOOP ( 'NONE', ( #67, #108, #272, #187 ) ) ;
#69 = PRESENTATION_LAYER_ASSIGNMENT (  '', '', ( #271 ) ) ;
#70 = DIRECTION ( 'NONE',  ( 1.224646799147353207E-16, 0.0000000000000000000, 1.000000000000000000 ) ) ;
#71 = EDGE_LOOP ( 'NONE', ( #172, #119, #205, #138 ) ) ;
#72 = EDGE_CURVE ( 'NONE', #230, #111, #170, .T. ) ;
#73 = DIRECTION ( 'NONE',  ( -1.000000000000000000, 0.0000000000000000000, 0.0000000000000000000 ) ) ;
#74 = FACE_OUTER_BOUND ( 'NONE', #226, .T. ) ;
#75 = AXIS2_PLACEMENT_3D ( 'NONE', #54, #70, #57 ) ;
#76 = DIRECTION ( 'NONE',  ( -1.224646799147353207E-16, -0.0000000000000000000, -1.000000000000000000 ) ) ;
#77 = EDGE_CURVE ( 'NONE', #88, #246, #286, .T. ) ;
#78 = AXIS2_PLACEMENT_3D ( 'NONE', #232, #282, #122 ) ;
#79 =( NAMED_UNIT ( * ) PLANE_ANGLE_UNIT ( ) SI_UNIT ( $, .RADIAN. ) );
#80 = PRODUCT_DEFINITION_FORMATION_WITH_SPECIFIED_SOURCE ( 'ANY', '', #96, .NOT_KNOWN. ) ;
#81 = PRESENTATION_STYLE_ASSIGNMENT (( #194 ) ) ;
#82 = LINE ( 'NONE', #219, #33 ) ;
#83 = SURFACE_STYLE_FILL_AREA ( #5 ) ;
#84 = CARTESIAN_POINT ( 'NONE',  ( 0.0000000000000000000, 0.0000000000000000000, 0.0000000000000000000 ) ) ;
#85 = PRODUCT_RELATED_PRODUCT_CATEGORY ( 'part', '', ( #96 ) ) ;
#86 = EDGE_LOOP ( 'NONE', ( #166, #233 ) ) ;
#87 = AXIS2_PLACEMENT_3D ( 'NONE', #297, #92, #237 ) ;
#88 = VERTEX_POINT ( 'NONE', #132 ) ;
#89 = EDGE_LOOP ( 'NONE', ( #227, #207, #188, #158 ) ) ;
#90 =( CONVERSION_BASED_UNIT ( 'INCH', #66 ) LENGTH_UNIT ( ) NAMED_UNIT ( #277 ) );
#91 = VECTOR ( 'NONE', #293, 39.37007874015748143 ) ;
#92 = DIRECTION ( 'NONE',  ( -1.224646799147353207E-16, -0.0000000000000000000, -1.000000000000000000 ) ) ;
#93 = CIRCLE ( 'NONE', #266, 0.1100000000000001948 ) ;
#94 = AXIS2_PLACEMENT_3D ( 'NONE', #37, #156, #9 ) ;
#95 = DIRECTION ( 'NONE',  ( 1.000000000000000000, 0.0000000000000000000, 0.0000000000000000000 ) ) ;
#96 = PRODUCT ( 'Micro_SFA-250-46', 'Micro_SFA-250-46', '', ( #39 ) ) ;
#97 = PLANE ( 'NONE',  #78 ) ;
#98 = CARTESIAN_POINT ( 'NONE',  ( 0.0000000000000000000, 0.0000000000000000000, 2.500000000000000000 ) ) ;
#99 = LINE ( 'NONE', #241, #192 ) ;
#100 = EDGE_CURVE ( 'NONE', #111, #230, #46, .T. ) ;
#101 = CARTESIAN_POINT ( 'NONE',  ( 0.1248749999999999999, 1.529277690435257475E-17, -1.529277690435257475E-17 ) ) ;
#102 = APPLICATION_CONTEXT ( 'automotive_design' ) ;
#103 = COLOUR_RGB ( '',0.7921568627450980005, 0.8196078431372548767, 0.9333333333333333481 ) ;
#104 = CARTESIAN_POINT ( 'NONE',  ( 1.872825028598994811E-33, 0.0000000000000000000, 1.529277690435257475E-17 ) ) ;
#105 = CARTESIAN_POINT ( 'NONE',  ( 0.0000000000000000000, 0.0000000000000000000, 0.0000000000000000000 ) ) ;
#106 = DIRECTION ( 'NONE',  ( -1.224646799147353207E-16, -0.0000000000000000000, -1.000000000000000000 ) ) ;
#107 = DIRECTION ( 'NONE',  ( -1.000000000000000000, 0.0000000000000000000, 0.0000000000000000000 ) ) ;
#108 = ORIENTED_EDGE ( 'NONE', *, *, #77, .T. ) ;
#109 = ADVANCED_FACE ( 'NONE', ( #198 ), #178, .F. ) ;
#110 = DIRECTION ( 'NONE',  ( 1.000000000000000000, 0.0000000000000000000, 0.0000000000000000000 ) ) ;
#111 = VERTEX_POINT ( 'NONE', #262 ) ;
#112 = CIRCLE ( 'NONE', #59, 0.1250000000000000000 ) ;
#113 = EDGE_CURVE ( 'NONE', #200, #15, #268, .T. ) ;
#114 = CIRCLE ( 'NONE', #253, 0.1250000000000000000 ) ;
#115 = PRESENTATION_LAYER_ASSIGNMENT (  '', '', ( #279 ) ) ;
#116 = PRODUCT_DEFINITION_SHAPE ( 'NONE', 'NONE',  #252 ) ;
#117 = CARTESIAN_POINT ( 'NONE',  ( 0.1100000000000001948, 1.438959988998141146E-17, 2.500000000000000000 ) ) ;
#118 = DIRECTION ( 'NONE',  ( 0.0000000000000000000, 0.0000000000000000000, 1.000000000000000000 ) ) ;
#119 = ORIENTED_EDGE ( 'NONE', *, *, #242, .T. ) ;
#120 = MECHANICAL_DESIGN_GEOMETRIC_PRESENTATION_REPRESENTATION (  '', ( #279 ), #274 ) ;
#121 = DIRECTION ( 'NONE',  ( -0.0000000000000000000, -0.0000000000000000000, -1.000000000000000000 ) ) ;
#122 = DIRECTION ( 'NONE',  ( 1.000000000000000000, 0.0000000000000000000, -0.0000000000000000000 ) ) ;
#123 = DIRECTION ( 'NONE',  ( 0.0000000000000000000, 0.0000000000000000000, -1.000000000000000000 ) ) ;
#124 = ORIENTED_EDGE ( 'NONE', *, *, #47, .F. ) ;
#125 = LINE ( 'NONE', #142, #216 ) ;
#126 = VECTOR ( 'NONE', #50, 39.37007874015748143 ) ;
#127 = COLOUR_RGB ( '',0.7921568627450980005, 0.8196078431372548767, 0.9333333333333333481 ) ;
#128 = PRESENTATION_STYLE_ASSIGNMENT (( #135 ) ) ;
#129 = EDGE_CURVE ( 'NONE', #283, #43, #137, .T. ) ;
#130 = DIRECTION ( 'NONE',  ( -1.000000000000000000, 0.0000000000000000000, 1.224646799147353454E-16 ) ) ;
#131 = CONICAL_SURFACE ( 'NONE', #40, 0.1100000000000001948, 0.7853981633974517207 ) ;
#132 = CARTESIAN_POINT ( 'NONE',  ( 0.1248750000000000970, 0.0000000000000000000, 0.7500000000000001110 ) ) ;
#133 = ADVANCED_FACE ( 'NONE', ( #58 ), #294, .T. ) ;
#134 = ORIENTED_EDGE ( 'NONE', *, *, #263, .F. ) ;
#135 = SURFACE_STYLE_USAGE ( .BOTH. , #45 ) ;
#136 = ORIENTED_EDGE ( 'NONE', *, *, #242, .F. ) ;
#137 = CIRCLE ( 'NONE', #225, 0.1250000000000000000 ) ;
#138 = ORIENTED_EDGE ( 'NONE', *, *, #113, .F. ) ;
#139 =( NAMED_UNIT ( * ) SI_UNIT ( $, .STERADIAN. ) SOLID_ANGLE_UNIT ( ) );
#140 = DIMENSIONAL_EXPONENTS ( 1.000000000000000000, 0.0000000000000000000, 0.0000000000000000000, 0.0000000000000000000, 0.0000000000000000000, 0.0000000000000000000, 0.0000000000000000000 ) ;
#141 = DIRECTION ( 'NONE',  ( 0.1736481776669313026, 0.0000000000000000000, 0.9848077530122077983 ) ) ;
#142 = CARTESIAN_POINT ( 'NONE',  ( 0.1100000000000001948, 1.347111479062090784E-17, 2.500000000000000000 ) ) ;
#143 = ORIENTED_EDGE ( 'NONE', *, *, #263, .T. ) ;
#144 = MANIFOLD_SOLID_BREP ( 'Cut-Revolve1', #18 ) ;
#145 = CARTESIAN_POINT ( 'NONE',  ( 0.0000000000000000000, 0.0000000000000000000, 2.500000000000000000 ) ) ;
#146 = AXIS2_PLACEMENT_3D ( 'NONE', #145, #118, #2 ) ;
#147 = CARTESIAN_POINT ( 'NONE',  ( -0.1248749999999999166, 1.530043094684724646E-17, 0.7500000000000001110 ) ) ;
#148 = ORIENTED_EDGE ( 'NONE', *, *, #291, .T. ) ;
#149 = CARTESIAN_POINT ( 'NONE',  ( 0.1248750000000000970, 0.0000000000000000000, 0.7500000000000001110 ) ) ;
#150 = ORIENTED_EDGE ( 'NONE', *, *, #113, .T. ) ;
#151 = LENGTH_MEASURE_WITH_UNIT ( LENGTH_MEASURE( 0.02539999999999999897 ), #221 );
#152 = DIRECTION ( 'NONE',  ( -1.000000000000000000, 0.0000000000000000000, 1.224646799147353454E-16 ) ) ;
#153 =( CONVERSION_BASED_UNIT ( 'INCH', #151 ) LENGTH_UNIT ( ) NAMED_UNIT ( #140 ) );
#154 = CARTESIAN_POINT ( 'NONE',  ( 9.184850993605150903E-17, 0.0000000000000000000, 0.7500000000000001110 ) ) ;
#155 = CARTESIAN_POINT ( 'NONE',  ( -0.1100000000000001948, 0.0000000000000000000, 2.500000000000000000 ) ) ;
#156 = DIRECTION ( 'NONE',  ( 0.0000000000000000000, 0.0000000000000000000, 1.000000000000000000 ) ) ;
#157 = CYLINDRICAL_SURFACE ( 'NONE', #248, 0.1248749999999999999 ) ;
#158 = ORIENTED_EDGE ( 'NONE', *, *, #276, .T. ) ;
#159 = ADVANCED_FACE ( 'NONE', ( #74 ), #199, .T. ) ;
#160 = AXIS2_PLACEMENT_3D ( 'NONE', #154, #76, #201 ) ;
#161 = ORIENTED_EDGE ( 'NONE', *, *, #47, .T. ) ;
#162 = ADVANCED_FACE ( 'NONE', ( #190 ), #285, .T. ) ;
#163 = EDGE_CURVE ( 'NONE', #211, #200, #259, .T. ) ;
#164 = AXIS2_PLACEMENT_3D ( 'NONE', #191, #185, #280 ) ;
#165 = DIRECTION ( 'NONE',  ( -1.000000000000000000, 0.0000000000000000000, 0.0000000000000000000 ) ) ;
#166 = ORIENTED_EDGE ( 'NONE', *, *, #100, .T. ) ;
#167 = DIRECTION ( 'NONE',  ( -0.0000000000000000000, -0.0000000000000000000, -1.000000000000000000 ) ) ;
#168 = LINE ( 'NONE', #149, #169 ) ;
#169 = VECTOR ( 'NONE', #141, 39.37007874015748143 ) ;
#170 = CIRCLE ( 'NONE', #289, 0.1248749999999999999 ) ;
#171 = DIRECTION ( 'NONE',  ( 0.7071067811865499042, 8.659560562354961208E-17, -0.7071067811865451302 ) ) ;
#172 = ORIENTED_EDGE ( 'NONE', *, *, #163, .F. ) ;
#173 = DIRECTION ( 'NONE',  ( -1.224646799147353207E-16, -0.0000000000000000000, -1.000000000000000000 ) ) ;
#174 =( NAMED_UNIT ( * ) SI_UNIT ( $, .STERADIAN. ) SOLID_ANGLE_UNIT ( ) );
#175 = DIRECTION ( 'NONE',  ( 1.000000000000000000, 0.0000000000000000000, -0.0000000000000000000 ) ) ;
#176 =( NAMED_UNIT ( * ) SI_UNIT ( $, .STERADIAN. ) SOLID_ANGLE_UNIT ( ) );
#177 = DIRECTION ( 'NONE',  ( 1.224646799147353207E-16, 0.0000000000000000000, 1.000000000000000000 ) ) ;
#178 = PLANE ( 'NONE',  #22 ) ;
#179 = DIRECTION ( 'NONE',  ( 0.0000000000000000000, 0.0000000000000000000, 1.000000000000000000 ) ) ;
#180 = VECTOR ( 'NONE', #208, 39.37007874015748143 ) ;
#181 = ORIENTED_EDGE ( 'NONE', *, *, #270, .T. ) ;
#182 = ADVANCED_FACE ( 'NONE', ( #284 ), #131, .T. ) ;
#183 = EDGE_CURVE ( 'NONE', #88, #43, #168, .T. ) ;
#184 = DIRECTION ( 'NONE',  ( 1.000000000000000000, 0.0000000000000000000, 0.0000000000000000000 ) ) ;
#185 = DIRECTION ( 'NONE',  ( 0.0000000000000000000, 0.0000000000000000000, -1.000000000000000000 ) ) ;
#186 = CIRCLE ( 'NONE', #87, 0.1248749999999999999 ) ;
#187 = ORIENTED_EDGE ( 'NONE', *, *, #72, .F. ) ;
#188 = ORIENTED_EDGE ( 'NONE', *, *, #183, .T. ) ;
#189 = ADVANCED_FACE ( 'NONE', ( #231 ), #6, .T. ) ;
#190 = FACE_OUTER_BOUND ( 'NONE', #215, .T. ) ;
#191 = CARTESIAN_POINT ( 'NONE',  ( 0.0000000000000000000, 0.0000000000000000000, 2.485000000000000320 ) ) ;
#192 = VECTOR ( 'NONE', #290, 39.37007874015747433 ) ;
#193 =( LENGTH_UNIT ( ) NAMED_UNIT ( * ) SI_UNIT ( $, .METRE. ) );
#194 = SURFACE_STYLE_USAGE ( .BOTH. , #264 ) ;
#195 = DIRECTION ( 'NONE',  ( -1.224646799147353207E-16, -0.0000000000000000000, -1.000000000000000000 ) ) ;
#196 = UNCERTAINTY_MEASURE_WITH_UNIT (LENGTH_MEASURE( 1.000000000000000082E-05 ), #153, 'distance_accuracy_value', 'NONE');
#197 = AXIS2_PLACEMENT_3D ( 'NONE', #240, #247, #107 ) ;
#198 = FACE_OUTER_BOUND ( 'NONE', #86, .T. ) ;
#199 = CYLINDRICAL_SURFACE ( 'NONE', #26, 0.1250000000000000000 ) ;
#200 = VERTEX_POINT ( 'NONE', #234 ) ;
#201 = DIRECTION ( 'NONE',  ( -1.000000000000000000, 0.0000000000000000000, 0.0000000000000000000 ) ) ;
#202 = AXIS2_PLACEMENT_3D ( 'NONE', #60, #177, #110 ) ;
#203 = ORIENTED_EDGE ( 'NONE', *, *, #129, .F. ) ;
#204 = VERTEX_POINT ( 'NONE', #255 ) ;
#205 = ORIENTED_EDGE ( 'NONE', *, *, #270, .F. ) ;
#206 = CARTESIAN_POINT ( 'NONE',  ( -0.1249999999999999167, 0.0000000000000000000, 0.7507089102274522308 ) ) ;
#207 = ORIENTED_EDGE ( 'NONE', *, *, #77, .F. ) ;
#208 = DIRECTION ( 'NONE',  ( -1.224646799147353207E-16, -0.0000000000000000000, -1.000000000000000000 ) ) ;
#209 = CONICAL_SURFACE ( 'NONE', #202, 0.1248749999999999999, 0.1745329251994338082 ) ;
#210 = EDGE_LOOP ( 'NONE', ( #134, #214, #251, #250 ) ) ;
#211 = VERTEX_POINT ( 'NONE', #117 ) ;
#212 = FACE_OUTER_BOUND ( 'NONE', #19, .T. ) ;
#213 = CARTESIAN_POINT ( 'NONE',  ( 0.0000000000000000000, 0.0000000000000000000, 2.500000000000000000 ) ) ;
#214 = ORIENTED_EDGE ( 'NONE', *, *, #17, .T. ) ;
#215 = EDGE_LOOP ( 'NONE', ( #124, #223, #273, #29 ) ) ;
#216 = VECTOR ( 'NONE', #171, 39.37007874015748143 ) ;
#217 =( NAMED_UNIT ( * ) PLANE_ANGLE_UNIT ( ) SI_UNIT ( $, .RADIAN. ) );
#218 = CARTESIAN_POINT ( 'NONE',  ( 0.1250000000000000833, 1.530808498934192433E-17, 0.7507089102274522308 ) ) ;
#219 = CARTESIAN_POINT ( 'NONE',  ( 0.1250000000000000000, 1.530808498934191509E-17, 2.500000000000000000 ) ) ;
#220 = PRODUCT_DEFINITION_CONTEXT ( 'detailed design', #260, 'design' ) ;
#221 =( LENGTH_UNIT ( ) NAMED_UNIT ( * ) SI_UNIT ( $, .METRE. ) );
#222 = DIRECTION ( 'NONE',  ( 1.000000000000000000, 0.0000000000000000000, 0.0000000000000000000 ) ) ;
#223 = ORIENTED_EDGE ( 'NONE', *, *, #245, .T. ) ;
#224 = DIRECTION ( 'NONE',  ( -1.224646799147353207E-16, -0.0000000000000000000, -1.000000000000000000 ) ) ;
#225 = AXIS2_PLACEMENT_3D ( 'NONE', #14, #41, #222 ) ;
#226 = EDGE_LOOP ( 'NONE', ( #181, #161, #203, #48 ) ) ;
#227 = ORIENTED_EDGE ( 'NONE', *, *, #17, .F. ) ;
#228 = ORIENTED_EDGE ( 'NONE', *, *, #236, .F. ) ;
#229 = DIRECTION ( 'NONE',  ( -0.0000000000000000000, -0.0000000000000000000, -1.000000000000000000 ) ) ;
#230 = VERTEX_POINT ( 'NONE', #278 ) ;
#231 = FACE_OUTER_BOUND ( 'NONE', #210, .T. ) ;
#232 = CARTESIAN_POINT ( 'NONE',  ( 0.0000000000000000000, 0.0000000000000000000, 2.500000000000000000 ) ) ;
#233 = ORIENTED_EDGE ( 'NONE', *, *, #72, .T. ) ;
#234 = CARTESIAN_POINT ( 'NONE',  ( -0.1100000000000001948, 0.0000000000000000000, 2.500000000000000000 ) ) ;
#235 = AXIS2_PLACEMENT_3D ( 'NONE', #104, #106, #152 ) ;
#236 = EDGE_CURVE ( 'NONE', #246, #111, #239, .T. ) ;
#237 = DIRECTION ( 'NONE',  ( -1.000000000000000000, 0.0000000000000000000, 0.0000000000000000000 ) ) ;
#238 = EDGE_CURVE ( 'NONE', #15, #283, #298, .T. ) ;
#239 = LINE ( 'NONE', #258, #180 ) ;
#240 = CARTESIAN_POINT ( 'NONE',  ( 0.0000000000000000000, 0.0000000000000000000, 2.500000000000000000 ) ) ;
#241 = CARTESIAN_POINT ( 'NONE',  ( -0.1248749999999999166, 1.529277690435257475E-17, 0.7500000000000001110 ) ) ;
#242 = EDGE_CURVE ( 'NONE', #211, #204, #125, .T. ) ;
#243 = DIRECTION ( 'NONE',  ( -1.000000000000000000, 0.0000000000000000000, 1.224646799147353454E-16 ) ) ;
#244 = CIRCLE ( 'NONE', #164, 0.1250000000000000000 ) ;
#245 = EDGE_CURVE ( 'NONE', #204, #15, #244, .T. ) ;
#246 = VERTEX_POINT ( 'NONE', #147 ) ;
#247 = DIRECTION ( 'NONE',  ( 0.0000000000000000000, 0.0000000000000000000, -1.000000000000000000 ) ) ;
#248 = AXIS2_PLACEMENT_3D ( 'NONE', #16, #195, #130 ) ;
#249 =( GEOMETRIC_REPRESENTATION_CONTEXT ( 3 ) GLOBAL_UNCERTAINTY_ASSIGNED_CONTEXT ( ( #35 ) ) GLOBAL_UNIT_ASSIGNED_CONTEXT ( ( #44, #79, #174 ) ) REPRESENTATION_CONTEXT ( 'NONE', 'WORKASPACE' ) );
#250 = ORIENTED_EDGE ( 'NONE', *, *, #183, .F. ) ;
#251 = ORIENTED_EDGE ( 'NONE', *, *, #129, .T. ) ;
#252 = PRODUCT_DEFINITION ( 'UNKNOWN', '', #80, #220 ) ;
#253 = AXIS2_PLACEMENT_3D ( 'NONE', #30, #123, #299 ) ;
#254 = CARTESIAN_POINT ( 'NONE',  ( 0.0000000000000000000, 0.0000000000000000000, 2.500000000000000000 ) ) ;
#255 = CARTESIAN_POINT ( 'NONE',  ( 0.1250000000000000000, 1.530808498934191509E-17, 2.485000000000000320 ) ) ;
#256 = UNCERTAINTY_MEASURE_WITH_UNIT (LENGTH_MEASURE( 1.000000000000000082E-05 ), #90, 'distance_accuracy_value', 'NONE');
#257 = DIRECTION ( 'NONE',  ( 0.0000000000000000000, 0.0000000000000000000, -1.000000000000000000 ) ) ;
#258 = CARTESIAN_POINT ( 'NONE',  ( -0.1248749999999999999, 0.0000000000000000000, 1.529277690435257475E-17 ) ) ;
#259 = CIRCLE ( 'NONE', #146, 0.1100000000000001948 ) ;
#260 = APPLICATION_CONTEXT ( 'automotive_design' ) ;
#261 = DIRECTION ( 'NONE',  ( -1.224646799147353207E-16, -0.0000000000000000000, -1.000000000000000000 ) ) ;
#262 = CARTESIAN_POINT ( 'NONE',  ( -0.1248749999999999999, 0.0000000000000000000, 3.058555380870514950E-17 ) ) ;
#263 = EDGE_CURVE ( 'NONE', #246, #88, #186, .T. ) ;
#264 = SURFACE_SIDE_STYLE ('',( #83 ) ) ;
#265 = CYLINDRICAL_SURFACE ( 'NONE', #56, 0.1248749999999999999 ) ;
#266 = AXIS2_PLACEMENT_3D ( 'NONE', #254, #24, #95 ) ;
#267 = CARTESIAN_POINT ( 'NONE',  ( 1.872825028598994811E-33, 0.0000000000000000000, 1.529277690435257475E-17 ) ) ;
#268 = LINE ( 'NONE', #155, #91 ) ;
#269 = FILL_AREA_STYLE ('',( #34 ) ) ;
#270 = EDGE_CURVE ( 'NONE', #15, #204, #114, .T. ) ;
#271 = STYLED_ITEM ( 'NONE', ( #128 ), #144 ) ;
#272 = ORIENTED_EDGE ( 'NONE', *, *, #236, .T. ) ;
#273 = ORIENTED_EDGE ( 'NONE', *, *, #238, .T. ) ;
#274 =( GEOMETRIC_REPRESENTATION_CONTEXT ( 3 ) GLOBAL_UNCERTAINTY_ASSIGNED_CONTEXT ( ( #196 ) ) GLOBAL_UNIT_ASSIGNED_CONTEXT ( ( #153, #217, #176 ) ) REPRESENTATION_CONTEXT ( 'NONE', 'WORKASPACE' ) );
#275 = EDGE_CURVE ( 'NONE', #88, #230, #4, .T. ) ;
#276 = EDGE_CURVE ( 'NONE', #43, #283, #112, .T. ) ;
#277 = DIMENSIONAL_EXPONENTS ( 1.000000000000000000, 0.0000000000000000000, 0.0000000000000000000, 0.0000000000000000000, 0.0000000000000000000, 0.0000000000000000000, 0.0000000000000000000 ) ;
#278 = CARTESIAN_POINT ( 'NONE',  ( 0.1248749999999999999, 1.529277690435257475E-17, 0.0000000000000000000 ) ) ;
#279 = STYLED_ITEM ( 'NONE', ( #81 ), #61 ) ;
#280 = DIRECTION ( 'NONE',  ( 1.000000000000000000, 0.0000000000000000000, 0.0000000000000000000 ) ) ;
#281 =( LENGTH_UNIT ( ) NAMED_UNIT ( * ) SI_UNIT ( $, .METRE. ) );
#282 = DIRECTION ( 'NONE',  ( 0.0000000000000000000, 0.0000000000000000000, 1.000000000000000000 ) ) ;
#283 = VERTEX_POINT ( 'NONE', #206 ) ;
#284 = FACE_OUTER_BOUND ( 'NONE', #295, .T. ) ;
#285 = CYLINDRICAL_SURFACE ( 'NONE', #42, 0.1250000000000000000 ) ;
#286 = CIRCLE ( 'NONE', #160, 0.1248749999999999999 ) ;
#287 = FILL_AREA_STYLE_COLOUR ( '', #127 ) ;
#288 = LENGTH_MEASURE_WITH_UNIT ( LENGTH_MEASURE( 0.02539999999999999897 ), #281 );
#289 = AXIS2_PLACEMENT_3D ( 'NONE', #267, #173, #243 ) ;
#290 = DIRECTION ( 'NONE',  ( -0.1736481776669311083, 2.126576849575782084E-17, 0.9848077530122080203 ) ) ;
#291 = EDGE_CURVE ( 'NONE', #200, #211, #93, .T. ) ;
#292 = SURFACE_STYLE_FILL_AREA ( #269 ) ;
#293 = DIRECTION ( 'NONE',  ( -0.7071067811865499042, 0.0000000000000000000, -0.7071067811865451302 ) ) ;
#294 = CONICAL_SURFACE ( 'NONE', #197, 0.1100000000000001948, 0.7853981633974517207 ) ;
#295 = EDGE_LOOP ( 'NONE', ( #136, #31, #150, #8 ) ) ;
#296 = MECHANICAL_DESIGN_GEOMETRIC_PRESENTATION_REPRESENTATION (  '', ( #271 ), #13 ) ;
#297 = CARTESIAN_POINT ( 'NONE',  ( 9.184850993605150903E-17, 0.0000000000000000000, 0.7500000000000001110 ) ) ;
#298 = LINE ( 'NONE', #27, #49 ) ;
#299 = DIRECTION ( 'NONE',  ( 1.000000000000000000, 0.0000000000000000000, 0.0000000000000000000 ) ) ;
ENDSEC;
END-ISO-10303-21;
