ISO-10303-21;
HEADER;
FILE_DESCRIPTION (( 'STEP AP214' ),
    '1' );
FILE_NAME ('Micro_SFBM-050-11X.STEP',
    '2021-09-03T16:43:41',
    ( '' ),
    ( '' ),
    'SwSTEP 2.0',
    'SolidWorks 2020',
    '' );
FILE_SCHEMA (( 'AUTOMOTIVE_DESIGN' ));
ENDSEC;

DATA;
#1 = EDGE_CURVE ( 'NONE', #181, #353, #203, .T. ) ;
#2 = PRODUCT_DEFINITION_FORMATION_WITH_SPECIFIED_SOURCE ( 'ANY', '', #257, .NOT_KNOWN. ) ;
#3 = EDGE_CURVE ( 'NONE', #310, #181, #67, .T. ) ;
#4 = SURFACE_SIDE_STYLE ('',( #168 ) ) ;
#5 = VERTEX_POINT ( 'NONE', #201 ) ;
#6 = EDGE_CURVE ( 'NONE', #199, #166, #313, .T. ) ;
#7 = AXIS2_PLACEMENT_3D ( 'NONE', #159, #83, #369 ) ;
#8 = PRESENTATION_LAYER_ASSIGNMENT (  '', '', ( #346 ) ) ;
#9 = LINE ( 'NONE', #139, #80 ) ;
#10 = PRESENTATION_STYLE_ASSIGNMENT (( #292 ) ) ;
#11 = DIRECTION ( 'NONE',  ( -0.0000000000000000000, -0.0000000000000000000, -1.000000000000000000 ) ) ;
#12 = ORIENTED_EDGE ( 'NONE', *, *, #163, .F. ) ;
#13 = CYLINDRICAL_SURFACE ( 'NONE', #37, 0.1181100000000000066 ) ;
#14 = DIRECTION ( 'NONE',  ( 0.0000000000000000000, 0.0000000000000000000, 1.000000000000000000 ) ) ;
#15 = CIRCLE ( 'NONE', #164, 0.1181100000000000066 ) ;
#16 = EDGE_LOOP ( 'NONE', ( #140, #45, #283, #288 ) ) ;
#17 = DIRECTION ( 'NONE',  ( -1.000000000000000000, 0.0000000000000000000, 0.0000000000000000000 ) ) ;
#18 = EDGE_CURVE ( 'NONE', #59, #282, #48, .T. ) ;
#19 = ORIENTED_EDGE ( 'NONE', *, *, #261, .F. ) ;
#20 = DIRECTION ( 'NONE',  ( -0.0000000000000000000, -0.0000000000000000000, -1.000000000000000000 ) ) ;
#21 = DIRECTION ( 'NONE',  ( -1.000000000000000000, 0.0000000000000000000, 0.0000000000000000000 ) ) ;
#22 = DIRECTION ( 'NONE',  ( -0.0000000000000000000, -0.0000000000000000000, -1.000000000000000000 ) ) ;
#23 = AXIS2_PLACEMENT_3D ( 'NONE', #294, #40, #46 ) ;
#24 = UNCERTAINTY_MEASURE_WITH_UNIT (LENGTH_MEASURE( 1.000000000000000082E-05 ), #74, 'distance_accuracy_value', 'NONE');
#25 = ADVANCED_FACE ( 'NONE', ( #94, #179 ), #204, .T. ) ;
#26 = LINE ( 'NONE', #258, #339 ) ;
#27 = EDGE_CURVE ( 'NONE', #101, #5, #93, .T. ) ;
#28 = ORIENTED_EDGE ( 'NONE', *, *, #33, .T. ) ;
#29 = ORIENTED_EDGE ( 'NONE', *, *, #240, .F. ) ;
#30 = PRESENTATION_LAYER_ASSIGNMENT (  '', '', ( #220 ) ) ;
#31 = FILL_AREA_STYLE ('',( #60 ) ) ;
#32 = AXIS2_PLACEMENT_3D ( 'NONE', #279, #160, #281 ) ;
#33 = EDGE_CURVE ( 'NONE', #282, #59, #15, .T. ) ;
#34 = ORIENTED_EDGE ( 'NONE', *, *, #323, .T. ) ;
#35 = SURFACE_SIDE_STYLE ('',( #66 ) ) ;
#36 = CARTESIAN_POINT ( 'NONE',  ( 0.0000000000000000000, 0.0000000000000000000, 0.4330709999999999837 ) ) ;
#37 = AXIS2_PLACEMENT_3D ( 'NONE', #178, #368, #253 ) ;
#38 = VECTOR ( 'NONE', #171, 39.37007874015748854 ) ;
#39 = EDGE_CURVE ( 'NONE', #350, #353, #228, .T. ) ;
#40 = DIRECTION ( 'NONE',  ( -0.0000000000000000000, -0.0000000000000000000, -1.000000000000000000 ) ) ;
#41 = ADVANCED_FACE ( 'NONE', ( #44 ), #155, .T. ) ;
#42 = ORIENTED_EDGE ( 'NONE', *, *, #70, .T. ) ;
#43 = DIRECTION ( 'NONE',  ( -1.000000000000000000, 0.0000000000000000000, 0.0000000000000000000 ) ) ;
#44 = FACE_OUTER_BOUND ( 'NONE', #299, .T. ) ;
#45 = ORIENTED_EDGE ( 'NONE', *, *, #62, .F. ) ;
#46 = DIRECTION ( 'NONE',  ( -1.000000000000000000, 0.0000000000000000000, 0.0000000000000000000 ) ) ;
#47 = DIRECTION ( 'NONE',  ( 1.000000000000000000, 0.0000000000000000000, 0.0000000000000000000 ) ) ;
#48 = CIRCLE ( 'NONE', #124, 0.1181100000000000066 ) ;
#49 = FACE_OUTER_BOUND ( 'NONE', #377, .T. ) ;
#50 = DIRECTION ( 'NONE',  ( 1.000000000000000000, 0.0000000000000000000, -0.0000000000000000000 ) ) ;
#51 = DIRECTION ( 'NONE',  ( 1.000000000000000000, 0.0000000000000000000, 0.0000000000000000000 ) ) ;
#52 = CARTESIAN_POINT ( 'NONE',  ( 0.1181100000000000066, 1.446430334472939084E-17, 0.4330709999999999837 ) ) ;
#53 = FACE_OUTER_BOUND ( 'NONE', #370, .T. ) ;
#54 = CARTESIAN_POINT ( 'NONE',  ( 0.09645650000000004221, 1.181251439819567207E-17, 0.0000000000000000000 ) ) ;
#55 = AXIS2_PLACEMENT_3D ( 'NONE', #278, #11, #76 ) ;
#56 = PRODUCT_RELATED_PRODUCT_CATEGORY ( 'part', '', ( #257 ) ) ;
#57 = EDGE_LOOP ( 'NONE', ( #29, #344, #356, #209 ) ) ;
#58 = MECHANICAL_DESIGN_GEOMETRIC_PRESENTATION_REPRESENTATION (  '', ( #220 ), #108 ) ;
#59 = VERTEX_POINT ( 'NONE', #322 ) ;
#60 = FILL_AREA_STYLE_COLOUR ( '', #188 ) ;
#61 = EDGE_LOOP ( 'NONE', ( #184, #90 ) ) ;
#62 = EDGE_CURVE ( 'NONE', #166, #199, #202, .T. ) ;
#63 = CIRCLE ( 'NONE', #332, 0.1181100000000000066 ) ;
#64 = DIRECTION ( 'NONE',  ( 0.0000000000000000000, 0.0000000000000000000, 1.000000000000000000 ) ) ;
#65 = MECHANICAL_DESIGN_GEOMETRIC_PRESENTATION_REPRESENTATION (  '', ( #346 ), #247 ) ;
#66 = SURFACE_STYLE_FILL_AREA ( #355 ) ;
#67 = LINE ( 'NONE', #95, #38 ) ;
#68 = FACE_OUTER_BOUND ( 'NONE', #319, .T. ) ;
#69 = CARTESIAN_POINT ( 'NONE',  ( -0.09841515750000001672, 0.0000000000000000000, 0.0000000000000000000 ) ) ;
#70 = EDGE_CURVE ( 'NONE', #101, #219, #275, .T. ) ;
#71 = CARTESIAN_POINT ( 'NONE',  ( 0.0000000000000000000, 0.0000000000000000000, 0.2473280986706078155 ) ) ;
#72 = DIRECTION ( 'NONE',  ( -0.0000000000000000000, -0.0000000000000000000, -1.000000000000000000 ) ) ;
#73 = ORIENTED_EDGE ( 'NONE', *, *, #349, .T. ) ;
#74 =( CONVERSION_BASED_UNIT ( 'INCH', #109 ) LENGTH_UNIT ( ) NAMED_UNIT ( #267 ) );
#75 = DIRECTION ( 'NONE',  ( -0.0000000000000000000, -0.0000000000000000000, -1.000000000000000000 ) ) ;
#76 = DIRECTION ( 'NONE',  ( -1.000000000000000000, 0.0000000000000000000, 0.0000000000000000000 ) ) ;
#77 = DIRECTION ( 'NONE',  ( -1.000000000000000000, 0.0000000000000000000, 0.0000000000000000000 ) ) ;
#78 = CIRCLE ( 'NONE', #7, 0.1181100000000000066 ) ;
#79 = ADVANCED_FACE ( 'NONE', ( #303 ), #189, .T. ) ;
#80 = VECTOR ( 'NONE', #121, 39.37007874015748143 ) ;
#81 = EDGE_CURVE ( 'NONE', #379, #227, #78, .T. ) ;
#82 = DIRECTION ( 'NONE',  ( -1.000000000000000000, 0.0000000000000000000, 0.0000000000000000000 ) ) ;
#83 = DIRECTION ( 'NONE',  ( 0.0000000000000000000, 0.0000000000000000000, -1.000000000000000000 ) ) ;
#84 = ADVANCED_FACE ( 'NONE', ( #336 ), #146, .T. ) ;
#85 = ORIENTED_EDGE ( 'NONE', *, *, #323, .F. ) ;
#86 = EDGE_LOOP ( 'NONE', ( #142, #115, #96, #150 ) ) ;
#87 = ORIENTED_EDGE ( 'NONE', *, *, #27, .F. ) ;
#88 = ORIENTED_EDGE ( 'NONE', *, *, #6, .T. ) ;
#89 = FACE_OUTER_BOUND ( 'NONE', #170, .T. ) ;
#90 = ORIENTED_EDGE ( 'NONE', *, *, #39, .T. ) ;
#91 = ADVANCED_BREP_SHAPE_REPRESENTATION ( 'Micro_SFBM-050-11X', ( #265, #316 ), #208 ) ;
#92 = SHAPE_DEFINITION_REPRESENTATION ( #174, #91 ) ;
#93 = CIRCLE ( 'NONE', #290, 0.09645650000000005608 ) ;
#94 = FACE_BOUND ( 'NONE', #352, .T. ) ;
#95 = CARTESIAN_POINT ( 'NONE',  ( -0.09841515750000001672, 0.0000000000000000000, 0.2362200000000000133 ) ) ;
#96 = ORIENTED_EDGE ( 'NONE', *, *, #261, .T. ) ;
#97 = CARTESIAN_POINT ( 'NONE',  ( 0.1181100000000000066, 1.446430334472939084E-17, 2.244094000000000033 ) ) ;
#98 = AXIS2_PLACEMENT_3D ( 'NONE', #157, #298, #82 ) ;
#99 = FACE_OUTER_BOUND ( 'NONE', #269, .T. ) ;
#100 = ADVANCED_FACE ( 'NONE', ( #272 ), #135, .F. ) ;
#101 = VERTEX_POINT ( 'NONE', #102 ) ;
#102 = CARTESIAN_POINT ( 'NONE',  ( 0.09645650000000005608, 1.181251439819567515E-17, 0.4330709999999999837 ) ) ;
#103 = CARTESIAN_POINT ( 'NONE',  ( 0.1031100000000002570, 1.354581824536888722E-17, 2.244094000000000033 ) ) ;
#104 = DIRECTION ( 'NONE',  ( 0.0000000000000000000, 0.0000000000000000000, -1.000000000000000000 ) ) ;
#105 = DIRECTION ( 'NONE',  ( -0.0000000000000000000, -0.0000000000000000000, -1.000000000000000000 ) ) ;
#106 = DIRECTION ( 'NONE',  ( -0.0000000000000000000, -0.0000000000000000000, -1.000000000000000000 ) ) ;
#107 = CARTESIAN_POINT ( 'NONE',  ( 0.0000000000000000000, 0.0000000000000000000, 0.4330709999999999837 ) ) ;
#108 =( GEOMETRIC_REPRESENTATION_CONTEXT ( 3 ) GLOBAL_UNCERTAINTY_ASSIGNED_CONTEXT ( ( #357 ) ) GLOBAL_UNIT_ASSIGNED_CONTEXT ( ( #180, #318, #212 ) ) REPRESENTATION_CONTEXT ( 'NONE', 'WORKASPACE' ) );
#109 = LENGTH_MEASURE_WITH_UNIT ( LENGTH_MEASURE( 0.02539999999999999897 ), #365 );
#110 = DIRECTION ( 'NONE',  ( -0.0000000000000000000, -0.0000000000000000000, -1.000000000000000000 ) ) ;
#111 = EDGE_CURVE ( 'NONE', #310, #219, #232, .T. ) ;
#112 = EDGE_CURVE ( 'NONE', #127, #181, #373, .T. ) ;
#113 = CARTESIAN_POINT ( 'NONE',  ( -0.1031100000000002570, 0.0000000000000000000, 2.244094000000000033 ) ) ;
#114 = AXIS2_PLACEMENT_3D ( 'NONE', #375, #22, #222 ) ;
#115 = ORIENTED_EDGE ( 'NONE', *, *, #167, .T. ) ;
#116 = ORIENTED_EDGE ( 'NONE', *, *, #284, .T. ) ;
#117 = VECTOR ( 'NONE', #330, 39.37007874015748143 ) ;
#118 = ORIENTED_EDGE ( 'NONE', *, *, #6, .F. ) ;
#119 = ADVANCED_FACE ( 'NONE', ( #99 ), #331, .T. ) ;
#120 = CYLINDRICAL_SURFACE ( 'NONE', #122, 0.09841515750000001672 ) ;
#121 = DIRECTION ( 'NONE',  ( -0.0000000000000000000, -0.0000000000000000000, -1.000000000000000000 ) ) ;
#122 = AXIS2_PLACEMENT_3D ( 'NONE', #230, #264, #343 ) ;
#123 =( NAMED_UNIT ( * ) PLANE_ANGLE_UNIT ( ) SI_UNIT ( $, .RADIAN. ) );
#124 = AXIS2_PLACEMENT_3D ( 'NONE', #36, #206, #147 ) ;
#125 = CARTESIAN_POINT ( 'NONE',  ( 0.0000000000000000000, 0.0000000000000000000, 0.0000000000000000000 ) ) ;
#126 = CARTESIAN_POINT ( 'NONE',  ( 0.0000000000000000000, 0.0000000000000000000, 0.4330709999999999837 ) ) ;
#127 = VERTEX_POINT ( 'NONE', #277 ) ;
#128 = CARTESIAN_POINT ( 'NONE',  ( 0.0000000000000000000, 0.0000000000000000000, 0.2473280986706078155 ) ) ;
#129 = ORIENTED_EDGE ( 'NONE', *, *, #162, .T. ) ;
#130 = CARTESIAN_POINT ( 'NONE',  ( -0.09841515750000001672, 0.0000000000000000000, 0.2362200000000000133 ) ) ;
#131 = CYLINDRICAL_SURFACE ( 'NONE', #55, 0.09645650000000004221 ) ;
#132 = DIRECTION ( 'NONE',  ( -1.000000000000000000, 0.0000000000000000000, 0.0000000000000000000 ) ) ;
#133 = ADVANCED_FACE ( 'NONE', ( #254 ), #372, .T. ) ;
#134 = DIRECTION ( 'NONE',  ( -1.000000000000000000, 0.0000000000000000000, 0.0000000000000000000 ) ) ;
#135 = PLANE ( 'NONE',  #309 ) ;
#136 = AXIS2_PLACEMENT_3D ( 'NONE', #182, #104, #21 ) ;
#137 = DIMENSIONAL_EXPONENTS ( 1.000000000000000000, 0.0000000000000000000, 0.0000000000000000000, 0.0000000000000000000, 0.0000000000000000000, 0.0000000000000000000, 0.0000000000000000000 ) ;
#138 = DIRECTION ( 'NONE',  ( -1.000000000000000000, 0.0000000000000000000, 0.0000000000000000000 ) ) ;
#139 = CARTESIAN_POINT ( 'NONE',  ( -0.1181100000000000066, 0.0000000000000000000, 2.244094000000000033 ) ) ;
#140 = ORIENTED_EDGE ( 'NONE', *, *, #349, .F. ) ;
#141 = AXIS2_PLACEMENT_3D ( 'NONE', #128, #105, #307 ) ;
#142 = ORIENTED_EDGE ( 'NONE', *, *, #363, .F. ) ;
#143 = ORIENTED_EDGE ( 'NONE', *, *, #111, .F. ) ;
#144 = ADVANCED_FACE ( 'NONE', ( #53 ), #354, .T. ) ;
#145 = CARTESIAN_POINT ( 'NONE',  ( 0.0000000000000000000, 0.0000000000000000000, 0.0000000000000000000 ) ) ;
#146 = CONICAL_SURFACE ( 'NONE', #195, 0.1031100000000002570, 0.7853981633974318477 ) ;
#147 = DIRECTION ( 'NONE',  ( -1.000000000000000000, 0.0000000000000000000, 0.0000000000000000000 ) ) ;
#148 = VECTOR ( 'NONE', #326, 39.37007874015748143 ) ;
#149 = LINE ( 'NONE', #158, #117 ) ;
#150 = ORIENTED_EDGE ( 'NONE', *, *, #33, .F. ) ;
#151 = LINE ( 'NONE', #251, #148 ) ;
#152 = CARTESIAN_POINT ( 'NONE',  ( 0.0000000000000000000, 0.0000000000000000000, 2.244094000000000033 ) ) ;
#153 = ORIENTED_EDGE ( 'NONE', *, *, #70, .F. ) ;
#154 =( NAMED_UNIT ( * ) PLANE_ANGLE_UNIT ( ) SI_UNIT ( $, .RADIAN. ) );
#155 = CYLINDRICAL_SURFACE ( 'NONE', #238, 0.09645650000000004221 ) ;
#156 = ORIENTED_EDGE ( 'NONE', *, *, #1, .F. ) ;
#157 = CARTESIAN_POINT ( 'NONE',  ( 0.0000000000000000000, 0.0000000000000000000, 0.0000000000000000000 ) ) ;
#158 = CARTESIAN_POINT ( 'NONE',  ( -0.09645650000000004221, 0.0000000000000000000, 0.0000000000000000000 ) ) ;
#159 = CARTESIAN_POINT ( 'NONE',  ( 0.0000000000000000000, 0.0000000000000000000, 2.229093999999999465 ) ) ;
#160 = DIRECTION ( 'NONE',  ( -0.0000000000000000000, -0.0000000000000000000, -1.000000000000000000 ) ) ;
#161 = AXIS2_PLACEMENT_3D ( 'NONE', #335, #211, #192 ) ;
#162 = EDGE_CURVE ( 'NONE', #5, #101, #362, .T. ) ;
#163 = EDGE_CURVE ( 'NONE', #166, #379, #26, .T. ) ;
#164 = AXIS2_PLACEMENT_3D ( 'NONE', #107, #328, #185 ) ;
#165 = VECTOR ( 'NONE', #210, 39.37007874015748143 ) ;
#166 = VERTEX_POINT ( 'NONE', #113 ) ;
#167 = EDGE_CURVE ( 'NONE', #227, #379, #63, .T. ) ;
#168 = SURFACE_STYLE_FILL_AREA ( #31 ) ;
#169 = ORIENTED_EDGE ( 'NONE', *, *, #112, .T. ) ;
#170 = EDGE_LOOP ( 'NONE', ( #285, #169, #237, #296 ) ) ;
#171 = DIRECTION ( 'NONE',  ( -0.1736481776669316635, 0.0000000000000000000, -0.9848077530122077983 ) ) ;
#172 = AXIS2_PLACEMENT_3D ( 'NONE', #71, #106, #221 ) ;
#173 = CARTESIAN_POINT ( 'NONE',  ( 0.0000000000000000000, 0.0000000000000000000, 2.244094000000000033 ) ) ;
#174 = PRODUCT_DEFINITION_SHAPE ( 'NONE', 'NONE',  #347 ) ;
#175 = CLOSED_SHELL ( 'NONE', ( #119, #327, #144, #314, #289, #79, #133, #84, #25, #317, #41, #263, #100 ) ) ;
#176 = DIRECTION ( 'NONE',  ( -0.0000000000000000000, -0.0000000000000000000, -1.000000000000000000 ) ) ;
#177 = CONICAL_SURFACE ( 'NONE', #23, 0.09841515750000001672, 0.1745329251994343356 ) ;
#178 = CARTESIAN_POINT ( 'NONE',  ( 0.0000000000000000000, 0.0000000000000000000, 2.244094000000000033 ) ) ;
#179 = FACE_OUTER_BOUND ( 'NONE', #250, .T. ) ;
#180 =( CONVERSION_BASED_UNIT ( 'INCH', #266 ) LENGTH_UNIT ( ) NAMED_UNIT ( #242 ) );
#181 = VERTEX_POINT ( 'NONE', #130 ) ;
#182 = CARTESIAN_POINT ( 'NONE',  ( 0.0000000000000000000, 0.0000000000000000000, 2.244094000000000033 ) ) ;
#183 = CARTESIAN_POINT ( 'NONE',  ( 0.0000000000000000000, 0.0000000000000000000, 0.2362200000000000133 ) ) ;
#184 = ORIENTED_EDGE ( 'NONE', *, *, #337, .T. ) ;
#185 = DIRECTION ( 'NONE',  ( -1.000000000000000000, 0.0000000000000000000, 0.0000000000000000000 ) ) ;
#186 = CARTESIAN_POINT ( 'NONE',  ( 0.0000000000000000000, 0.0000000000000000000, 2.229093999999999465 ) ) ;
#187 =( NAMED_UNIT ( * ) SI_UNIT ( $, .STERADIAN. ) SOLID_ANGLE_UNIT ( ) );
#188 = COLOUR_RGB ( '',0.7921568627450980005, 0.8196078431372548767, 0.9333333333333333481 ) ;
#189 = CYLINDRICAL_SURFACE ( 'NONE', #262, 0.1181100000000000066 ) ;
#190 = FILL_AREA_STYLE_COLOUR ( '', #287 ) ;
#191 = APPLICATION_PROTOCOL_DEFINITION ( 'draft international standard', 'automotive_design', 1998, #213 ) ;
#192 = DIRECTION ( 'NONE',  ( 1.000000000000000000, 0.0000000000000000000, -0.0000000000000000000 ) ) ;
#193 = CARTESIAN_POINT ( 'NONE',  ( 0.0000000000000000000, 0.0000000000000000000, 0.0000000000000000000 ) ) ;
#194 = PRODUCT_DEFINITION_CONTEXT ( 'detailed design', #341, 'design' ) ;
#195 = AXIS2_PLACEMENT_3D ( 'NONE', #152, #256, #249 ) ;
#196 = CIRCLE ( 'NONE', #172, 0.09645650000000001445 ) ;
#197 = ORIENTED_EDGE ( 'NONE', *, *, #18, .F. ) ;
#198 = PRESENTATION_STYLE_ASSIGNMENT (( #235 ) ) ;
#199 = VERTEX_POINT ( 'NONE', #103 ) ;
#200 =( LENGTH_UNIT ( ) NAMED_UNIT ( * ) SI_UNIT ( $, .METRE. ) );
#201 = CARTESIAN_POINT ( 'NONE',  ( -0.09645650000000005608, 0.0000000000000000000, 0.4330709999999999837 ) ) ;
#202 = CIRCLE ( 'NONE', #302, 0.1031100000000002570 ) ;
#203 = LINE ( 'NONE', #69, #225 ) ;
#204 = PLANE ( 'NONE',  #260 ) ;
#205 = PRODUCT_CONTEXT ( 'NONE', #213, 'mechanical' ) ;
#206 = DIRECTION ( 'NONE',  ( -0.0000000000000000000, -0.0000000000000000000, -1.000000000000000000 ) ) ;
#207 = CIRCLE ( 'NONE', #333, 0.09841515750000001672 ) ;
#208 =( GEOMETRIC_REPRESENTATION_CONTEXT ( 3 ) GLOBAL_UNCERTAINTY_ASSIGNED_CONTEXT ( ( #24 ) ) GLOBAL_UNIT_ASSIGNED_CONTEXT ( ( #74, #154, #187 ) ) REPRESENTATION_CONTEXT ( 'NONE', 'WORKASPACE' ) );
#209 = ORIENTED_EDGE ( 'NONE', *, *, #112, .F. ) ;
#210 = DIRECTION ( 'NONE',  ( -0.0000000000000000000, -0.0000000000000000000, -1.000000000000000000 ) ) ;
#211 = DIRECTION ( 'NONE',  ( 0.0000000000000000000, 0.0000000000000000000, 1.000000000000000000 ) ) ;
#212 =( NAMED_UNIT ( * ) SI_UNIT ( $, .STERADIAN. ) SOLID_ANGLE_UNIT ( ) );
#213 = APPLICATION_CONTEXT ( 'automotive_design' ) ;
#214 = ORIENTED_EDGE ( 'NONE', *, *, #337, .F. ) ;
#215 = CARTESIAN_POINT ( 'NONE',  ( 0.0000000000000000000, 0.0000000000000000000, 0.4330709999999999837 ) ) ;
#216 = ORIENTED_EDGE ( 'NONE', *, *, #27, .T. ) ;
#217 = FACE_OUTER_BOUND ( 'NONE', #57, .T. ) ;
#218 = DIRECTION ( 'NONE',  ( -0.0000000000000000000, -0.0000000000000000000, -1.000000000000000000 ) ) ;
#219 = VERTEX_POINT ( 'NONE', #243 ) ;
#220 = STYLED_ITEM ( 'NONE', ( #198 ), #265 ) ;
#221 = DIRECTION ( 'NONE',  ( -1.000000000000000000, 0.0000000000000000000, 0.0000000000000000000 ) ) ;
#222 = DIRECTION ( 'NONE',  ( -1.000000000000000000, 0.0000000000000000000, 0.0000000000000000000 ) ) ;
#223 = CARTESIAN_POINT ( 'NONE',  ( 0.0000000000000000000, 0.0000000000000000000, 0.0000000000000000000 ) ) ;
#224 = DIRECTION ( 'NONE',  ( -0.0000000000000000000, -0.0000000000000000000, -1.000000000000000000 ) ) ;
#225 = VECTOR ( 'NONE', #176, 39.37007874015748143 ) ;
#226 = UNCERTAINTY_MEASURE_WITH_UNIT (LENGTH_MEASURE( 1.000000000000000082E-05 ), #236, 'distance_accuracy_value', 'NONE');
#227 = VERTEX_POINT ( 'NONE', #276 ) ;
#228 = CIRCLE ( 'NONE', #114, 0.09841515750000001672 ) ;
#229 = ORIENTED_EDGE ( 'NONE', *, *, #62, .T. ) ;
#230 = CARTESIAN_POINT ( 'NONE',  ( 0.0000000000000000000, 0.0000000000000000000, 0.0000000000000000000 ) ) ;
#231 = ORIENTED_EDGE ( 'NONE', *, *, #3, .F. ) ;
#232 = CIRCLE ( 'NONE', #141, 0.09645650000000001445 ) ;
#233 = ORIENTED_EDGE ( 'NONE', *, *, #321, .F. ) ;
#234 =( NAMED_UNIT ( * ) SI_UNIT ( $, .STERADIAN. ) SOLID_ANGLE_UNIT ( ) );
#235 = SURFACE_STYLE_USAGE ( .BOTH. , #4 ) ;
#236 =( CONVERSION_BASED_UNIT ( 'INCH', #239 ) LENGTH_UNIT ( ) NAMED_UNIT ( #137 ) );
#237 = ORIENTED_EDGE ( 'NONE', *, *, #1, .T. ) ;
#238 = AXIS2_PLACEMENT_3D ( 'NONE', #223, #75, #132 ) ;
#239 = LENGTH_MEASURE_WITH_UNIT ( LENGTH_MEASURE( 0.02539999999999999897 ), #311 );
#240 = EDGE_CURVE ( 'NONE', #219, #127, #371, .T. ) ;
#241 = ORIENTED_EDGE ( 'NONE', *, *, #18, .T. ) ;
#242 = DIMENSIONAL_EXPONENTS ( 1.000000000000000000, 0.0000000000000000000, 0.0000000000000000000, 0.0000000000000000000, 0.0000000000000000000, 0.0000000000000000000, 0.0000000000000000000 ) ;
#243 = CARTESIAN_POINT ( 'NONE',  ( 0.09645650000000001445, 1.193244758009571828E-17, 0.2473280986706078155 ) ) ;
#244 = CARTESIAN_POINT ( 'NONE',  ( 0.1031100000000002570, 1.262733314600838667E-17, 2.244094000000000033 ) ) ;
#245 = DIRECTION ( 'NONE',  ( -1.000000000000000000, 0.0000000000000000000, 0.0000000000000000000 ) ) ;
#246 = AXIS2_PLACEMENT_3D ( 'NONE', #126, #224, #138 ) ;
#247 =( GEOMETRIC_REPRESENTATION_CONTEXT ( 3 ) GLOBAL_UNCERTAINTY_ASSIGNED_CONTEXT ( ( #226 ) ) GLOBAL_UNIT_ASSIGNED_CONTEXT ( ( #236, #123, #234 ) ) REPRESENTATION_CONTEXT ( 'NONE', 'WORKASPACE' ) );
#248 = CARTESIAN_POINT ( 'NONE',  ( -0.09841515750000001672, 0.0000000000000000000, 0.0000000000000000000 ) ) ;
#249 = DIRECTION ( 'NONE',  ( -1.000000000000000000, 0.0000000000000000000, 0.0000000000000000000 ) ) ;
#250 = EDGE_LOOP ( 'NONE', ( #241, #28 ) ) ;
#251 = CARTESIAN_POINT ( 'NONE',  ( 0.09841515750000001672, 1.205238076199576449E-17, 0.0000000000000000000 ) ) ;
#252 = DIRECTION ( 'NONE',  ( -1.000000000000000000, 0.0000000000000000000, 0.0000000000000000000 ) ) ;
#253 = DIRECTION ( 'NONE',  ( -1.000000000000000000, 0.0000000000000000000, 0.0000000000000000000 ) ) ;
#254 = FACE_OUTER_BOUND ( 'NONE', #324, .T. ) ;
#255 = CARTESIAN_POINT ( 'NONE',  ( 0.09841515750000001672, 1.205238076199576449E-17, 0.0000000000000000000 ) ) ;
#256 = DIRECTION ( 'NONE',  ( 0.0000000000000000000, 0.0000000000000000000, -1.000000000000000000 ) ) ;
#257 = PRODUCT ( 'Micro_SFBM-050-11X', 'Micro_SFBM-050-11X', '', ( #205 ) ) ;
#258 = CARTESIAN_POINT ( 'NONE',  ( -0.1031100000000002570, 0.0000000000000000000, 2.244094000000000033 ) ) ;
#259 = ORIENTED_EDGE ( 'NONE', *, *, #81, .T. ) ;
#260 = AXIS2_PLACEMENT_3D ( 'NONE', #315, #305, #77 ) ;
#261 = EDGE_CURVE ( 'NONE', #379, #59, #9, .T. ) ;
#262 = AXIS2_PLACEMENT_3D ( 'NONE', #361, #110, #252 ) ;
#263 = ADVANCED_FACE ( 'NONE', ( #89 ), #120, .T. ) ;
#264 = DIRECTION ( 'NONE',  ( -0.0000000000000000000, -0.0000000000000000000, -1.000000000000000000 ) ) ;
#265 = MANIFOLD_SOLID_BREP ( 'Cut-Revolve1', #175 ) ;
#266 = LENGTH_MEASURE_WITH_UNIT ( LENGTH_MEASURE( 0.02539999999999999897 ), #200 );
#267 = DIMENSIONAL_EXPONENTS ( 1.000000000000000000, 0.0000000000000000000, 0.0000000000000000000, 0.0000000000000000000, 0.0000000000000000000, 0.0000000000000000000, 0.0000000000000000000 ) ;
#268 = FACE_OUTER_BOUND ( 'NONE', #340, .T. ) ;
#269 = EDGE_LOOP ( 'NONE', ( #338, #116, #214, #156 ) ) ;
#270 = DIRECTION ( 'NONE',  ( 0.1736481776669316635, 2.126576849575787939E-17, -0.9848077530122077983 ) ) ;
#271 = DIRECTION ( 'NONE',  ( -0.0000000000000000000, -0.0000000000000000000, -1.000000000000000000 ) ) ;
#272 = FACE_OUTER_BOUND ( 'NONE', #61, .T. ) ;
#273 = VECTOR ( 'NONE', #270, 39.37007874015748854 ) ;
#274 = ORIENTED_EDGE ( 'NONE', *, *, #111, .T. ) ;
#275 = LINE ( 'NONE', #54, #312 ) ;
#276 = CARTESIAN_POINT ( 'NONE',  ( 0.1181100000000000066, 1.446430334472939084E-17, 2.229093999999999465 ) ) ;
#277 = CARTESIAN_POINT ( 'NONE',  ( 0.09841515750000001672, 1.205238076199576449E-17, 0.2362200000000000133 ) ) ;
#278 = CARTESIAN_POINT ( 'NONE',  ( 0.0000000000000000000, 0.0000000000000000000, 0.0000000000000000000 ) ) ;
#279 = CARTESIAN_POINT ( 'NONE',  ( 0.0000000000000000000, 0.0000000000000000000, 0.2362200000000000133 ) ) ;
#280 = AXIS2_PLACEMENT_3D ( 'NONE', #297, #320, #134 ) ;
#281 = DIRECTION ( 'NONE',  ( -1.000000000000000000, 0.0000000000000000000, 0.0000000000000000000 ) ) ;
#282 = VERTEX_POINT ( 'NONE', #52 ) ;
#283 = ORIENTED_EDGE ( 'NONE', *, *, #163, .T. ) ;
#284 = EDGE_CURVE ( 'NONE', #127, #350, #151, .T. ) ;
#285 = ORIENTED_EDGE ( 'NONE', *, *, #284, .F. ) ;
#286 = AXIS2_PLACEMENT_3D ( 'NONE', #183, #218, #245 ) ;
#287 = COLOUR_RGB ( '',0.7921568627450980005, 0.8196078431372548767, 0.9333333333333333481 ) ;
#288 = ORIENTED_EDGE ( 'NONE', *, *, #167, .F. ) ;
#289 = ADVANCED_FACE ( 'NONE', ( #68 ), #13, .T. ) ;
#290 = AXIS2_PLACEMENT_3D ( 'NONE', #215, #20, #17 ) ;
#291 = DIRECTION ( 'NONE',  ( 1.000000000000000000, 0.0000000000000000000, 0.0000000000000000000 ) ) ;
#292 = SURFACE_STYLE_USAGE ( .BOTH. , #35 ) ;
#293 = CONICAL_SURFACE ( 'NONE', #136, 0.1031100000000002570, 0.7853981633974318477 ) ;
#294 = CARTESIAN_POINT ( 'NONE',  ( 0.0000000000000000000, 0.0000000000000000000, 0.2362200000000000133 ) ) ;
#295 = DIRECTION ( 'NONE',  ( 0.0000000000000000000, 0.0000000000000000000, 1.000000000000000000 ) ) ;
#296 = ORIENTED_EDGE ( 'NONE', *, *, #39, .F. ) ;
#297 = CARTESIAN_POINT ( 'NONE',  ( 0.0000000000000000000, 0.0000000000000000000, 0.2362200000000000133 ) ) ;
#298 = DIRECTION ( 'NONE',  ( -0.0000000000000000000, -0.0000000000000000000, -1.000000000000000000 ) ) ;
#299 = EDGE_LOOP ( 'NONE', ( #153, #216, #34, #348 ) ) ;
#300 = CARTESIAN_POINT ( 'NONE',  ( -0.1181100000000000066, 0.0000000000000000000, 2.229093999999999465 ) ) ;
#301 = CARTESIAN_POINT ( 'NONE',  ( 0.0000000000000000000, 0.0000000000000000000, 2.244094000000000033 ) ) ;
#302 = AXIS2_PLACEMENT_3D ( 'NONE', #301, #366, #47 ) ;
#303 = FACE_OUTER_BOUND ( 'NONE', #86, .T. ) ;
#304 = DIRECTION ( 'NONE',  ( 0.7071067811865358044, 8.659560562354788645E-17, -0.7071067811865590080 ) ) ;
#305 = DIRECTION ( 'NONE',  ( -0.0000000000000000000, 0.0000000000000000000, -1.000000000000000000 ) ) ;
#306 = EDGE_CURVE ( 'NONE', #219, #310, #196, .T. ) ;
#307 = DIRECTION ( 'NONE',  ( -1.000000000000000000, 0.0000000000000000000, 0.0000000000000000000 ) ) ;
#308 = ORIENTED_EDGE ( 'NONE', *, *, #363, .T. ) ;
#309 = AXIS2_PLACEMENT_3D ( 'NONE', #193, #14, #50 ) ;
#310 = VERTEX_POINT ( 'NONE', #334 ) ;
#311 =( LENGTH_UNIT ( ) NAMED_UNIT ( * ) SI_UNIT ( $, .METRE. ) );
#312 = VECTOR ( 'NONE', #72, 39.37007874015748143 ) ;
#313 = CIRCLE ( 'NONE', #378, 0.1031100000000002570 ) ;
#314 = ADVANCED_FACE ( 'NONE', ( #49 ), #293, .T. ) ;
#315 = CARTESIAN_POINT ( 'NONE',  ( 0.09645650000000005608, 0.0000000000000000000, 0.4330709999999999837 ) ) ;
#316 = AXIS2_PLACEMENT_3D ( 'NONE', #145, #64, #358 ) ;
#317 = ADVANCED_FACE ( 'NONE', ( #217 ), #177, .T. ) ;
#318 =( NAMED_UNIT ( * ) PLANE_ANGLE_UNIT ( ) SI_UNIT ( $, .RADIAN. ) );
#319 = EDGE_LOOP ( 'NONE', ( #259, #308, #197, #19 ) ) ;
#320 = DIRECTION ( 'NONE',  ( -0.0000000000000000000, -0.0000000000000000000, -1.000000000000000000 ) ) ;
#321 = EDGE_CURVE ( 'NONE', #181, #127, #345, .T. ) ;
#322 = CARTESIAN_POINT ( 'NONE',  ( -0.1181100000000000066, 0.0000000000000000000, 0.4330709999999999837 ) ) ;
#323 = EDGE_CURVE ( 'NONE', #5, #310, #149, .T. ) ;
#324 = EDGE_LOOP ( 'NONE', ( #229, #88 ) ) ;
#325 = DIRECTION ( 'NONE',  ( 0.0000000000000000000, 0.0000000000000000000, -1.000000000000000000 ) ) ;
#326 = DIRECTION ( 'NONE',  ( -0.0000000000000000000, -0.0000000000000000000, -1.000000000000000000 ) ) ;
#327 = ADVANCED_FACE ( 'NONE', ( #268 ), #131, .T. ) ;
#328 = DIRECTION ( 'NONE',  ( -0.0000000000000000000, -0.0000000000000000000, -1.000000000000000000 ) ) ;
#329 = ORIENTED_EDGE ( 'NONE', *, *, #81, .F. ) ;
#330 = DIRECTION ( 'NONE',  ( -0.0000000000000000000, -0.0000000000000000000, -1.000000000000000000 ) ) ;
#331 = CYLINDRICAL_SURFACE ( 'NONE', #98, 0.09841515750000001672 ) ;
#332 = AXIS2_PLACEMENT_3D ( 'NONE', #186, #325, #51 ) ;
#333 = AXIS2_PLACEMENT_3D ( 'NONE', #125, #271, #43 ) ;
#334 = CARTESIAN_POINT ( 'NONE',  ( -0.09645650000000001445, 0.0000000000000000000, 0.2473280986706078155 ) ) ;
#335 = CARTESIAN_POINT ( 'NONE',  ( 0.0000000000000000000, 0.0000000000000000000, 2.244094000000000033 ) ) ;
#336 = FACE_OUTER_BOUND ( 'NONE', #16, .T. ) ;
#337 = EDGE_CURVE ( 'NONE', #353, #350, #207, .T. ) ;
#338 = ORIENTED_EDGE ( 'NONE', *, *, #321, .T. ) ;
#339 = VECTOR ( 'NONE', #376, 39.37007874015748854 ) ;
#340 = EDGE_LOOP ( 'NONE', ( #129, #42, #143, #85 ) ) ;
#341 = APPLICATION_CONTEXT ( 'automotive_design' ) ;
#342 = ORIENTED_EDGE ( 'NONE', *, *, #240, .T. ) ;
#343 = DIRECTION ( 'NONE',  ( -1.000000000000000000, 0.0000000000000000000, 0.0000000000000000000 ) ) ;
#344 = ORIENTED_EDGE ( 'NONE', *, *, #306, .T. ) ;
#345 = CIRCLE ( 'NONE', #280, 0.09841515750000001672 ) ;
#346 = STYLED_ITEM ( 'NONE', ( #10 ), #91 ) ;
#347 = PRODUCT_DEFINITION ( 'UNKNOWN', '', #2, #194 ) ;
#348 = ORIENTED_EDGE ( 'NONE', *, *, #306, .F. ) ;
#349 = EDGE_CURVE ( 'NONE', #199, #227, #374, .T. ) ;
#350 = VERTEX_POINT ( 'NONE', #255 ) ;
#351 = APPLICATION_PROTOCOL_DEFINITION ( 'draft international standard', 'automotive_design', 1998, #341 ) ;
#352 = EDGE_LOOP ( 'NONE', ( #367, #87 ) ) ;
#353 = VERTEX_POINT ( 'NONE', #248 ) ;
#354 = CONICAL_SURFACE ( 'NONE', #32, 0.09841515750000001672, 0.1745329251994343356 ) ;
#355 = FILL_AREA_STYLE ('',( #190 ) ) ;
#356 = ORIENTED_EDGE ( 'NONE', *, *, #3, .T. ) ;
#357 = UNCERTAINTY_MEASURE_WITH_UNIT (LENGTH_MEASURE( 1.000000000000000082E-05 ), #180, 'distance_accuracy_value', 'NONE');
#358 = DIRECTION ( 'NONE',  ( 1.000000000000000000, 0.0000000000000000000, 0.0000000000000000000 ) ) ;
#359 = CARTESIAN_POINT ( 'NONE',  ( 0.09841515750000001672, 1.205238076199576449E-17, 0.2362200000000000133 ) ) ;
#360 = LINE ( 'NONE', #97, #165 ) ;
#361 = CARTESIAN_POINT ( 'NONE',  ( 0.0000000000000000000, 0.0000000000000000000, 2.244094000000000033 ) ) ;
#362 = CIRCLE ( 'NONE', #246, 0.09645650000000005608 ) ;
#363 = EDGE_CURVE ( 'NONE', #227, #282, #360, .T. ) ;
#364 = VECTOR ( 'NONE', #304, 39.37007874015748854 ) ;
#365 =( LENGTH_UNIT ( ) NAMED_UNIT ( * ) SI_UNIT ( $, .METRE. ) );
#366 = DIRECTION ( 'NONE',  ( 0.0000000000000000000, 0.0000000000000000000, 1.000000000000000000 ) ) ;
#367 = ORIENTED_EDGE ( 'NONE', *, *, #162, .F. ) ;
#368 = DIRECTION ( 'NONE',  ( -0.0000000000000000000, -0.0000000000000000000, -1.000000000000000000 ) ) ;
#369 = DIRECTION ( 'NONE',  ( 1.000000000000000000, 0.0000000000000000000, 0.0000000000000000000 ) ) ;
#370 = EDGE_LOOP ( 'NONE', ( #274, #342, #233, #231 ) ) ;
#371 = LINE ( 'NONE', #359, #273 ) ;
#372 = PLANE ( 'NONE',  #161 ) ;
#373 = CIRCLE ( 'NONE', #286, 0.09841515750000001672 ) ;
#374 = LINE ( 'NONE', #244, #364 ) ;
#375 = CARTESIAN_POINT ( 'NONE',  ( 0.0000000000000000000, 0.0000000000000000000, 0.0000000000000000000 ) ) ;
#376 = DIRECTION ( 'NONE',  ( -0.7071067811865358044, 0.0000000000000000000, -0.7071067811865590080 ) ) ;
#377 = EDGE_LOOP ( 'NONE', ( #118, #73, #329, #12 ) ) ;
#378 = AXIS2_PLACEMENT_3D ( 'NONE', #173, #295, #291 ) ;
#379 = VERTEX_POINT ( 'NONE', #300 ) ;
ENDSEC;
END-ISO-10303-21;
