ISO-10303-21;
HEADER;
FILE_DESCRIPTION (( 'STEP AP214' ),
    '1' );
FILE_NAME ('44212.STEP',
    '2023-06-22T19:39:12',
    ( '' ),
    ( '' ),
    'SwSTEP 2.0',
    'SolidWorks 2023',
    '' );
FILE_SCHEMA (( 'AUTOMOTIVE_DESIGN' ));
ENDSEC;

DATA;
#1 = CARTESIAN_POINT ( 'NONE',  ( 2.296212748401288034E-17, 0.5000000000000000000, 0.1875000000000000555 ) ) ;
#2 = FILL_AREA_STYLE_COLOUR ( '', #184 ) ;
#3 = AXIS2_PLACEMENT_3D ( 'NONE', #253, #22, #23 ) ;
#4 = SURFACE_STYLE_USAGE ( .BOTH. , #171 ) ;
#5 = VERTEX_POINT ( 'NONE', #158 ) ;
#6 = EDGE_LOOP ( 'NONE', ( #218, #147, #206, #81 ) ) ;
#7 = EDGE_CURVE ( 'NONE', #201, #185, #271, .T. ) ;
#8 =( LENGTH_UNIT ( ) NAMED_UNIT ( * ) SI_UNIT ( $, .METRE. ) );
#9 = CIRCLE ( 'NONE', #110, 0.1875000000000000555 ) ;
#10 = ORIENTED_EDGE ( 'NONE', *, *, #262, .T. ) ;
#11 = SURFACE_STYLE_FILL_AREA ( #72 ) ;
#12 = DIRECTION ( 'NONE',  ( -0.000000000000000000, -1.000000000000000000, -0.000000000000000000 ) ) ;
#13 = DIRECTION ( 'NONE',  ( -1.000000000000000000, 0.000000000000000000, 0.000000000000000000 ) ) ;
#14 = LENGTH_MEASURE_WITH_UNIT ( LENGTH_MEASURE( 0.02539999999999999897 ), #109 );
#15 = LINE ( 'NONE', #299, #170 ) ;
#16 = UNCERTAINTY_MEASURE_WITH_UNIT (LENGTH_MEASURE( 1.000000000000000082E-05 ), #31, 'distance_accuracy_value', 'NONE');
#17 = PLANE ( 'NONE',  #309 ) ;
#18 = LENGTH_MEASURE_WITH_UNIT ( LENGTH_MEASURE( 0.02539999999999999897 ), #69 );
#19 = CIRCLE ( 'NONE', #151, 0.1875000000000000278 ) ;
#20 = STYLED_ITEM ( 'NONE', ( #143 ), #164 ) ;
#21 =( NAMED_UNIT ( * ) PLANE_ANGLE_UNIT ( ) SI_UNIT ( $, .RADIAN. ) );
#22 = DIRECTION ( 'NONE',  ( 8.164311994315692567E-17, 1.000000000000000000, -0.000000000000000000 ) ) ;
#23 = DIRECTION ( 'NONE',  ( -1.000000000000000000, 0.000000000000000000, 0.000000000000000000 ) ) ;
#24 = DIRECTION ( 'NONE',  ( 0.000000000000000000, 0.000000000000000000, -1.000000000000000000 ) ) ;
#25 = CIRCLE ( 'NONE', #246, 0.1875000000000000555 ) ;
#26 = CARTESIAN_POINT ( 'NONE',  ( 0.000000000000000000, 0.5000000000000000000, 0.000000000000000000 ) ) ;
#27 = FACE_OUTER_BOUND ( 'NONE', #35, .T. ) ;
#28 = EDGE_CURVE ( 'NONE', #67, #201, #42, .T. ) ;
#29 = CYLINDRICAL_SURFACE ( 'NONE', #73, 0.1874999999999999722 ) ;
#30 = LENGTH_MEASURE_WITH_UNIT ( LENGTH_MEASURE( 0.02539999999999999897 ), #75 );
#31 =( CONVERSION_BASED_UNIT ( 'INCH', #14 ) LENGTH_UNIT ( ) NAMED_UNIT ( #125 ) );
#32 =( LENGTH_UNIT ( ) NAMED_UNIT ( * ) SI_UNIT ( $, .METRE. ) );
#33 = FILL_AREA_STYLE_COLOUR ( '', #191 ) ;
#34 = AXIS2_PLACEMENT_3D ( 'NONE', #198, #77, #62 ) ;
#35 = EDGE_LOOP ( 'NONE', ( #38, #133, #242, #182 ) ) ;
#36 =( LENGTH_UNIT ( ) NAMED_UNIT ( * ) SI_UNIT ( $, .METRE. ) );
#37 = DIRECTION ( 'NONE',  ( -1.000000000000000000, 0.000000000000000000, 0.000000000000000000 ) ) ;
#38 = ORIENTED_EDGE ( 'NONE', *, *, #65, .F. ) ;
#39 =( CONVERSION_BASED_UNIT ( 'INCH', #30 ) LENGTH_UNIT ( ) NAMED_UNIT ( #83 ) );
#40 = SURFACE_STYLE_FILL_AREA ( #205 ) ;
#41 = AXIS2_PLACEMENT_3D ( 'NONE', #228, #244, #150 ) ;
#42 = LINE ( 'NONE', #105, #167 ) ;
#43 = EDGE_CURVE ( 'NONE', #5, #185, #15, .T. ) ;
#44 =( CONVERSION_BASED_UNIT ( 'INCH', #99 ) LENGTH_UNIT ( ) NAMED_UNIT ( #300 ) );
#45 = FACE_OUTER_BOUND ( 'NONE', #208, .T. ) ;
#46 =( CONVERSION_BASED_UNIT ( 'INCH', #18 ) LENGTH_UNIT ( ) NAMED_UNIT ( #209 ) );
#47 = SURFACE_STYLE_FILL_AREA ( #139 ) ;
#48 = CIRCLE ( 'NONE', #284, 0.1874999999999999167 ) ;
#49 = CARTESIAN_POINT ( 'NONE',  ( 0.000000000000000000, 0.000000000000000000, 0.000000000000000000 ) ) ;
#50 = CARTESIAN_POINT ( 'NONE',  ( 2.296212748401288034E-17, 0.000000000000000000, 0.1875000000000000555 ) ) ;
#51 = DIRECTION ( 'NONE',  ( 8.164311994315692567E-17, 1.000000000000000000, -0.000000000000000000 ) ) ;
#52 = MECHANICAL_DESIGN_GEOMETRIC_PRESENTATION_REPRESENTATION (  '', ( #88 ), #215 ) ;
#53 = EDGE_CURVE ( 'NONE', #162, #260, #9, .T. ) ;
#54 = ORIENTED_EDGE ( 'NONE', *, *, #95, .T. ) ;
#55 = CARTESIAN_POINT ( 'NONE',  ( 0.000000000000000000, 0.000000000000000000, 0.000000000000000000 ) ) ;
#56 = EDGE_LOOP ( 'NONE', ( #292, #245, #102, #294 ) ) ;
#57 = ORIENTED_EDGE ( 'NONE', *, *, #297, .F. ) ;
#58 =( CONVERSION_BASED_UNIT ( 'INCH', #220 ) LENGTH_UNIT ( ) NAMED_UNIT ( #229 ) );
#59 = STYLED_ITEM ( 'NONE', ( #122 ), #103 ) ;
#60 =( GEOMETRIC_REPRESENTATION_CONTEXT ( 3 ) GLOBAL_UNCERTAINTY_ASSIGNED_CONTEXT ( ( #156 ) ) GLOBAL_UNIT_ASSIGNED_CONTEXT ( ( #64, #21, #128 ) ) REPRESENTATION_CONTEXT ( 'NONE', 'WORKASPACE' ) );
#61 = MECHANICAL_DESIGN_GEOMETRIC_PRESENTATION_REPRESENTATION (  '', ( #194 ), #186 ) ;
#62 = DIRECTION ( 'NONE',  ( -1.000000000000000000, 0.000000000000000000, 0.000000000000000000 ) ) ;
#63 = DIRECTION ( 'NONE',  ( 0.000000000000000000, 0.000000000000000000, 1.000000000000000000 ) ) ;
#64 =( CONVERSION_BASED_UNIT ( 'INCH', #66 ) LENGTH_UNIT ( ) NAMED_UNIT ( #154 ) );
#65 = EDGE_CURVE ( 'NONE', #162, #118, #131, .T. ) ;
#66 = LENGTH_MEASURE_WITH_UNIT ( LENGTH_MEASURE( 0.02539999999999999897 ), #250 );
#67 = VERTEX_POINT ( 'NONE', #142 ) ;
#68 = AXIS2_PLACEMENT_3D ( 'NONE', #70, #230, #141 ) ;
#69 =( LENGTH_UNIT ( ) NAMED_UNIT ( * ) SI_UNIT ( $, .METRE. ) );
#70 = CARTESIAN_POINT ( 'NONE',  ( 0.000000000000000000, 0.5000000000000000000, 0.000000000000000000 ) ) ;
#71 = FILL_AREA_STYLE ('',( #213 ) ) ;
#72 = FILL_AREA_STYLE ('',( #2 ) ) ;
#73 = AXIS2_PLACEMENT_3D ( 'NONE', #291, #200, #293 ) ;
#74 = SURFACE_STYLE_FILL_AREA ( #289 ) ;
#75 =( LENGTH_UNIT ( ) NAMED_UNIT ( * ) SI_UNIT ( $, .METRE. ) );
#76 = SURFACE_SIDE_STYLE ('',( #11 ) ) ;
#77 = DIRECTION ( 'NONE',  ( 8.164311994315692567E-17, 1.000000000000000000, -0.000000000000000000 ) ) ;
#78 = ORIENTED_EDGE ( 'NONE', *, *, #28, .F. ) ;
#79 = PRESENTATION_STYLE_ASSIGNMENT (( #94 ) ) ;
#80 = DIRECTION ( 'NONE',  ( -0.000000000000000000, -1.000000000000000000, -0.000000000000000000 ) ) ;
#81 = ORIENTED_EDGE ( 'NONE', *, *, #43, .F. ) ;
#82 = COLOUR_RGB ( '',1.000000000000000000, 0.000000000000000000, 0.000000000000000000 ) ;
#83 = DIMENSIONAL_EXPONENTS ( 1.000000000000000000, 0.000000000000000000, 0.000000000000000000, 0.000000000000000000, 0.000000000000000000, 0.000000000000000000, 0.000000000000000000 ) ;
#84 =( NAMED_UNIT ( * ) SI_UNIT ( $, .STERADIAN. ) SOLID_ANGLE_UNIT ( ) );
#85 = ORIENTED_EDGE ( 'NONE', *, *, #7, .F. ) ;
#86 = UNCERTAINTY_MEASURE_WITH_UNIT (LENGTH_MEASURE( 1.000000000000000082E-05 ), #146, 'distance_accuracy_value', 'NONE');
#87 = STYLED_ITEM ( 'NONE', ( #165 ), #192 ) ;
#88 = STYLED_ITEM ( 'NONE', ( #263 ), #189 ) ;
#89 = DIRECTION ( 'NONE',  ( -0.000000000000000000, -1.000000000000000000, -0.000000000000000000 ) ) ;
#90 = CARTESIAN_POINT ( 'NONE',  ( 1.224646799147353700E-16, 2.000000000000000000, 0.000000000000000000 ) ) ;
#91 = DIRECTION ( 'NONE',  ( -0.000000000000000000, -1.000000000000000000, -0.000000000000000000 ) ) ;
#92 = MECHANICAL_DESIGN_GEOMETRIC_PRESENTATION_REPRESENTATION (  '', ( #59 ), #251 ) ;
#93 = STYLED_ITEM ( 'NONE', ( #79 ), #120 ) ;
#94 = SURFACE_STYLE_USAGE ( .BOTH. , #116 ) ;
#95 = EDGE_CURVE ( 'NONE', #266, #118, #19, .T. ) ;
#96 = ORIENTED_EDGE ( 'NONE', *, *, #53, .F. ) ;
#97 = CLOSED_SHELL ( 'NONE', ( #103, #192, #120, #189 ) ) ;
#98 =( GEOMETRIC_REPRESENTATION_CONTEXT ( 3 ) GLOBAL_UNCERTAINTY_ASSIGNED_CONTEXT ( ( #16 ) ) GLOBAL_UNIT_ASSIGNED_CONTEXT ( ( #31, #287, #155 ) ) REPRESENTATION_CONTEXT ( 'NONE', 'WORKASPACE' ) );
#99 = LENGTH_MEASURE_WITH_UNIT ( LENGTH_MEASURE( 0.02539999999999999897 ), #36 );
#100 = FACE_OUTER_BOUND ( 'NONE', #180, .T. ) ;
#101 = CARTESIAN_POINT ( 'NONE',  ( 0.000000000000000000, 0.000000000000000000, 0.000000000000000000 ) ) ;
#102 = ORIENTED_EDGE ( 'NONE', *, *, #95, .F. ) ;
#103 = ADVANCED_FACE ( 'NONE', ( #240 ), #261, .T. ) ;
#104 = DIRECTION ( 'NONE',  ( 0.000000000000000000, 0.000000000000000000, -1.000000000000000000 ) ) ;
#105 = CARTESIAN_POINT ( 'NONE',  ( 0.1875000000000001110, 2.000000000000000000, 2.296212748401286801E-17 ) ) ;
#106 = PRESENTATION_LAYER_ASSIGNMENT (  '', '', ( #20 ) ) ;
#107 = DIRECTION ( 'NONE',  ( 1.000000000000000000, 0.000000000000000000, 0.000000000000000000 ) ) ;
#108 = CARTESIAN_POINT ( 'NONE',  ( 0.000000000000000000, 0.000000000000000000, 0.000000000000000000 ) ) ;
#109 =( LENGTH_UNIT ( ) NAMED_UNIT ( * ) SI_UNIT ( $, .METRE. ) );
#110 = AXIS2_PLACEMENT_3D ( 'NONE', #26, #301, #286 ) ;
#111 = SURFACE_STYLE_USAGE ( .BOTH. , #166 ) ;
#112 = VECTOR ( 'NONE', #216, 39.37007874015748143 ) ;
#113 = EDGE_CURVE ( 'NONE', #260, #162, #168, .T. ) ;
#114 =( NAMED_UNIT ( * ) SI_UNIT ( $, .STERADIAN. ) SOLID_ANGLE_UNIT ( ) );
#115 = LENGTH_MEASURE_WITH_UNIT ( LENGTH_MEASURE( 0.02539999999999999897 ), #32 );
#116 = SURFACE_SIDE_STYLE ('',( #259 ) ) ;
#117 = PLANE ( 'NONE',  #265 ) ;
#118 = VERTEX_POINT ( 'NONE', #233 ) ;
#119 =( NAMED_UNIT ( * ) SI_UNIT ( $, .STERADIAN. ) SOLID_ANGLE_UNIT ( ) );
#120 = ADVANCED_FACE ( 'NONE', ( #27 ), #177, .T. ) ;
#121 = CLOSED_SHELL ( 'NONE', ( #290, #148, #214, #232 ) ) ;
#122 = PRESENTATION_STYLE_ASSIGNMENT (( #258 ) ) ;
#123 = AXIS2_PLACEMENT_3D ( 'NONE', #55, #12, #124 ) ;
#124 = DIRECTION ( 'NONE',  ( 0.000000000000000000, 0.000000000000000000, -1.000000000000000000 ) ) ;
#125 = DIMENSIONAL_EXPONENTS ( 1.000000000000000000, 0.000000000000000000, 0.000000000000000000, 0.000000000000000000, 0.000000000000000000, 0.000000000000000000, 0.000000000000000000 ) ;
#126 = LINE ( 'NONE', #295, #112 ) ;
#127 = ORIENTED_EDGE ( 'NONE', *, *, #187, .T. ) ;
#128 =( NAMED_UNIT ( * ) SI_UNIT ( $, .STERADIAN. ) SOLID_ANGLE_UNIT ( ) );
#129 = ORIENTED_EDGE ( 'NONE', *, *, #175, .F. ) ;
#130 = PRESENTATION_LAYER_ASSIGNMENT (  '', '', ( #93 ) ) ;
#131 = LINE ( 'NONE', #50, #283 ) ;
#132 = DIRECTION ( 'NONE',  ( 8.164311994315692567E-17, 1.000000000000000000, -0.000000000000000000 ) ) ;
#133 = ORIENTED_EDGE ( 'NONE', *, *, #53, .T. ) ;
#134 = PRODUCT_DEFINITION_SHAPE ( 'NONE', 'NONE',  #163 ) ;
#135 = PRODUCT_RELATED_PRODUCT_CATEGORY ( 'part', '', ( #282 ) ) ;
#136 = MECHANICAL_DESIGN_GEOMETRIC_PRESENTATION_REPRESENTATION (  '', ( #87 ), #60 ) ;
#137 = CARTESIAN_POINT ( 'NONE',  ( -0.1874999999999997780, 2.000000000000000000, 0.000000000000000000 ) ) ;
#138 = DIRECTION ( 'NONE',  ( -0.000000000000000000, -1.000000000000000000, -0.000000000000000000 ) ) ;
#139 = FILL_AREA_STYLE ('',( #277 ) ) ;
#140 = AXIS2_PLACEMENT_3D ( 'NONE', #276, #248, #13 ) ;
#141 = DIRECTION ( 'NONE',  ( 0.000000000000000000, 0.000000000000000000, -1.000000000000000000 ) ) ;
#142 = CARTESIAN_POINT ( 'NONE',  ( 0.1875000000000000555, 0.5000000000000001110, 2.296212748401287109E-17 ) ) ;
#143 = PRESENTATION_STYLE_ASSIGNMENT (( #4 ) ) ;
#144 = ORIENTED_EDGE ( 'NONE', *, *, #43, .T. ) ;
#145 = COLOUR_RGB ( '',0.7921568627450980005, 0.8196078431372548767, 0.9333333333333333481 ) ;
#146 =( CONVERSION_BASED_UNIT ( 'INCH', #115 ) LENGTH_UNIT ( ) NAMED_UNIT ( #160 ) );
#147 = ORIENTED_EDGE ( 'NONE', *, *, #28, .T. ) ;
#148 = ADVANCED_FACE ( 'NONE', ( #202 ), #296, .F. ) ;
#149 = ADVANCED_BREP_SHAPE_REPRESENTATION ( '44212', ( #164, #178, #237 ), #225 ) ;
#150 = DIRECTION ( 'NONE',  ( 0.000000000000000000, -0.000000000000000000, 1.000000000000000000 ) ) ;
#151 = AXIS2_PLACEMENT_3D ( 'NONE', #308, #89, #280 ) ;
#152 = AXIS2_PLACEMENT_3D ( 'NONE', #173, #279, #234 ) ;
#153 = CARTESIAN_POINT ( 'NONE',  ( 0.000000000000000000, 0.5000000000000001110, 0.000000000000000000 ) ) ;
#154 = DIMENSIONAL_EXPONENTS ( 1.000000000000000000, 0.000000000000000000, 0.000000000000000000, 0.000000000000000000, 0.000000000000000000, 0.000000000000000000, 0.000000000000000000 ) ;
#155 =( NAMED_UNIT ( * ) SI_UNIT ( $, .STERADIAN. ) SOLID_ANGLE_UNIT ( ) );
#156 = UNCERTAINTY_MEASURE_WITH_UNIT (LENGTH_MEASURE( 1.000000000000000082E-05 ), #64, 'distance_accuracy_value', 'NONE');
#157 = DIRECTION ( 'NONE',  ( 0.000000000000000000, -1.000000000000000000, -0.000000000000000000 ) ) ;
#158 = CARTESIAN_POINT ( 'NONE',  ( -0.1875000000000000555, 0.5000000000000001110, 0.000000000000000000 ) ) ;
#159 =( NAMED_UNIT ( * ) PLANE_ANGLE_UNIT ( ) SI_UNIT ( $, .RADIAN. ) );
#160 = DIMENSIONAL_EXPONENTS ( 1.000000000000000000, 0.000000000000000000, 0.000000000000000000, 0.000000000000000000, 0.000000000000000000, 0.000000000000000000, 0.000000000000000000 ) ;
#161 = FILL_AREA_STYLE_COLOUR ( '', #82 ) ;
#162 = VERTEX_POINT ( 'NONE', #1 ) ;
#163 = PRODUCT_DEFINITION ( 'UNKNOWN', '', #274, #281 ) ;
#164 = MANIFOLD_SOLID_BREP ( 'Revolve - Cutting Edge', #97 ) ;
#165 = PRESENTATION_STYLE_ASSIGNMENT (( #275 ) ) ;
#166 = SURFACE_SIDE_STYLE ('',( #47 ) ) ;
#167 = VECTOR ( 'NONE', #132, 39.37007874015748143 ) ;
#168 = CIRCLE ( 'NONE', #68, 0.1875000000000000555 ) ;
#169 =( NAMED_UNIT ( * ) PLANE_ANGLE_UNIT ( ) SI_UNIT ( $, .RADIAN. ) );
#170 = VECTOR ( 'NONE', #51, 39.37007874015748143 ) ;
#171 = SURFACE_SIDE_STYLE ('',( #193 ) ) ;
#172 = FACE_OUTER_BOUND ( 'NONE', #288, .T. ) ;
#173 = CARTESIAN_POINT ( 'NONE',  ( 6.248999094424416107E-34, 0.5000000000000000000, 0.000000000000000000 ) ) ;
#174 = PRESENTATION_LAYER_ASSIGNMENT (  '', '', ( #87 ) ) ;
#175 = EDGE_CURVE ( 'NONE', #5, #67, #190, .T. ) ;
#176 = CARTESIAN_POINT ( 'NONE',  ( 0.1875000000000000555, 2.000000000000000000, 0.000000000000000000 ) ) ;
#177 = CYLINDRICAL_SURFACE ( 'NONE', #235, 0.1875000000000000555 ) ;
#178 = MANIFOLD_SOLID_BREP ( 'Revolve - Tool Body (Straight Shanked)', #121 ) ;
#179 = CYLINDRICAL_SURFACE ( 'NONE', #34, 0.1874999999999999722 ) ;
#180 = EDGE_LOOP ( 'NONE', ( #78, #196, #144, #85 ) ) ;
#181 = SURFACE_SIDE_STYLE ('',( #74 ) ) ;
#182 = ORIENTED_EDGE ( 'NONE', *, *, #262, .F. ) ;
#183 = SURFACE_STYLE_USAGE ( .BOTH. , #76 ) ;
#184 = COLOUR_RGB ( '',1.000000000000000000, 0.000000000000000000, 0.000000000000000000 ) ;
#185 = VERTEX_POINT ( 'NONE', #137 ) ;
#186 =( GEOMETRIC_REPRESENTATION_CONTEXT ( 3 ) GLOBAL_UNCERTAINTY_ASSIGNED_CONTEXT ( ( #269 ) ) GLOBAL_UNIT_ASSIGNED_CONTEXT ( ( #46, #169, #231 ) ) REPRESENTATION_CONTEXT ( 'NONE', 'WORKASPACE' ) );
#187 = EDGE_CURVE ( 'NONE', #185, #201, #48, .T. ) ;
#188 = DIRECTION ( 'NONE',  ( -1.000000000000000000, 0.000000000000000000, 0.000000000000000000 ) ) ;
#189 = ADVANCED_FACE ( 'NONE', ( #172 ), #17, .T. ) ;
#190 = CIRCLE ( 'NONE', #3, 0.1875000000000000555 ) ;
#191 = COLOUR_RGB ( '',1.000000000000000000, 0.000000000000000000, 0.000000000000000000 ) ;
#192 = ADVANCED_FACE ( 'NONE', ( #45 ), #268, .T. ) ;
#193 = SURFACE_STYLE_FILL_AREA ( #71 ) ;
#194 = STYLED_ITEM ( 'NONE', ( #249 ), #178 ) ;
#195 = PRESENTATION_LAYER_ASSIGNMENT (  '', '', ( #194 ) ) ;
#196 = ORIENTED_EDGE ( 'NONE', *, *, #297, .T. ) ;
#197 = MECHANICAL_DESIGN_GEOMETRIC_PRESENTATION_REPRESENTATION (  '', ( #20 ), #278 ) ;
#198 = CARTESIAN_POINT ( 'NONE',  ( 1.224646799147353700E-16, 2.000000000000000000, 0.000000000000000000 ) ) ;
#199 = EDGE_LOOP ( 'NONE', ( #129, #57 ) ) ;
#200 = DIRECTION ( 'NONE',  ( 8.164311994315692567E-17, 1.000000000000000000, -0.000000000000000000 ) ) ;
#201 = VERTEX_POINT ( 'NONE', #219 ) ;
#202 = FACE_OUTER_BOUND ( 'NONE', #199, .T. ) ;
#203 = APPLICATION_CONTEXT ( 'automotive_design' ) ;
#204 = PRODUCT_CONTEXT ( 'NONE', #222, 'mechanical' ) ;
#205 = FILL_AREA_STYLE ('',( #161 ) ) ;
#206 = ORIENTED_EDGE ( 'NONE', *, *, #187, .F. ) ;
#207 = UNCERTAINTY_MEASURE_WITH_UNIT (LENGTH_MEASURE( 1.000000000000000082E-05 ), #58, 'distance_accuracy_value', 'NONE');
#208 = EDGE_LOOP ( 'NONE', ( #257, #96 ) ) ;
#209 = DIMENSIONAL_EXPONENTS ( 1.000000000000000000, 0.000000000000000000, 0.000000000000000000, 0.000000000000000000, 0.000000000000000000, 0.000000000000000000, 0.000000000000000000 ) ;
#210 = UNCERTAINTY_MEASURE_WITH_UNIT (LENGTH_MEASURE( 1.000000000000000082E-05 ), #44, 'distance_accuracy_value', 'NONE');
#211 = FILL_AREA_STYLE_COLOUR ( '', #252 ) ;
#212 = PRESENTATION_LAYER_ASSIGNMENT (  '', '', ( #88 ) ) ;
#213 = FILL_AREA_STYLE_COLOUR ( '', #224 ) ;
#214 = ADVANCED_FACE ( 'NONE', ( #100 ), #179, .T. ) ;
#215 =( GEOMETRIC_REPRESENTATION_CONTEXT ( 3 ) GLOBAL_UNCERTAINTY_ASSIGNED_CONTEXT ( ( #86 ) ) GLOBAL_UNIT_ASSIGNED_CONTEXT ( ( #146, #285, #84 ) ) REPRESENTATION_CONTEXT ( 'NONE', 'WORKASPACE' ) );
#216 = DIRECTION ( 'NONE',  ( -0.000000000000000000, -1.000000000000000000, -0.000000000000000000 ) ) ;
#217 = EDGE_LOOP ( 'NONE', ( #127, #239 ) ) ;
#218 = ORIENTED_EDGE ( 'NONE', *, *, #175, .T. ) ;
#219 = CARTESIAN_POINT ( 'NONE',  ( 0.1875000000000000555, 2.000000000000000000, 2.296212748401287109E-17 ) ) ;
#220 = LENGTH_MEASURE_WITH_UNIT ( LENGTH_MEASURE( 0.02539999999999999897 ), #8 );
#221 = FACE_OUTER_BOUND ( 'NONE', #6, .T. ) ;
#222 = APPLICATION_CONTEXT ( 'automotive_design' ) ;
#223 =( NAMED_UNIT ( * ) SI_UNIT ( $, .STERADIAN. ) SOLID_ANGLE_UNIT ( ) );
#224 = COLOUR_RGB ( '',0.7921568627450980005, 0.8196078431372548767, 0.9333333333333333481 ) ;
#225 =( GEOMETRIC_REPRESENTATION_CONTEXT ( 3 ) GLOBAL_UNCERTAINTY_ASSIGNED_CONTEXT ( ( #255 ) ) GLOBAL_UNIT_ASSIGNED_CONTEXT ( ( #39, #226, #114 ) ) REPRESENTATION_CONTEXT ( 'NONE', 'WORKASPACE' ) );
#226 =( NAMED_UNIT ( * ) PLANE_ANGLE_UNIT ( ) SI_UNIT ( $, .RADIAN. ) );
#227 = PRESENTATION_LAYER_ASSIGNMENT (  '', '', ( #59 ) ) ;
#228 = CARTESIAN_POINT ( 'NONE',  ( 0.000000000000000000, 0.5000000000000000000, 0.000000000000000000 ) ) ;
#229 = DIMENSIONAL_EXPONENTS ( 1.000000000000000000, 0.000000000000000000, 0.000000000000000000, 0.000000000000000000, 0.000000000000000000, 0.000000000000000000, 0.000000000000000000 ) ;
#230 = DIRECTION ( 'NONE',  ( -0.000000000000000000, -1.000000000000000000, -0.000000000000000000 ) ) ;
#231 =( NAMED_UNIT ( * ) SI_UNIT ( $, .STERADIAN. ) SOLID_ANGLE_UNIT ( ) );
#232 = ADVANCED_FACE ( 'NONE', ( #256 ), #117, .F. ) ;
#233 = CARTESIAN_POINT ( 'NONE',  ( 2.296212748401287726E-17, 0.000000000000000000, 0.1875000000000000278 ) ) ;
#234 = DIRECTION ( 'NONE',  ( -1.000000000000000000, 8.164311994315692567E-17, 0.000000000000000000 ) ) ;
#235 = AXIS2_PLACEMENT_3D ( 'NONE', #101, #80, #104 ) ;
#236 = DIRECTION ( 'NONE',  ( 1.000000000000000000, -8.164311994315692567E-17, 0.000000000000000000 ) ) ;
#237 = AXIS2_PLACEMENT_3D ( 'NONE', #305, #63, #107 ) ;
#238 = DIRECTION ( 'NONE',  ( -8.164311994315692567E-17, -1.000000000000000000, 0.000000000000000000 ) ) ;
#239 = ORIENTED_EDGE ( 'NONE', *, *, #7, .T. ) ;
#240 = FACE_OUTER_BOUND ( 'NONE', #56, .T. ) ;
#241 = CARTESIAN_POINT ( 'NONE',  ( 0.000000000000000000, 0.5000000000000000000, -0.1875000000000000555 ) ) ;
#242 = ORIENTED_EDGE ( 'NONE', *, *, #304, .T. ) ;
#243 = DIRECTION ( 'NONE',  ( 8.164311994315692567E-17, 1.000000000000000000, -0.000000000000000000 ) ) ;
#244 = DIRECTION ( 'NONE',  ( 0.000000000000000000, 1.000000000000000000, 0.000000000000000000 ) ) ;
#245 = ORIENTED_EDGE ( 'NONE', *, *, #65, .T. ) ;
#246 = AXIS2_PLACEMENT_3D ( 'NONE', #153, #243, #37 ) ;
#247 = SURFACE_SIDE_STYLE ('',( #40 ) ) ;
#248 = DIRECTION ( 'NONE',  ( 8.164311994315692567E-17, 1.000000000000000000, -0.000000000000000000 ) ) ;
#249 = PRESENTATION_STYLE_ASSIGNMENT (( #111 ) ) ;
#250 =( LENGTH_UNIT ( ) NAMED_UNIT ( * ) SI_UNIT ( $, .METRE. ) );
#251 =( GEOMETRIC_REPRESENTATION_CONTEXT ( 3 ) GLOBAL_UNCERTAINTY_ASSIGNED_CONTEXT ( ( #207 ) ) GLOBAL_UNIT_ASSIGNED_CONTEXT ( ( #58, #273, #223 ) ) REPRESENTATION_CONTEXT ( 'NONE', 'WORKASPACE' ) );
#252 = COLOUR_RGB ( '',1.000000000000000000, 0.000000000000000000, 0.000000000000000000 ) ;
#253 = CARTESIAN_POINT ( 'NONE',  ( 0.000000000000000000, 0.5000000000000001110, 0.000000000000000000 ) ) ;
#254 = CIRCLE ( 'NONE', #123, 0.1875000000000000278 ) ;
#255 = UNCERTAINTY_MEASURE_WITH_UNIT (LENGTH_MEASURE( 1.000000000000000082E-05 ), #39, 'distance_accuracy_value', 'NONE');
#256 = FACE_OUTER_BOUND ( 'NONE', #217, .T. ) ;
#257 = ORIENTED_EDGE ( 'NONE', *, *, #113, .F. ) ;
#258 = SURFACE_STYLE_USAGE ( .BOTH. , #181 ) ;
#259 = SURFACE_STYLE_FILL_AREA ( #307 ) ;
#260 = VERTEX_POINT ( 'NONE', #241 ) ;
#261 = CYLINDRICAL_SURFACE ( 'NONE', #272, 0.1875000000000000555 ) ;
#262 = EDGE_CURVE ( 'NONE', #118, #266, #254, .T. ) ;
#263 = PRESENTATION_STYLE_ASSIGNMENT (( #183 ) ) ;
#264 = CARTESIAN_POINT ( 'NONE',  ( 0.000000000000000000, 0.000000000000000000, -0.1875000000000000278 ) ) ;
#265 = AXIS2_PLACEMENT_3D ( 'NONE', #176, #238, #236 ) ;
#266 = VERTEX_POINT ( 'NONE', #264 ) ;
#267 = APPLICATION_PROTOCOL_DEFINITION ( 'draft international standard', 'automotive_design', 1998, #222 ) ;
#268 = PLANE ( 'NONE',  #41 ) ;
#269 = UNCERTAINTY_MEASURE_WITH_UNIT (LENGTH_MEASURE( 1.000000000000000082E-05 ), #46, 'distance_accuracy_value', 'NONE');
#270 = SHAPE_DEFINITION_REPRESENTATION ( #134, #149 ) ;
#271 = CIRCLE ( 'NONE', #140, 0.1874999999999999167 ) ;
#272 = AXIS2_PLACEMENT_3D ( 'NONE', #49, #91, #24 ) ;
#273 =( NAMED_UNIT ( * ) PLANE_ANGLE_UNIT ( ) SI_UNIT ( $, .RADIAN. ) );
#274 = PRODUCT_DEFINITION_FORMATION_WITH_SPECIFIED_SOURCE ( 'ANY', '', #282, .NOT_KNOWN. ) ;
#275 = SURFACE_STYLE_USAGE ( .BOTH. , #247 ) ;
#276 = CARTESIAN_POINT ( 'NONE',  ( 1.224646799147353700E-16, 2.000000000000000000, 0.000000000000000000 ) ) ;
#277 = FILL_AREA_STYLE_COLOUR ( '', #145 ) ;
#278 =( GEOMETRIC_REPRESENTATION_CONTEXT ( 3 ) GLOBAL_UNCERTAINTY_ASSIGNED_CONTEXT ( ( #210 ) ) GLOBAL_UNIT_ASSIGNED_CONTEXT ( ( #44, #159, #119 ) ) REPRESENTATION_CONTEXT ( 'NONE', 'WORKASPACE' ) );
#279 = DIRECTION ( 'NONE',  ( 8.164311994315692567E-17, 1.000000000000000000, -0.000000000000000000 ) ) ;
#280 = DIRECTION ( 'NONE',  ( 0.000000000000000000, 0.000000000000000000, -1.000000000000000000 ) ) ;
#281 = PRODUCT_DEFINITION_CONTEXT ( 'detailed design', #203, 'design' ) ;
#282 = PRODUCT ( '44212', '44212', '', ( #204 ) ) ;
#283 = VECTOR ( 'NONE', #138, 39.37007874015748143 ) ;
#284 = AXIS2_PLACEMENT_3D ( 'NONE', #90, #306, #188 ) ;
#285 =( NAMED_UNIT ( * ) PLANE_ANGLE_UNIT ( ) SI_UNIT ( $, .RADIAN. ) );
#286 = DIRECTION ( 'NONE',  ( 0.000000000000000000, 0.000000000000000000, -1.000000000000000000 ) ) ;
#287 =( NAMED_UNIT ( * ) PLANE_ANGLE_UNIT ( ) SI_UNIT ( $, .RADIAN. ) );
#288 = EDGE_LOOP ( 'NONE', ( #54, #10 ) ) ;
#289 = FILL_AREA_STYLE ('',( #33 ) ) ;
#290 = ADVANCED_FACE ( 'NONE', ( #221 ), #29, .T. ) ;
#291 = CARTESIAN_POINT ( 'NONE',  ( 1.224646799147353700E-16, 2.000000000000000000, 0.000000000000000000 ) ) ;
#292 = ORIENTED_EDGE ( 'NONE', *, *, #113, .T. ) ;
#293 = DIRECTION ( 'NONE',  ( -1.000000000000000000, 0.000000000000000000, 0.000000000000000000 ) ) ;
#294 = ORIENTED_EDGE ( 'NONE', *, *, #304, .F. ) ;
#295 = CARTESIAN_POINT ( 'NONE',  ( 0.000000000000000000, 0.000000000000000000, -0.1875000000000000555 ) ) ;
#296 = PLANE ( 'NONE',  #152 ) ;
#297 = EDGE_CURVE ( 'NONE', #67, #5, #25, .T. ) ;
#298 = DIRECTION ( 'NONE',  ( 0.000000000000000000, 0.000000000000000000, -1.000000000000000000 ) ) ;
#299 = CARTESIAN_POINT ( 'NONE',  ( -0.1874999999999998335, 2.000000000000000000, 0.000000000000000000 ) ) ;
#300 = DIMENSIONAL_EXPONENTS ( 1.000000000000000000, 0.000000000000000000, 0.000000000000000000, 0.000000000000000000, 0.000000000000000000, 0.000000000000000000, 0.000000000000000000 ) ;
#301 = DIRECTION ( 'NONE',  ( -0.000000000000000000, -1.000000000000000000, -0.000000000000000000 ) ) ;
#302 = APPLICATION_PROTOCOL_DEFINITION ( 'draft international standard', 'automotive_design', 1998, #203 ) ;
#303 = MECHANICAL_DESIGN_GEOMETRIC_PRESENTATION_REPRESENTATION (  '', ( #93 ), #98 ) ;
#304 = EDGE_CURVE ( 'NONE', #260, #266, #126, .T. ) ;
#305 = CARTESIAN_POINT ( 'NONE',  ( 0.000000000000000000, 0.000000000000000000, 0.000000000000000000 ) ) ;
#306 = DIRECTION ( 'NONE',  ( 8.164311994315692567E-17, 1.000000000000000000, -0.000000000000000000 ) ) ;
#307 = FILL_AREA_STYLE ('',( #211 ) ) ;
#308 = CARTESIAN_POINT ( 'NONE',  ( 0.000000000000000000, 0.000000000000000000, 0.000000000000000000 ) ) ;
#309 = AXIS2_PLACEMENT_3D ( 'NONE', #108, #157, #298 ) ;
ENDSEC;
END-ISO-10303-21;
