ISO-10303-21;
HEADER;
FILE_DESCRIPTION (( 'STEP AP214' ),
    '1' );
FILE_NAME ('44317.STEP',
    '2023-06-22T20:02:46',
    ( '' ),
    ( '' ),
    'SwSTEP 2.0',
    'SolidWorks 2023',
    '' );
FILE_SCHEMA (( 'AUTOMOTIVE_DESIGN' ));
ENDSEC;

DATA;
#1 = PRESENTATION_LAYER_ASSIGNMENT (  '', '', ( #129 ) ) ;
#2 = ADVANCED_FACE ( 'NONE', ( #158 ), #250, .T. ) ;
#3 = DIRECTION ( 'NONE',  ( -0.000000000000000000, -1.000000000000000000, -0.000000000000000000 ) ) ;
#4 = EDGE_CURVE ( 'NONE', #253, #122, #94, .T. ) ;
#5 = DIRECTION ( 'NONE',  ( 0.000000000000000000, 0.000000000000000000, -1.000000000000000000 ) ) ;
#6 = FILL_AREA_STYLE ('',( #114 ) ) ;
#7 = PLANE ( 'NONE',  #79 ) ;
#8 = PRODUCT_DEFINITION_SHAPE ( 'NONE', 'NONE',  #292 ) ;
#9 = DIRECTION ( 'NONE',  ( 0.000000000000000000, -0.000000000000000000, 1.000000000000000000 ) ) ;
#10 = ORIENTED_EDGE ( 'NONE', *, *, #108, .T. ) ;
#11 = FILL_AREA_STYLE_COLOUR ( '', #293 ) ;
#12 = SURFACE_SIDE_STYLE ('',( #228 ) ) ;
#13 = AXIS2_PLACEMENT_3D ( 'NONE', #26, #289, #27 ) ;
#14 = CARTESIAN_POINT ( 'NONE',  ( 3.827021247335478926E-17, 0.000000000000000000, 0.3125000000000000000 ) ) ;
#15 = LENGTH_MEASURE_WITH_UNIT ( LENGTH_MEASURE( 0.02539999999999999897 ), #275 );
#16 = DIRECTION ( 'NONE',  ( -1.000000000000000000, 5.442874662877122010E-17, 0.000000000000000000 ) ) ;
#17 = CARTESIAN_POINT ( 'NONE',  ( 4.628888218092148898E-34, 0.7499999999999998890, 0.000000000000000000 ) ) ;
#18 = ADVANCED_FACE ( 'NONE', ( #216 ), #290, .T. ) ;
#19 = COLOUR_RGB ( '',1.000000000000000000, 0.000000000000000000, 0.000000000000000000 ) ;
#20 =( NAMED_UNIT ( * ) SI_UNIT ( $, .STERADIAN. ) SOLID_ANGLE_UNIT ( ) );
#21 = ADVANCED_FACE ( 'NONE', ( #31 ), #183, .T. ) ;
#22 = DIRECTION ( 'NONE',  ( -0.000000000000000000, -1.000000000000000000, -0.000000000000000000 ) ) ;
#23 = STYLED_ITEM ( 'NONE', ( #252 ), #21 ) ;
#24 = VECTOR ( 'NONE', #119, 39.37007874015748143 ) ;
#25 = CARTESIAN_POINT ( 'NONE',  ( 0.3125000000000000000, 3.000000000000000444, 0.000000000000000000 ) ) ;
#26 = CARTESIAN_POINT ( 'NONE',  ( 0.000000000000000000, 0.7499999999999998890, 0.000000000000000000 ) ) ;
#27 = DIRECTION ( 'NONE',  ( 0.000000000000000000, 0.000000000000000000, -1.000000000000000000 ) ) ;
#28 = STYLED_ITEM ( 'NONE', ( #309 ), #118 ) ;
#29 = LINE ( 'NONE', #71, #266 ) ;
#30 = CARTESIAN_POINT ( 'NONE',  ( 0.000000000000000000, 0.7499999999999998890, 0.000000000000000000 ) ) ;
#31 = FACE_OUTER_BOUND ( 'NONE', #57, .T. ) ;
#32 = EDGE_CURVE ( 'NONE', #122, #225, #222, .T. ) ;
#33 =( GEOMETRIC_REPRESENTATION_CONTEXT ( 3 ) GLOBAL_UNCERTAINTY_ASSIGNED_CONTEXT ( ( #192 ) ) GLOBAL_UNIT_ASSIGNED_CONTEXT ( ( #72, #51, #50 ) ) REPRESENTATION_CONTEXT ( 'NONE', 'WORKASPACE' ) );
#34 = CARTESIAN_POINT ( 'NONE',  ( 0.3125000000000000000, 0.7499999999999998890, 3.827021247335477694E-17 ) ) ;
#35 = EDGE_LOOP ( 'NONE', ( #37, #255 ) ) ;
#36 = APPLICATION_CONTEXT ( 'automotive_design' ) ;
#37 = ORIENTED_EDGE ( 'NONE', *, *, #32, .T. ) ;
#38 = DIRECTION ( 'NONE',  ( 1.000000000000000000, 0.000000000000000000, 0.000000000000000000 ) ) ;
#39 =( CONVERSION_BASED_UNIT ( 'INCH', #103 ) LENGTH_UNIT ( ) NAMED_UNIT ( #298 ) );
#40 = ORIENTED_EDGE ( 'NONE', *, *, #156, .F. ) ;
#41 = MECHANICAL_DESIGN_GEOMETRIC_PRESENTATION_REPRESENTATION (  '', ( #261 ), #256 ) ;
#42 = AXIS2_PLACEMENT_3D ( 'NONE', #124, #188, #64 ) ;
#43 = FILL_AREA_STYLE ('',( #46 ) ) ;
#44 =( NAMED_UNIT ( * ) PLANE_ANGLE_UNIT ( ) SI_UNIT ( $, .RADIAN. ) );
#45 = SURFACE_STYLE_FILL_AREA ( #133 ) ;
#46 = FILL_AREA_STYLE_COLOUR ( '', #244 ) ;
#47 = AXIS2_PLACEMENT_3D ( 'NONE', #160, #22, #207 ) ;
#48 = LENGTH_MEASURE_WITH_UNIT ( LENGTH_MEASURE( 0.02539999999999999897 ), #163 );
#49 = UNCERTAINTY_MEASURE_WITH_UNIT (LENGTH_MEASURE( 1.000000000000000082E-05 ), #185, 'distance_accuracy_value', 'NONE');
#50 =( NAMED_UNIT ( * ) SI_UNIT ( $, .STERADIAN. ) SOLID_ANGLE_UNIT ( ) );
#51 =( NAMED_UNIT ( * ) PLANE_ANGLE_UNIT ( ) SI_UNIT ( $, .RADIAN. ) );
#52 =( GEOMETRIC_REPRESENTATION_CONTEXT ( 3 ) GLOBAL_UNCERTAINTY_ASSIGNED_CONTEXT ( ( #169 ) ) GLOBAL_UNIT_ASSIGNED_CONTEXT ( ( #190, #245, #127 ) ) REPRESENTATION_CONTEXT ( 'NONE', 'WORKASPACE' ) );
#53 = SURFACE_STYLE_FILL_AREA ( #6 ) ;
#54 = CARTESIAN_POINT ( 'NONE',  ( 0.3125000000000000555, 3.000000000000000444, 3.827021247335477694E-17 ) ) ;
#55 = SURFACE_STYLE_FILL_AREA ( #167 ) ;
#56 = PRESENTATION_LAYER_ASSIGNMENT (  '', '', ( #294 ) ) ;
#57 = EDGE_LOOP ( 'NONE', ( #104, #202, #150, #83 ) ) ;
#58 =( LENGTH_UNIT ( ) NAMED_UNIT ( * ) SI_UNIT ( $, .METRE. ) );
#59 = ORIENTED_EDGE ( 'NONE', *, *, #156, .T. ) ;
#60 = CARTESIAN_POINT ( 'NONE',  ( 0.000000000000000000, 0.000000000000000000, 0.000000000000000000 ) ) ;
#61 = ORIENTED_EDGE ( 'NONE', *, *, #62, .F. ) ;
#62 = EDGE_CURVE ( 'NONE', #304, #299, #80, .T. ) ;
#63 = DIRECTION ( 'NONE',  ( -1.000000000000000000, 0.000000000000000000, 0.000000000000000000 ) ) ;
#64 = DIRECTION ( 'NONE',  ( -1.000000000000000000, 0.000000000000000000, 0.000000000000000000 ) ) ;
#65 = PRESENTATION_STYLE_ASSIGNMENT (( #86 ) ) ;
#66 = PRESENTATION_LAYER_ASSIGNMENT (  '', '', ( #23 ) ) ;
#67 = UNCERTAINTY_MEASURE_WITH_UNIT (LENGTH_MEASURE( 1.000000000000000082E-05 ), #106, 'distance_accuracy_value', 'NONE');
#68 = DIRECTION ( 'NONE',  ( 5.442874662877122010E-17, 1.000000000000000000, -0.000000000000000000 ) ) ;
#69 =( CONVERSION_BASED_UNIT ( 'INCH', #258 ) LENGTH_UNIT ( ) NAMED_UNIT ( #125 ) );
#70 = ADVANCED_FACE ( 'NONE', ( #172 ), #105, .T. ) ;
#71 = CARTESIAN_POINT ( 'NONE',  ( 0.000000000000000000, 0.000000000000000000, -0.3125000000000000000 ) ) ;
#72 =( CONVERSION_BASED_UNIT ( 'INCH', #194 ) LENGTH_UNIT ( ) NAMED_UNIT ( #251 ) );
#73 = CLOSED_SHELL ( 'NONE', ( #21, #18, #2, #267 ) ) ;
#74 = DIRECTION ( 'NONE',  ( 0.000000000000000000, 0.000000000000000000, -1.000000000000000000 ) ) ;
#75 = PRESENTATION_LAYER_ASSIGNMENT (  '', '', ( #28 ) ) ;
#76 = FILL_AREA_STYLE_COLOUR ( '', #19 ) ;
#77 = FACE_OUTER_BOUND ( 'NONE', #153, .T. ) ;
#78 = UNCERTAINTY_MEASURE_WITH_UNIT (LENGTH_MEASURE( 1.000000000000000082E-05 ), #39, 'distance_accuracy_value', 'NONE');
#79 = AXIS2_PLACEMENT_3D ( 'NONE', #25, #215, #288 ) ;
#80 = LINE ( 'NONE', #14, #166 ) ;
#81 = ORIENTED_EDGE ( 'NONE', *, *, #4, .F. ) ;
#82 = SURFACE_STYLE_USAGE ( .BOTH. , #140 ) ;
#83 = ORIENTED_EDGE ( 'NONE', *, *, #238, .F. ) ;
#84 = MECHANICAL_DESIGN_GEOMETRIC_PRESENTATION_REPRESENTATION (  '', ( #285 ), #98 ) ;
#85 = EDGE_CURVE ( 'NONE', #204, #299, #213, .T. ) ;
#86 = SURFACE_STYLE_USAGE ( .BOTH. , #12 ) ;
#87 = MECHANICAL_DESIGN_GEOMETRIC_PRESENTATION_REPRESENTATION (  '', ( #28 ), #110 ) ;
#88 =( LENGTH_UNIT ( ) NAMED_UNIT ( * ) SI_UNIT ( $, .METRE. ) );
#89 = FILL_AREA_STYLE_COLOUR ( '', #203 ) ;
#90 = CARTESIAN_POINT ( 'NONE',  ( 1.224646799147352714E-16, 3.000000000000000444, 0.000000000000000000 ) ) ;
#91 = CIRCLE ( 'NONE', #42, 0.3125000000000000000 ) ;
#92 = CYLINDRICAL_SURFACE ( 'NONE', #218, 0.3124999999999999445 ) ;
#93 = CARTESIAN_POINT ( 'NONE',  ( 0.000000000000000000, 0.000000000000000000, 0.000000000000000000 ) ) ;
#94 = LINE ( 'NONE', #264, #193 ) ;
#95 = LENGTH_MEASURE_WITH_UNIT ( LENGTH_MEASURE( 0.02539999999999999897 ), #241 );
#96 = COLOUR_RGB ( '',1.000000000000000000, 0.000000000000000000, 0.000000000000000000 ) ;
#97 = CARTESIAN_POINT ( 'NONE',  ( 0.000000000000000000, 0.000000000000000000, -0.3125000000000000000 ) ) ;
#98 =( GEOMETRIC_REPRESENTATION_CONTEXT ( 3 ) GLOBAL_UNCERTAINTY_ASSIGNED_CONTEXT ( ( #67 ) ) GLOBAL_UNIT_ASSIGNED_CONTEXT ( ( #106, #44, #100 ) ) REPRESENTATION_CONTEXT ( 'NONE', 'WORKASPACE' ) );
#99 = DIRECTION ( 'NONE',  ( -0.000000000000000000, -1.000000000000000000, -0.000000000000000000 ) ) ;
#100 =( NAMED_UNIT ( * ) SI_UNIT ( $, .STERADIAN. ) SOLID_ANGLE_UNIT ( ) );
#101 = LENGTH_MEASURE_WITH_UNIT ( LENGTH_MEASURE( 0.02539999999999999897 ), #58 );
#102 = VERTEX_POINT ( 'NONE', #34 ) ;
#103 = LENGTH_MEASURE_WITH_UNIT ( LENGTH_MEASURE( 0.02539999999999999897 ), #88 );
#104 = ORIENTED_EDGE ( 'NONE', *, *, #195, .T. ) ;
#105 = CYLINDRICAL_SURFACE ( 'NONE', #273, 0.3124999999999999445 ) ;
#106 =( CONVERSION_BASED_UNIT ( 'INCH', #15 ) LENGTH_UNIT ( ) NAMED_UNIT ( #143 ) );
#107 = SURFACE_STYLE_USAGE ( .BOTH. , #184 ) ;
#108 = EDGE_CURVE ( 'NONE', #102, #253, #91, .T. ) ;
#109 = COLOUR_RGB ( '',1.000000000000000000, 0.000000000000000000, 0.000000000000000000 ) ;
#110 =( GEOMETRIC_REPRESENTATION_CONTEXT ( 3 ) GLOBAL_UNCERTAINTY_ASSIGNED_CONTEXT ( ( #237 ) ) GLOBAL_UNIT_ASSIGNED_CONTEXT ( ( #69, #111, #20 ) ) REPRESENTATION_CONTEXT ( 'NONE', 'WORKASPACE' ) );
#111 =( NAMED_UNIT ( * ) PLANE_ANGLE_UNIT ( ) SI_UNIT ( $, .RADIAN. ) );
#112 = AXIS2_PLACEMENT_3D ( 'NONE', #168, #291, #196 ) ;
#113 = DIRECTION ( 'NONE',  ( -1.000000000000000000, 0.000000000000000000, 0.000000000000000000 ) ) ;
#114 = FILL_AREA_STYLE_COLOUR ( '', #96 ) ;
#115 = CIRCLE ( 'NONE', #170, 0.3124999999999998890 ) ;
#116 = CARTESIAN_POINT ( 'NONE',  ( -1.516480271171051896E-32, 0.7499999999999998890, 0.000000000000000000 ) ) ;
#117 = MANIFOLD_SOLID_BREP ( 'Revolve - Cutting Edge', #73 ) ;
#118 = MANIFOLD_SOLID_BREP ( 'Revolve - Tool Body (Straight Shanked)', #208 ) ;
#119 = DIRECTION ( 'NONE',  ( 5.442874662877122010E-17, 1.000000000000000000, -0.000000000000000000 ) ) ;
#120 =( NAMED_UNIT ( * ) SI_UNIT ( $, .STERADIAN. ) SOLID_ANGLE_UNIT ( ) );
#121 = PRODUCT_DEFINITION_FORMATION_WITH_SPECIFIED_SOURCE ( 'ANY', '', #247, .NOT_KNOWN. ) ;
#122 = VERTEX_POINT ( 'NONE', #284 ) ;
#123 = PRODUCT_CONTEXT ( 'NONE', #224, 'mechanical' ) ;
#124 = CARTESIAN_POINT ( 'NONE',  ( -1.516480271171051896E-32, 0.7499999999999998890, 0.000000000000000000 ) ) ;
#125 = DIMENSIONAL_EXPONENTS ( 1.000000000000000000, 0.000000000000000000, 0.000000000000000000, 0.000000000000000000, 0.000000000000000000, 0.000000000000000000, 0.000000000000000000 ) ;
#126 = ORIENTED_EDGE ( 'NONE', *, *, #271, .F. ) ;
#127 =( NAMED_UNIT ( * ) SI_UNIT ( $, .STERADIAN. ) SOLID_ANGLE_UNIT ( ) );
#128 = VERTEX_POINT ( 'NONE', #236 ) ;
#129 = STYLED_ITEM ( 'NONE', ( #239 ), #267 ) ;
#130 = EDGE_LOOP ( 'NONE', ( #155, #146 ) ) ;
#131 = SURFACE_STYLE_FILL_AREA ( #43 ) ;
#132 = DIRECTION ( 'NONE',  ( -1.000000000000000000, 0.000000000000000000, 0.000000000000000000 ) ) ;
#133 = FILL_AREA_STYLE ('',( #89 ) ) ;
#134 =( LENGTH_UNIT ( ) NAMED_UNIT ( * ) SI_UNIT ( $, .METRE. ) );
#135 = AXIS2_PLACEMENT_3D ( 'NONE', #30, #152, #9 ) ;
#136 = CARTESIAN_POINT ( 'NONE',  ( 3.827021247335478926E-17, 0.000000000000000000, 0.3125000000000000000 ) ) ;
#137 = FACE_OUTER_BOUND ( 'NONE', #35, .T. ) ;
#138 = ADVANCED_FACE ( 'NONE', ( #234 ), #260, .F. ) ;
#139 = CARTESIAN_POINT ( 'NONE',  ( 3.827021247335478926E-17, 0.7499999999999998890, 0.3125000000000000000 ) ) ;
#140 = SURFACE_SIDE_STYLE ('',( #55 ) ) ;
#141 = AXIS2_PLACEMENT_3D ( 'NONE', #165, #3, #74 ) ;
#142 = DIRECTION ( 'NONE',  ( 5.442874662877122626E-17, 1.000000000000000000, -0.000000000000000000 ) ) ;
#143 = DIMENSIONAL_EXPONENTS ( 1.000000000000000000, 0.000000000000000000, 0.000000000000000000, 0.000000000000000000, 0.000000000000000000, 0.000000000000000000, 0.000000000000000000 ) ;
#144 = APPLICATION_PROTOCOL_DEFINITION ( 'draft international standard', 'automotive_design', 1998, #224 ) ;
#145 = CARTESIAN_POINT ( 'NONE',  ( 1.224646799147352714E-16, 3.000000000000000444, 0.000000000000000000 ) ) ;
#146 = ORIENTED_EDGE ( 'NONE', *, *, #209, .F. ) ;
#147 = AXIS2_PLACEMENT_3D ( 'NONE', #93, #268, #5 ) ;
#148 = DIRECTION ( 'NONE',  ( -0.000000000000000000, -1.000000000000000000, -0.000000000000000000 ) ) ;
#149 = AXIS2_PLACEMENT_3D ( 'NONE', #17, #68, #16 ) ;
#150 = ORIENTED_EDGE ( 'NONE', *, *, #85, .F. ) ;
#151 = ADVANCED_BREP_SHAPE_REPRESENTATION ( '44317', ( #117, #118, #262 ), #52 ) ;
#152 = DIRECTION ( 'NONE',  ( 0.000000000000000000, 1.000000000000000000, 0.000000000000000000 ) ) ;
#153 = EDGE_LOOP ( 'NONE', ( #201, #59 ) ) ;
#154 =( NAMED_UNIT ( * ) SI_UNIT ( $, .STERADIAN. ) SOLID_ANGLE_UNIT ( ) );
#155 = ORIENTED_EDGE ( 'NONE', *, *, #195, .F. ) ;
#156 = EDGE_CURVE ( 'NONE', #299, #204, #302, .T. ) ;
#157 = AXIS2_PLACEMENT_3D ( 'NONE', #276, #295, #63 ) ;
#158 = FACE_OUTER_BOUND ( 'NONE', #198, .T. ) ;
#159 = SURFACE_STYLE_USAGE ( .BOTH. , #283 ) ;
#160 = CARTESIAN_POINT ( 'NONE',  ( 0.000000000000000000, 0.000000000000000000, 0.000000000000000000 ) ) ;
#161 = PRESENTATION_STYLE_ASSIGNMENT (( #107 ) ) ;
#162 =( GEOMETRIC_REPRESENTATION_CONTEXT ( 3 ) GLOBAL_UNCERTAINTY_ASSIGNED_CONTEXT ( ( #49 ) ) GLOBAL_UNIT_ASSIGNED_CONTEXT ( ( #185, #282, #210 ) ) REPRESENTATION_CONTEXT ( 'NONE', 'WORKASPACE' ) );
#163 =( LENGTH_UNIT ( ) NAMED_UNIT ( * ) SI_UNIT ( $, .METRE. ) );
#164 = UNCERTAINTY_MEASURE_WITH_UNIT (LENGTH_MEASURE( 1.000000000000000082E-05 ), #229, 'distance_accuracy_value', 'NONE');
#165 = CARTESIAN_POINT ( 'NONE',  ( 0.000000000000000000, 0.7499999999999998890, 0.000000000000000000 ) ) ;
#166 = VECTOR ( 'NONE', #200, 39.37007874015748143 ) ;
#167 = FILL_AREA_STYLE ('',( #76 ) ) ;
#168 = CARTESIAN_POINT ( 'NONE',  ( 0.000000000000000000, 0.000000000000000000, 0.000000000000000000 ) ) ;
#169 = UNCERTAINTY_MEASURE_WITH_UNIT (LENGTH_MEASURE( 1.000000000000000082E-05 ), #190, 'distance_accuracy_value', 'NONE');
#170 = AXIS2_PLACEMENT_3D ( 'NONE', #90, #259, #132 ) ;
#171 = SHAPE_DEFINITION_REPRESENTATION ( #8, #151 ) ;
#172 = FACE_OUTER_BOUND ( 'NONE', #296, .T. ) ;
#173 = ORIENTED_EDGE ( 'NONE', *, *, #238, .T. ) ;
#174 = ADVANCED_FACE ( 'NONE', ( #211 ), #92, .T. ) ;
#175 = ORIENTED_EDGE ( 'NONE', *, *, #182, .F. ) ;
#176 = DIRECTION ( 'NONE',  ( 0.000000000000000000, 0.000000000000000000, -1.000000000000000000 ) ) ;
#177 = AXIS2_PLACEMENT_3D ( 'NONE', #60, #148, #176 ) ;
#178 = ORIENTED_EDGE ( 'NONE', *, *, #32, .F. ) ;
#179 = APPLICATION_PROTOCOL_DEFINITION ( 'draft international standard', 'automotive_design', 1998, #36 ) ;
#180 = CARTESIAN_POINT ( 'NONE',  ( 0.000000000000000000, 0.000000000000000000, 0.000000000000000000 ) ) ;
#181 = EDGE_LOOP ( 'NONE', ( #272, #230 ) ) ;
#182 = EDGE_CURVE ( 'NONE', #225, #122, #115, .T. ) ;
#183 = CYLINDRICAL_SURFACE ( 'NONE', #301, 0.3125000000000000000 ) ;
#184 = SURFACE_SIDE_STYLE ('',( #45 ) ) ;
#185 =( CONVERSION_BASED_UNIT ( 'INCH', #48 ) LENGTH_UNIT ( ) NAMED_UNIT ( #199 ) );
#186 = PRESENTATION_LAYER_ASSIGNMENT (  '', '', ( #261 ) ) ;
#187 = AXIS2_PLACEMENT_3D ( 'NONE', #116, #142, #113 ) ;
#188 = DIRECTION ( 'NONE',  ( 5.442874662877122626E-17, 1.000000000000000000, -0.000000000000000000 ) ) ;
#189 = SURFACE_SIDE_STYLE ('',( #53 ) ) ;
#190 =( CONVERSION_BASED_UNIT ( 'INCH', #95 ) LENGTH_UNIT ( ) NAMED_UNIT ( #274 ) );
#191 = DIRECTION ( 'NONE',  ( 5.442874662877122010E-17, 1.000000000000000000, -0.000000000000000000 ) ) ;
#192 = UNCERTAINTY_MEASURE_WITH_UNIT (LENGTH_MEASURE( 1.000000000000000082E-05 ), #72, 'distance_accuracy_value', 'NONE');
#193 = VECTOR ( 'NONE', #191, 39.37007874015748143 ) ;
#194 = LENGTH_MEASURE_WITH_UNIT ( LENGTH_MEASURE( 0.02539999999999999897 ), #134 );
#195 = EDGE_CURVE ( 'NONE', #128, #304, #287, .T. ) ;
#196 = DIRECTION ( 'NONE',  ( 0.000000000000000000, 0.000000000000000000, -1.000000000000000000 ) ) ;
#197 = PRODUCT_RELATED_PRODUCT_CATEGORY ( 'part', '', ( #247 ) ) ;
#198 = EDGE_LOOP ( 'NONE', ( #61, #235, #173, #40 ) ) ;
#199 = DIMENSIONAL_EXPONENTS ( 1.000000000000000000, 0.000000000000000000, 0.000000000000000000, 0.000000000000000000, 0.000000000000000000, 0.000000000000000000, 0.000000000000000000 ) ;
#200 = DIRECTION ( 'NONE',  ( -0.000000000000000000, -1.000000000000000000, -0.000000000000000000 ) ) ;
#201 = ORIENTED_EDGE ( 'NONE', *, *, #85, .T. ) ;
#202 = ORIENTED_EDGE ( 'NONE', *, *, #62, .T. ) ;
#203 = COLOUR_RGB ( '',0.7921568627450980005, 0.8196078431372548767, 0.9333333333333333481 ) ;
#204 = VERTEX_POINT ( 'NONE', #97 ) ;
#205 =( NAMED_UNIT ( * ) PLANE_ANGLE_UNIT ( ) SI_UNIT ( $, .RADIAN. ) );
#206 = CARTESIAN_POINT ( 'NONE',  ( 1.224646799147352714E-16, 3.000000000000000444, 0.000000000000000000 ) ) ;
#207 = DIRECTION ( 'NONE',  ( 0.000000000000000000, 0.000000000000000000, -1.000000000000000000 ) ) ;
#208 = CLOSED_SHELL ( 'NONE', ( #174, #138, #70, #220 ) ) ;
#209 = EDGE_CURVE ( 'NONE', #304, #128, #281, .T. ) ;
#210 =( NAMED_UNIT ( * ) SI_UNIT ( $, .STERADIAN. ) SOLID_ANGLE_UNIT ( ) );
#211 = FACE_OUTER_BOUND ( 'NONE', #269, .T. ) ;
#212 = EDGE_CURVE ( 'NONE', #253, #102, #240, .T. ) ;
#213 = CIRCLE ( 'NONE', #177, 0.3125000000000000000 ) ;
#214 = PLANE ( 'NONE',  #112 ) ;
#215 = DIRECTION ( 'NONE',  ( -5.442874662877122010E-17, -1.000000000000000000, 0.000000000000000000 ) ) ;
#216 = FACE_OUTER_BOUND ( 'NONE', #130, .T. ) ;
#217 = CARTESIAN_POINT ( 'NONE',  ( -0.3125000000000000000, 0.7499999999999998890, 0.000000000000000000 ) ) ;
#218 = AXIS2_PLACEMENT_3D ( 'NONE', #206, #307, #308 ) ;
#219 = DIRECTION ( 'NONE',  ( -0.000000000000000000, -1.000000000000000000, -0.000000000000000000 ) ) ;
#220 = ADVANCED_FACE ( 'NONE', ( #137 ), #7, .F. ) ;
#221 =( GEOMETRIC_REPRESENTATION_CONTEXT ( 3 ) GLOBAL_UNCERTAINTY_ASSIGNED_CONTEXT ( ( #78 ) ) GLOBAL_UNIT_ASSIGNED_CONTEXT ( ( #39, #205, #120 ) ) REPRESENTATION_CONTEXT ( 'NONE', 'WORKASPACE' ) );
#222 = CIRCLE ( 'NONE', #157, 0.3124999999999998890 ) ;
#223 = CARTESIAN_POINT ( 'NONE',  ( 0.000000000000000000, 0.000000000000000000, 0.000000000000000000 ) ) ;
#224 = APPLICATION_CONTEXT ( 'automotive_design' ) ;
#225 = VERTEX_POINT ( 'NONE', #243 ) ;
#226 = DIRECTION ( 'NONE',  ( 0.000000000000000000, 0.000000000000000000, 1.000000000000000000 ) ) ;
#227 = FILL_AREA_STYLE ('',( #11 ) ) ;
#228 = SURFACE_STYLE_FILL_AREA ( #233 ) ;
#229 =( CONVERSION_BASED_UNIT ( 'INCH', #101 ) LENGTH_UNIT ( ) NAMED_UNIT ( #278 ) );
#230 = ORIENTED_EDGE ( 'NONE', *, *, #108, .F. ) ;
#231 = MECHANICAL_DESIGN_GEOMETRIC_PRESENTATION_REPRESENTATION (  '', ( #294 ), #162 ) ;
#232 = DIRECTION ( 'NONE',  ( 0.000000000000000000, 0.000000000000000000, -1.000000000000000000 ) ) ;
#233 = FILL_AREA_STYLE ('',( #248 ) ) ;
#234 = FACE_OUTER_BOUND ( 'NONE', #181, .T. ) ;
#235 = ORIENTED_EDGE ( 'NONE', *, *, #209, .T. ) ;
#236 = CARTESIAN_POINT ( 'NONE',  ( 0.000000000000000000, 0.7499999999999998890, -0.3125000000000000000 ) ) ;
#237 = UNCERTAINTY_MEASURE_WITH_UNIT (LENGTH_MEASURE( 1.000000000000000082E-05 ), #69, 'distance_accuracy_value', 'NONE');
#238 = EDGE_CURVE ( 'NONE', #128, #204, #29, .T. ) ;
#239 = PRESENTATION_STYLE_ASSIGNMENT (( #263 ) ) ;
#240 = CIRCLE ( 'NONE', #187, 0.3125000000000000000 ) ;
#241 =( LENGTH_UNIT ( ) NAMED_UNIT ( * ) SI_UNIT ( $, .METRE. ) );
#242 = PRODUCT_DEFINITION_CONTEXT ( 'detailed design', #36, 'design' ) ;
#243 = CARTESIAN_POINT ( 'NONE',  ( 0.3125000000000000000, 3.000000000000000444, 3.827021247335477694E-17 ) ) ;
#244 = COLOUR_RGB ( '',0.7921568627450980005, 0.8196078431372548767, 0.9333333333333333481 ) ;
#245 =( NAMED_UNIT ( * ) PLANE_ANGLE_UNIT ( ) SI_UNIT ( $, .RADIAN. ) );
#246 =( NAMED_UNIT ( * ) PLANE_ANGLE_UNIT ( ) SI_UNIT ( $, .RADIAN. ) );
#247 = PRODUCT ( '44317', '44317', '', ( #123 ) ) ;
#248 = FILL_AREA_STYLE_COLOUR ( '', #109 ) ;
#249 = PRESENTATION_LAYER_ASSIGNMENT (  '', '', ( #285 ) ) ;
#250 = CYLINDRICAL_SURFACE ( 'NONE', #147, 0.3125000000000000000 ) ;
#251 = DIMENSIONAL_EXPONENTS ( 1.000000000000000000, 0.000000000000000000, 0.000000000000000000, 0.000000000000000000, 0.000000000000000000, 0.000000000000000000, 0.000000000000000000 ) ;
#252 = PRESENTATION_STYLE_ASSIGNMENT (( #303 ) ) ;
#253 = VERTEX_POINT ( 'NONE', #217 ) ;
#254 = SURFACE_STYLE_FILL_AREA ( #227 ) ;
#255 = ORIENTED_EDGE ( 'NONE', *, *, #182, .T. ) ;
#256 =( GEOMETRIC_REPRESENTATION_CONTEXT ( 3 ) GLOBAL_UNCERTAINTY_ASSIGNED_CONTEXT ( ( #164 ) ) GLOBAL_UNIT_ASSIGNED_CONTEXT ( ( #229, #246, #154 ) ) REPRESENTATION_CONTEXT ( 'NONE', 'WORKASPACE' ) );
#257 = MECHANICAL_DESIGN_GEOMETRIC_PRESENTATION_REPRESENTATION (  '', ( #129 ), #33 ) ;
#258 = LENGTH_MEASURE_WITH_UNIT ( LENGTH_MEASURE( 0.02539999999999999897 ), #286 );
#259 = DIRECTION ( 'NONE',  ( 5.442874662877122626E-17, 1.000000000000000000, -0.000000000000000000 ) ) ;
#260 = PLANE ( 'NONE',  #149 ) ;
#261 = STYLED_ITEM ( 'NONE', ( #279 ), #18 ) ;
#262 = AXIS2_PLACEMENT_3D ( 'NONE', #223, #226, #38 ) ;
#263 = SURFACE_STYLE_USAGE ( .BOTH. , #189 ) ;
#264 = CARTESIAN_POINT ( 'NONE',  ( -0.3124999999999998335, 3.000000000000000444, 0.000000000000000000 ) ) ;
#265 = LINE ( 'NONE', #54, #24 ) ;
#266 = VECTOR ( 'NONE', #219, 39.37007874015748143 ) ;
#267 = ADVANCED_FACE ( 'NONE', ( #77 ), #214, .T. ) ;
#268 = DIRECTION ( 'NONE',  ( -0.000000000000000000, -1.000000000000000000, -0.000000000000000000 ) ) ;
#269 = EDGE_LOOP ( 'NONE', ( #306, #300, #178, #81 ) ) ;
#270 = DIRECTION ( 'NONE',  ( -1.000000000000000000, 0.000000000000000000, 0.000000000000000000 ) ) ;
#271 = EDGE_CURVE ( 'NONE', #102, #225, #265, .T. ) ;
#272 = ORIENTED_EDGE ( 'NONE', *, *, #212, .F. ) ;
#273 = AXIS2_PLACEMENT_3D ( 'NONE', #145, #305, #270 ) ;
#274 = DIMENSIONAL_EXPONENTS ( 1.000000000000000000, 0.000000000000000000, 0.000000000000000000, 0.000000000000000000, 0.000000000000000000, 0.000000000000000000, 0.000000000000000000 ) ;
#275 =( LENGTH_UNIT ( ) NAMED_UNIT ( * ) SI_UNIT ( $, .METRE. ) );
#276 = CARTESIAN_POINT ( 'NONE',  ( 1.224646799147352714E-16, 3.000000000000000444, 0.000000000000000000 ) ) ;
#277 = ORIENTED_EDGE ( 'NONE', *, *, #4, .T. ) ;
#278 = DIMENSIONAL_EXPONENTS ( 1.000000000000000000, 0.000000000000000000, 0.000000000000000000, 0.000000000000000000, 0.000000000000000000, 0.000000000000000000, 0.000000000000000000 ) ;
#279 = PRESENTATION_STYLE_ASSIGNMENT (( #82 ) ) ;
#280 = MECHANICAL_DESIGN_GEOMETRIC_PRESENTATION_REPRESENTATION (  '', ( #23 ), #221 ) ;
#281 = CIRCLE ( 'NONE', #13, 0.3125000000000000000 ) ;
#282 =( NAMED_UNIT ( * ) PLANE_ANGLE_UNIT ( ) SI_UNIT ( $, .RADIAN. ) );
#283 = SURFACE_SIDE_STYLE ('',( #131 ) ) ;
#284 = CARTESIAN_POINT ( 'NONE',  ( -0.3124999999999997224, 3.000000000000000444, 0.000000000000000000 ) ) ;
#285 = STYLED_ITEM ( 'NONE', ( #65 ), #2 ) ;
#286 =( LENGTH_UNIT ( ) NAMED_UNIT ( * ) SI_UNIT ( $, .METRE. ) );
#287 = CIRCLE ( 'NONE', #141, 0.3125000000000000000 ) ;
#288 = DIRECTION ( 'NONE',  ( 1.000000000000000000, -5.442874662877122010E-17, 0.000000000000000000 ) ) ;
#289 = DIRECTION ( 'NONE',  ( -0.000000000000000000, -1.000000000000000000, -0.000000000000000000 ) ) ;
#290 = PLANE ( 'NONE',  #135 ) ;
#291 = DIRECTION ( 'NONE',  ( 0.000000000000000000, -1.000000000000000000, -0.000000000000000000 ) ) ;
#292 = PRODUCT_DEFINITION ( 'UNKNOWN', '', #121, #242 ) ;
#293 = COLOUR_RGB ( '',1.000000000000000000, 0.000000000000000000, 0.000000000000000000 ) ;
#294 = STYLED_ITEM ( 'NONE', ( #161 ), #117 ) ;
#295 = DIRECTION ( 'NONE',  ( 5.442874662877122626E-17, 1.000000000000000000, -0.000000000000000000 ) ) ;
#296 = EDGE_LOOP ( 'NONE', ( #126, #10, #277, #175 ) ) ;
#297 = SURFACE_SIDE_STYLE ('',( #254 ) ) ;
#298 = DIMENSIONAL_EXPONENTS ( 1.000000000000000000, 0.000000000000000000, 0.000000000000000000, 0.000000000000000000, 0.000000000000000000, 0.000000000000000000, 0.000000000000000000 ) ;
#299 = VERTEX_POINT ( 'NONE', #136 ) ;
#300 = ORIENTED_EDGE ( 'NONE', *, *, #271, .T. ) ;
#301 = AXIS2_PLACEMENT_3D ( 'NONE', #180, #99, #232 ) ;
#302 = CIRCLE ( 'NONE', #47, 0.3125000000000000000 ) ;
#303 = SURFACE_STYLE_USAGE ( .BOTH. , #297 ) ;
#304 = VERTEX_POINT ( 'NONE', #139 ) ;
#305 = DIRECTION ( 'NONE',  ( 5.442874662877122626E-17, 1.000000000000000000, -0.000000000000000000 ) ) ;
#306 = ORIENTED_EDGE ( 'NONE', *, *, #212, .T. ) ;
#307 = DIRECTION ( 'NONE',  ( 5.442874662877122626E-17, 1.000000000000000000, -0.000000000000000000 ) ) ;
#308 = DIRECTION ( 'NONE',  ( -1.000000000000000000, 0.000000000000000000, 0.000000000000000000 ) ) ;
#309 = PRESENTATION_STYLE_ASSIGNMENT (( #159 ) ) ;
ENDSEC;
END-ISO-10303-21;
