ISO-10303-21;
HEADER;
FILE_DESCRIPTION (( 'STEP AP214' ),
    '1' );
FILE_NAME ('Micro_BMR-022-2.STEP',
    '2021-09-03T13:52:32',
    ( '' ),
    ( '' ),
    'SwSTEP 2.0',
    'SolidWorks 2020',
    '' );
FILE_SCHEMA (( 'AUTOMOTIVE_DESIGN' ));
ENDSEC;

DATA;
#1 = CIRCLE ( 'NONE', #55, 0.01098900000000000050 ) ;
#2 = LENGTH_MEASURE_WITH_UNIT ( LENGTH_MEASURE( 0.02539999999999999897 ), #213 );
#3 = PLANE ( 'NONE',  #242 ) ;
#4 = EDGE_CURVE ( 'NONE', #232, #244, #143, .T. ) ;
#5 = CARTESIAN_POINT ( 'NONE',  ( 8.082668874372533300E-18, 0.0000000000000000000, 0.06600000000000000311 ) ) ;
#6 = EDGE_LOOP ( 'NONE', ( #75, #217, #163, #170 ) ) ;
#7 = DIRECTION ( 'NONE',  ( 0.0000000000000000000, 1.000000000000000000, 0.0000000000000000000 ) ) ;
#8 = AXIS2_PLACEMENT_3D ( 'NONE', #79, #319, #53 ) ;
#9 = DIRECTION ( 'NONE',  ( -1.224646799147353454E-16, -0.0000000000000000000, -1.000000000000000000 ) ) ;
#10 =( NAMED_UNIT ( * ) SI_UNIT ( $, .STERADIAN. ) SOLID_ANGLE_UNIT ( ) );
#11 = LINE ( 'NONE', #264, #203 ) ;
#12 = EDGE_LOOP ( 'NONE', ( #66, #317 ) ) ;
#13 = LENGTH_MEASURE_WITH_UNIT ( LENGTH_MEASURE( 0.02539999999999999897 ), #141 );
#14 = FILL_AREA_STYLE ('',( #16 ) ) ;
#15 = FILL_AREA_STYLE ('',( #41 ) ) ;
#16 = FILL_AREA_STYLE_COLOUR ( '', #183 ) ;
#17 = LENGTH_MEASURE_WITH_UNIT ( LENGTH_MEASURE( 0.02539999999999999897 ), #94 );
#18 = ORIENTED_EDGE ( 'NONE', *, *, #132, .T. ) ;
#19 = AXIS2_PLACEMENT_3D ( 'NONE', #257, #262, #178 ) ;
#20 = EDGE_LOOP ( 'NONE', ( #168, #18, #192, #266 ) ) ;
#21 = MANIFOLD_SOLID_BREP ( 'Fillet1', #320 ) ;
#22 = DIRECTION ( 'NONE',  ( -1.000000000000000000, 0.0000000000000000000, 0.0000000000000000000 ) ) ;
#23 = APPLICATION_CONTEXT ( 'automotive_design' ) ;
#24 = FACE_OUTER_BOUND ( 'NONE', #186, .T. ) ;
#25 = CIRCLE ( 'NONE', #255, 0.04750000000000064587 ) ;
#26 = CONICAL_SURFACE ( 'NONE', #90, 0.01098899999999999703, 0.1745329251994338637 ) ;
#27 = CARTESIAN_POINT ( 'NONE',  ( 0.0000000000000000000, 0.0000000000000000000, 0.0000000000000000000 ) ) ;
#28 = CYLINDRICAL_SURFACE ( 'NONE', #88, 0.01098899999999999530 ) ;
#29 = UNCERTAINTY_MEASURE_WITH_UNIT (LENGTH_MEASURE( 1.000000000000000082E-05 ), #184, 'distance_accuracy_value', 'NONE');
#30 = DIRECTION ( 'NONE',  ( 1.224646799147353454E-16, 0.0000000000000000000, 1.000000000000000000 ) ) ;
#31 = PRODUCT ( 'Micro_BMR-022-2', 'Micro_BMR-022-2', '', ( #239 ) ) ;
#32 = VECTOR ( 'NONE', #140, 39.37007874015748854 ) ;
#33 = FACE_OUTER_BOUND ( 'NONE', #216, .T. ) ;
#34 = CARTESIAN_POINT ( 'NONE',  ( 4.385869192961820901E-17, 0.0000000000000000000, 0.3581333978103264370 ) ) ;
#35 = CARTESIAN_POINT ( 'NONE',  ( 1.345764367583026786E-18, 0.0000000000000000000, 0.01098900000000000050 ) ) ;
#36 = DIRECTION ( 'NONE',  ( 1.000000000000000000, 0.0000000000000000000, 0.0000000000000000000 ) ) ;
#37 = ORIENTED_EDGE ( 'NONE', *, *, #218, .F. ) ;
#38 = CIRCLE ( 'NONE', #44, 0.01098899999999999530 ) ;
#39 = CARTESIAN_POINT ( 'NONE',  ( -0.06250000000000002776, 0.0000000000000000000, 1.485000000000000764 ) ) ;
#40 = EDGE_CURVE ( 'NONE', #145, #232, #25, .T. ) ;
#41 = FILL_AREA_STYLE_COLOUR ( '', #260 ) ;
#42 = CARTESIAN_POINT ( 'NONE',  ( -0.04750000000000064587, 0.0000000000000000000, 1.500000000000000222 ) ) ;
#43 = ORIENTED_EDGE ( 'NONE', *, *, #275, .F. ) ;
#44 = AXIS2_PLACEMENT_3D ( 'NONE', #258, #160, #280 ) ;
#45 = EDGE_CURVE ( 'NONE', #47, #268, #259, .T. ) ;
#46 = SURFACE_STYLE_USAGE ( .BOTH. , #235 ) ;
#47 = VERTEX_POINT ( 'NONE', #277 ) ;
#48 = ORIENTED_EDGE ( 'NONE', *, *, #182, .F. ) ;
#49 = CIRCLE ( 'NONE', #291, 0.01098899999999999530 ) ;
#50 =( GEOMETRIC_REPRESENTATION_CONTEXT ( 3 ) GLOBAL_UNCERTAINTY_ASSIGNED_CONTEXT ( ( #29 ) ) GLOBAL_UNIT_ASSIGNED_CONTEXT ( ( #184, #164, #206 ) ) REPRESENTATION_CONTEXT ( 'NONE', 'WORKASPACE' ) );
#51 = PRODUCT_DEFINITION ( 'UNKNOWN', '', #296, #106 ) ;
#52 =( CONVERSION_BASED_UNIT ( 'INCH', #2 ) LENGTH_UNIT ( ) NAMED_UNIT ( #298 ) );
#53 = DIRECTION ( 'NONE',  ( 1.000000000000000000, 0.0000000000000000000, 0.0000000000000000000 ) ) ;
#54 = DIRECTION ( 'NONE',  ( 0.0000000000000000000, 0.0000000000000000000, 1.000000000000000000 ) ) ;
#55 = AXIS2_PLACEMENT_3D ( 'NONE', #130, #85, #128 ) ;
#56 = APPLICATION_CONTEXT ( 'automotive_design' ) ;
#57 = CYLINDRICAL_SURFACE ( 'NONE', #230, 0.06250000000000002776 ) ;
#58 = DIRECTION ( 'NONE',  ( 1.000000000000000000, 0.0000000000000000000, 0.0000000000000000000 ) ) ;
#59 = CARTESIAN_POINT ( 'NONE',  ( 0.0000000000000000000, 0.0000000000000000000, 1.500000000000000222 ) ) ;
#60 = CONICAL_SURFACE ( 'NONE', #267, 0.04750000000000064587, 0.7853981633974466137 ) ;
#61 = CARTESIAN_POINT ( 'NONE',  ( -0.01098899999999999356, 0.0000000000000000000, 0.01098900000000000224 ) ) ;
#62 = CARTESIAN_POINT ( 'NONE',  ( 8.082668874372533300E-18, 0.0000000000000000000, 0.06600000000000000311 ) ) ;
#63 = CARTESIAN_POINT ( 'NONE',  ( 0.0000000000000000000, 0.0000000000000000000, 1.500000000000000222 ) ) ;
#64 = ADVANCED_FACE ( 'NONE', ( #24 ), #309, .T. ) ;
#65 = DIRECTION ( 'NONE',  ( 0.0000000000000000000, 0.0000000000000000000, 1.000000000000000000 ) ) ;
#66 = ORIENTED_EDGE ( 'NONE', *, *, #261, .T. ) ;
#67 =( GEOMETRIC_REPRESENTATION_CONTEXT ( 3 ) GLOBAL_UNCERTAINTY_ASSIGNED_CONTEXT ( ( #225 ) ) GLOBAL_UNIT_ASSIGNED_CONTEXT ( ( #52, #276, #222 ) ) REPRESENTATION_CONTEXT ( 'NONE', 'WORKASPACE' ) );
#68 = ORIENTED_EDGE ( 'NONE', *, *, #254, .T. ) ;
#69 = APPLICATION_PROTOCOL_DEFINITION ( 'draft international standard', 'automotive_design', 1998, #23 ) ;
#70 = ADVANCED_FACE ( 'NONE', ( #299 ), #28, .T. ) ;
#71 = ORIENTED_EDGE ( 'NONE', *, *, #159, .T. ) ;
#72 = ORIENTED_EDGE ( 'NONE', *, *, #4, .T. ) ;
#73 = CIRCLE ( 'NONE', #142, 0.06250000000000002776 ) ;
#74 = PRESENTATION_LAYER_ASSIGNMENT (  '', '', ( #84 ) ) ;
#75 = ORIENTED_EDGE ( 'NONE', *, *, #132, .F. ) ;
#76 = ORIENTED_EDGE ( 'NONE', *, *, #169, .F. ) ;
#77 = ADVANCED_FACE ( 'NONE', ( #193 ), #60, .T. ) ;
#78 = CARTESIAN_POINT ( 'NONE',  ( 0.0000000000000000000, 0.0000000000000000000, 0.0000000000000000000 ) ) ;
#79 = CARTESIAN_POINT ( 'NONE',  ( 0.0000000000000000000, 0.0000000000000000000, 1.485000000000000764 ) ) ;
#80 = CARTESIAN_POINT ( 'NONE',  ( 1.345764367583026786E-18, 0.0000000000000000000, 0.01098900000000000050 ) ) ;
#81 = EDGE_CURVE ( 'NONE', #244, #180, #322, .T. ) ;
#82 = DIRECTION ( 'NONE',  ( -1.000000000000000000, 0.0000000000000000000, 1.224646799147353454E-16 ) ) ;
#83 = CIRCLE ( 'NONE', #95, 0.01098899999999999703 ) ;
#84 = STYLED_ITEM ( 'NONE', ( #234 ), #279 ) ;
#85 = DIRECTION ( 'NONE',  ( 0.0000000000000000000, -1.000000000000000000, 0.0000000000000000000 ) ) ;
#86 = FACE_OUTER_BOUND ( 'NONE', #12, .T. ) ;
#87 = DIRECTION ( 'NONE',  ( 0.0000000000000000000, 0.0000000000000000000, -1.000000000000000000 ) ) ;
#88 = AXIS2_PLACEMENT_3D ( 'NONE', #27, #151, #82 ) ;
#89 = DIRECTION ( 'NONE',  ( -1.224646799147353454E-16, -0.0000000000000000000, -1.000000000000000000 ) ) ;
#90 = AXIS2_PLACEMENT_3D ( 'NONE', #5, #162, #198 ) ;
#91 = ORIENTED_EDGE ( 'NONE', *, *, #261, .F. ) ;
#92 = DIRECTION ( 'NONE',  ( 1.000000000000000000, 0.0000000000000000000, 0.0000000000000000000 ) ) ;
#93 = DIRECTION ( 'NONE',  ( 0.0000000000000000000, 0.0000000000000000000, -1.000000000000000000 ) ) ;
#94 =( LENGTH_UNIT ( ) NAMED_UNIT ( * ) SI_UNIT ( $, .METRE. ) );
#95 = AXIS2_PLACEMENT_3D ( 'NONE', #62, #305, #231 ) ;
#96 = ORIENTED_EDGE ( 'NONE', *, *, #247, .T. ) ;
#97 = DIRECTION ( 'NONE',  ( 1.000000000000000000, 0.0000000000000000000, 0.0000000000000000000 ) ) ;
#98 = SURFACE_STYLE_FILL_AREA ( #14 ) ;
#99 = SHAPE_DEFINITION_REPRESENTATION ( #134, #279 ) ;
#100 = ORIENTED_EDGE ( 'NONE', *, *, #275, .T. ) ;
#101 = ADVANCED_FACE ( 'NONE', ( #323 ), #171, .T. ) ;
#102 = ORIENTED_EDGE ( 'NONE', *, *, #154, .T. ) ;
#103 = CARTESIAN_POINT ( 'NONE',  ( 8.082668874372533300E-18, 0.0000000000000000000, 0.06600000000000000311 ) ) ;
#104 = DIMENSIONAL_EXPONENTS ( 1.000000000000000000, 0.0000000000000000000, 0.0000000000000000000, 0.0000000000000000000, 0.0000000000000000000, 0.0000000000000000000, 0.0000000000000000000 ) ;
#105 = SPHERICAL_SURFACE ( 'NONE', #148, 0.01098900000000000050 ) ;
#106 = PRODUCT_DEFINITION_CONTEXT ( 'detailed design', #56, 'design' ) ;
#107 = FACE_OUTER_BOUND ( 'NONE', #20, .T. ) ;
#108 = CARTESIAN_POINT ( 'NONE',  ( 0.0000000000000000000, 0.0000000000000000000, 1.500000000000000222 ) ) ;
#109 = CIRCLE ( 'NONE', #221, 0.06250000000000002776 ) ;
#110 = DIRECTION ( 'NONE',  ( 1.000000000000000000, 0.0000000000000000000, 0.0000000000000000000 ) ) ;
#111 = DIRECTION ( 'NONE',  ( -1.000000000000000000, 0.0000000000000000000, 1.942175125170813114E-16 ) ) ;
#112 = DIRECTION ( 'NONE',  ( 1.224646799147353454E-16, 0.0000000000000000000, 1.000000000000000000 ) ) ;
#113 = VERTEX_POINT ( 'NONE', #126 ) ;
#114 = AXIS2_PLACEMENT_3D ( 'NONE', #35, #7, #36 ) ;
#115 = LINE ( 'NONE', #177, #272 ) ;
#116 = MECHANICAL_DESIGN_GEOMETRIC_PRESENTATION_REPRESENTATION (  '', ( #84 ), #120 ) ;
#117 = CARTESIAN_POINT ( 'NONE',  ( 0.0000000000000000000, 0.0000000000000000000, 1.500000000000000222 ) ) ;
#118 = ORIENTED_EDGE ( 'NONE', *, *, #40, .F. ) ;
#119 = EDGE_LOOP ( 'NONE', ( #147, #190, #188 ) ) ;
#120 =( GEOMETRIC_REPRESENTATION_CONTEXT ( 3 ) GLOBAL_UNCERTAINTY_ASSIGNED_CONTEXT ( ( #300 ) ) GLOBAL_UNIT_ASSIGNED_CONTEXT ( ( #316, #313, #10 ) ) REPRESENTATION_CONTEXT ( 'NONE', 'WORKASPACE' ) );
#121 = SURFACE_STYLE_FILL_AREA ( #15 ) ;
#122 = PRESENTATION_STYLE_ASSIGNMENT (( #46 ) ) ;
#123 = CARTESIAN_POINT ( 'NONE',  ( 0.0000000000000000000, 0.0000000000000000000, 0.0000000000000000000 ) ) ;
#124 = ORIENTED_EDGE ( 'NONE', *, *, #223, .F. ) ;
#125 = VERTEX_POINT ( 'NONE', #196 ) ;
#126 = CARTESIAN_POINT ( 'NONE',  ( 0.06250000000000006939, 7.654042494670963708E-18, 0.3581333978103264370 ) ) ;
#127 = ADVANCED_FACE ( 'NONE', ( #107 ), #57, .T. ) ;
#128 = DIRECTION ( 'NONE',  ( 0.0000000000000000000, 0.0000000000000000000, -1.000000000000000000 ) ) ;
#129 = DIRECTION ( 'NONE',  ( -1.000000000000000000, 1.224646799147353207E-16, 0.0000000000000000000 ) ) ;
#130 = CARTESIAN_POINT ( 'NONE',  ( 1.345764367583026786E-18, 0.0000000000000000000, 0.01098900000000000050 ) ) ;
#131 = FACE_OUTER_BOUND ( 'NONE', #119, .T. ) ;
#132 = EDGE_CURVE ( 'NONE', #125, #113, #297, .T. ) ;
#133 = CARTESIAN_POINT ( 'NONE',  ( 1.345764367583026786E-18, 0.0000000000000000000, 0.01098900000000000050 ) ) ;
#134 = PRODUCT_DEFINITION_SHAPE ( 'NONE', 'NONE',  #51 ) ;
#135 = DIRECTION ( 'NONE',  ( 1.000000000000000000, 0.0000000000000000000, 0.0000000000000000000 ) ) ;
#136 = ORIENTED_EDGE ( 'NONE', *, *, #325, .T. ) ;
#137 = CARTESIAN_POINT ( 'NONE',  ( 0.0000000000000000000, 0.0000000000000000000, 1.485000000000000764 ) ) ;
#138 = FACE_OUTER_BOUND ( 'NONE', #6, .T. ) ;
#139 = CARTESIAN_POINT ( 'NONE',  ( 0.01098899999999999703, 1.345764367583025823E-18, 0.01098899999999999703 ) ) ;
#140 = DIRECTION ( 'NONE',  ( -0.7071067811865462405, 0.0000000000000000000, -0.7071067811865486830 ) ) ;
#141 =( LENGTH_UNIT ( ) NAMED_UNIT ( * ) SI_UNIT ( $, .METRE. ) );
#142 = AXIS2_PLACEMENT_3D ( 'NONE', #137, #87, #110 ) ;
#143 = LINE ( 'NONE', #42, #32 ) ;
#144 = AXIS2_PLACEMENT_3D ( 'NONE', #34, #304, #135 ) ;
#145 = VERTEX_POINT ( 'NONE', #252 ) ;
#146 = ORIENTED_EDGE ( 'NONE', *, *, #218, .T. ) ;
#147 = ORIENTED_EDGE ( 'NONE', *, *, #154, .F. ) ;
#148 = AXIS2_PLACEMENT_3D ( 'NONE', #80, #152, #179 ) ;
#149 = CONICAL_SURFACE ( 'NONE', #237, 0.04750000000000064587, 0.7853981633974466137 ) ;
#150 = DIMENSIONAL_EXPONENTS ( 1.000000000000000000, 0.0000000000000000000, 0.0000000000000000000, 0.0000000000000000000, 0.0000000000000000000, 0.0000000000000000000, 0.0000000000000000000 ) ;
#151 = DIRECTION ( 'NONE',  ( -1.224646799147353454E-16, -0.0000000000000000000, -1.000000000000000000 ) ) ;
#152 = DIRECTION ( 'NONE',  ( 0.0000000000000000000, 1.000000000000000000, 0.0000000000000000000 ) ) ;
#153 = DIRECTION ( 'NONE',  ( -0.0000000000000000000, -0.0000000000000000000, -1.000000000000000000 ) ) ;
#154 = EDGE_CURVE ( 'NONE', #47, #263, #1, .T. ) ;
#155 = DIRECTION ( 'NONE',  ( -1.000000000000000000, 0.0000000000000000000, 0.0000000000000000000 ) ) ;
#156 = PRODUCT_RELATED_PRODUCT_CATEGORY ( 'part', '', ( #31 ) ) ;
#157 = AXIS2_PLACEMENT_3D ( 'NONE', #250, #294, #129 ) ;
#158 = CARTESIAN_POINT ( 'NONE',  ( 0.01098900000000000571, 0.0000000000000000000, 0.06600000000000000311 ) ) ;
#159 = EDGE_CURVE ( 'NONE', #293, #290, #226, .T. ) ;
#160 = DIRECTION ( 'NONE',  ( 1.224646799147353454E-16, 0.0000000000000000000, 1.000000000000000000 ) ) ;
#161 = DIRECTION ( 'NONE',  ( 1.000000000000000000, 0.0000000000000000000, -0.0000000000000000000 ) ) ;
#162 = DIRECTION ( 'NONE',  ( 1.224646799147353454E-16, 0.0000000000000000000, 1.000000000000000000 ) ) ;
#163 = ORIENTED_EDGE ( 'NONE', *, *, #81, .T. ) ;
#164 =( NAMED_UNIT ( * ) PLANE_ANGLE_UNIT ( ) SI_UNIT ( $, .RADIAN. ) );
#165 = EDGE_LOOP ( 'NONE', ( #43, #91, #72, #76 ) ) ;
#166 = ORIENTED_EDGE ( 'NONE', *, *, #249, .F. ) ;
#167 = EDGE_LOOP ( 'NONE', ( #270, #318, #271, #241 ) ) ;
#168 = ORIENTED_EDGE ( 'NONE', *, *, #182, .T. ) ;
#169 = EDGE_CURVE ( 'NONE', #125, #244, #236, .T. ) ;
#170 = ORIENTED_EDGE ( 'NONE', *, *, #211, .F. ) ;
#171 = CYLINDRICAL_SURFACE ( 'NONE', #251, 0.01098899999999999530 ) ;
#172 = DIRECTION ( 'NONE',  ( 0.0000000000000000000, 0.0000000000000000000, -1.000000000000000000 ) ) ;
#173 = CARTESIAN_POINT ( 'NONE',  ( -0.06250000000000002776, 0.0000000000000000000, 1.500000000000000222 ) ) ;
#174 = VECTOR ( 'NONE', #324, 39.37007874015748143 ) ;
#175 = ADVANCED_FACE ( 'NONE', ( #131 ), #105, .T. ) ;
#176 = DIRECTION ( 'NONE',  ( 0.0000000000000000000, 0.0000000000000000000, 1.000000000000000000 ) ) ;
#177 = CARTESIAN_POINT ( 'NONE',  ( 0.01098899999999999530, 1.345764367583025823E-18, -1.345764367583026016E-18 ) ) ;
#178 = DIRECTION ( 'NONE',  ( -1.000000000000000000, 0.0000000000000000000, 0.0000000000000000000 ) ) ;
#179 = DIRECTION ( 'NONE',  ( 1.000000000000000000, 0.0000000000000000000, 0.0000000000000000000 ) ) ;
#180 = VERTEX_POINT ( 'NONE', #248 ) ;
#181 = DIRECTION ( 'NONE',  ( -1.000000000000000000, 0.0000000000000000000, 0.0000000000000000000 ) ) ;
#182 = EDGE_CURVE ( 'NONE', #244, #125, #73, .T. ) ;
#183 = COLOUR_RGB ( '',0.7921568627450980005, 0.8196078431372548767, 0.9333333333333333481 ) ;
#184 =( CONVERSION_BASED_UNIT ( 'INCH', #13 ) LENGTH_UNIT ( ) NAMED_UNIT ( #150 ) );
#185 = VECTOR ( 'NONE', #311, 39.37007874015748143 ) ;
#186 = EDGE_LOOP ( 'NONE', ( #124, #292, #68, #265 ) ) ;
#187 = EDGE_CURVE ( 'NONE', #263, #268, #38, .T. ) ;
#188 = ORIENTED_EDGE ( 'NONE', *, *, #187, .F. ) ;
#189 = DIRECTION ( 'NONE',  ( -1.224646799147353454E-16, -0.0000000000000000000, -1.000000000000000000 ) ) ;
#190 = ORIENTED_EDGE ( 'NONE', *, *, #45, .T. ) ;
#191 = CIRCLE ( 'NONE', #283, 0.04750000000000064587 ) ;
#192 = ORIENTED_EDGE ( 'NONE', *, *, #307, .F. ) ;
#193 = FACE_OUTER_BOUND ( 'NONE', #165, .T. ) ;
#194 = DIRECTION ( 'NONE',  ( -1.000000000000000000, 0.0000000000000000000, 0.0000000000000000000 ) ) ;
#195 = AXIS2_PLACEMENT_3D ( 'NONE', #103, #30, #273 ) ;
#196 = CARTESIAN_POINT ( 'NONE',  ( 0.06250000000000002776, 7.654042494670959086E-18, 1.485000000000000764 ) ) ;
#197 = STYLED_ITEM ( 'NONE', ( #122 ), #21 ) ;
#198 = DIRECTION ( 'NONE',  ( 1.000000000000000000, 0.0000000000000000000, 0.0000000000000000000 ) ) ;
#199 = ADVANCED_FACE ( 'NONE', ( #86 ), #3, .T. ) ;
#200 = CARTESIAN_POINT ( 'NONE',  ( -0.01098899999999998836, 1.345764367583026016E-18, 0.06600000000000000311 ) ) ;
#201 = LINE ( 'NONE', #200, #215 ) ;
#202 = VECTOR ( 'NONE', #153, 39.37007874015748143 ) ;
#203 = VECTOR ( 'NONE', #189, 39.37007874015748143 ) ;
#204 = LINE ( 'NONE', #281, #185 ) ;
#205 = CARTESIAN_POINT ( 'NONE',  ( 4.385869192961820901E-17, 0.0000000000000000000, 0.3581333978103264370 ) ) ;
#206 =( NAMED_UNIT ( * ) SI_UNIT ( $, .STERADIAN. ) SOLID_ANGLE_UNIT ( ) );
#207 = ORIENTED_EDGE ( 'NONE', *, *, #249, .T. ) ;
#208 = PRESENTATION_LAYER_ASSIGNMENT (  '', '', ( #197 ) ) ;
#209 = SURFACE_STYLE_USAGE ( .BOTH. , #269 ) ;
#210 = ORIENTED_EDGE ( 'NONE', *, *, #4, .F. ) ;
#211 = EDGE_CURVE ( 'NONE', #113, #180, #109, .T. ) ;
#212 = ADVANCED_FACE ( 'NONE', ( #33 ), #227, .T. ) ;
#213 =( LENGTH_UNIT ( ) NAMED_UNIT ( * ) SI_UNIT ( $, .METRE. ) );
#214 = APPLICATION_PROTOCOL_DEFINITION ( 'draft international standard', 'automotive_design', 1998, #56 ) ;
#215 = VECTOR ( 'NONE', #306, 39.37007874015747433 ) ;
#216 = EDGE_LOOP ( 'NONE', ( #315, #102, #37 ) ) ;
#217 = ORIENTED_EDGE ( 'NONE', *, *, #169, .T. ) ;
#218 = EDGE_CURVE ( 'NONE', #268, #263, #49, .T. ) ;
#219 = CARTESIAN_POINT ( 'NONE',  ( 0.06250000000000002776, 7.654042494670959086E-18, 1.500000000000000222 ) ) ;
#220 = DIRECTION ( 'NONE',  ( -1.224646799147353454E-16, -0.0000000000000000000, -1.000000000000000000 ) ) ;
#221 = AXIS2_PLACEMENT_3D ( 'NONE', #205, #89, #229 ) ;
#222 =( NAMED_UNIT ( * ) SI_UNIT ( $, .STERADIAN. ) SOLID_ANGLE_UNIT ( ) );
#223 = EDGE_CURVE ( 'NONE', #293, #180, #201, .T. ) ;
#224 = DIRECTION ( 'NONE',  ( -1.224646799147353454E-16, -0.0000000000000000000, -1.000000000000000000 ) ) ;
#225 = UNCERTAINTY_MEASURE_WITH_UNIT (LENGTH_MEASURE( 1.000000000000000082E-05 ), #52, 'distance_accuracy_value', 'NONE');
#226 = CIRCLE ( 'NONE', #302, 0.01098899999999999703 ) ;
#227 = SPHERICAL_SURFACE ( 'NONE', #114, 0.01098900000000000050 ) ;
#228 = CYLINDRICAL_SURFACE ( 'NONE', #19, 0.06250000000000002776 ) ;
#229 = DIRECTION ( 'NONE',  ( 1.000000000000000000, 0.0000000000000000000, 0.0000000000000000000 ) ) ;
#230 = AXIS2_PLACEMENT_3D ( 'NONE', #301, #274, #22 ) ;
#231 = DIRECTION ( 'NONE',  ( -1.000000000000000000, 0.0000000000000000000, 0.0000000000000000000 ) ) ;
#232 = VERTEX_POINT ( 'NONE', #284 ) ;
#233 = CARTESIAN_POINT ( 'NONE',  ( -0.01098899999999998836, 4.499903431126993417E-18, 0.06600000000000000311 ) ) ;
#234 = PRESENTATION_STYLE_ASSIGNMENT (( #209 ) ) ;
#235 = SURFACE_SIDE_STYLE ('',( #98 ) ) ;
#236 = CIRCLE ( 'NONE', #8, 0.06250000000000002776 ) ;
#237 = AXIS2_PLACEMENT_3D ( 'NONE', #117, #93, #181 ) ;
#238 = CARTESIAN_POINT ( 'NONE',  ( 0.0000000000000000000, 0.0000000000000000000, 1.500000000000000222 ) ) ;
#239 = PRODUCT_CONTEXT ( 'NONE', #23, 'mechanical' ) ;
#240 = ORIENTED_EDGE ( 'NONE', *, *, #187, .T. ) ;
#241 = ORIENTED_EDGE ( 'NONE', *, *, #254, .F. ) ;
#242 = AXIS2_PLACEMENT_3D ( 'NONE', #59, #65, #161 ) ;
#243 = ADVANCED_FACE ( 'NONE', ( #138 ), #228, .T. ) ;
#244 = VERTEX_POINT ( 'NONE', #39 ) ;
#245 = CIRCLE ( 'NONE', #144, 0.06250000000000002776 ) ;
#246 = DIRECTION ( 'NONE',  ( -1.000000000000000000, 0.0000000000000000000, 1.224646799147353454E-16 ) ) ;
#247 = EDGE_CURVE ( 'NONE', #290, #293, #83, .T. ) ;
#248 = CARTESIAN_POINT ( 'NONE',  ( -0.06249999999999997918, 0.0000000000000000000, 0.3581333978103264370 ) ) ;
#249 = EDGE_CURVE ( 'NONE', #290, #263, #115, .T. ) ;
#250 = CARTESIAN_POINT ( 'NONE',  ( 1.345764367583026786E-18, 0.0000000000000000000, 0.01098900000000000050 ) ) ;
#251 = AXIS2_PLACEMENT_3D ( 'NONE', #78, #224, #246 ) ;
#252 = CARTESIAN_POINT ( 'NONE',  ( 0.04750000000000064587, 6.735557395310483192E-18, 1.500000000000000222 ) ) ;
#253 = LINE ( 'NONE', #312, #310 ) ;
#254 = EDGE_CURVE ( 'NONE', #290, #113, #204, .T. ) ;
#255 = AXIS2_PLACEMENT_3D ( 'NONE', #238, #54, #58 ) ;
#256 = DIRECTION ( 'NONE',  ( 0.7071067811865462405, 8.659560562354916834E-17, -0.7071067811865486830 ) ) ;
#257 = CARTESIAN_POINT ( 'NONE',  ( 0.0000000000000000000, 0.0000000000000000000, 1.500000000000000222 ) ) ;
#258 = CARTESIAN_POINT ( 'NONE',  ( 1.345764367583026786E-18, 0.0000000000000000000, 0.01098900000000000050 ) ) ;
#259 = CIRCLE ( 'NONE', #157, 0.01098900000000000050 ) ;
#260 = COLOUR_RGB ( '',0.7921568627450980005, 0.8196078431372548767, 0.9333333333333333481 ) ;
#261 = EDGE_CURVE ( 'NONE', #232, #145, #191, .T. ) ;
#262 = DIRECTION ( 'NONE',  ( -0.0000000000000000000, -0.0000000000000000000, -1.000000000000000000 ) ) ;
#263 = VERTEX_POINT ( 'NONE', #139 ) ;
#264 = CARTESIAN_POINT ( 'NONE',  ( -0.01098899999999999530, 0.0000000000000000000, 1.345764367583026016E-18 ) ) ;
#265 = ORIENTED_EDGE ( 'NONE', *, *, #211, .T. ) ;
#266 = ORIENTED_EDGE ( 'NONE', *, *, #81, .F. ) ;
#267 = AXIS2_PLACEMENT_3D ( 'NONE', #108, #172, #194 ) ;
#268 = VERTEX_POINT ( 'NONE', #61 ) ;
#269 = SURFACE_SIDE_STYLE ('',( #121 ) ) ;
#270 = ORIENTED_EDGE ( 'NONE', *, *, #159, .F. ) ;
#271 = ORIENTED_EDGE ( 'NONE', *, *, #307, .T. ) ;
#272 = VECTOR ( 'NONE', #9, 39.37007874015748143 ) ;
#273 = DIRECTION ( 'NONE',  ( 1.000000000000000000, 0.0000000000000000000, 0.0000000000000000000 ) ) ;
#274 = DIRECTION ( 'NONE',  ( -0.0000000000000000000, -0.0000000000000000000, -1.000000000000000000 ) ) ;
#275 = EDGE_CURVE ( 'NONE', #145, #125, #253, .T. ) ;
#276 =( NAMED_UNIT ( * ) PLANE_ANGLE_UNIT ( ) SI_UNIT ( $, .RADIAN. ) );
#277 = CARTESIAN_POINT ( 'NONE',  ( 2.018646551374540083E-18, 0.0000000000000000000, 0.0000000000000000000 ) ) ;
#278 = CARTESIAN_POINT ( 'NONE',  ( 8.082668874372533300E-18, 0.0000000000000000000, 0.06600000000000000311 ) ) ;
#279 = ADVANCED_BREP_SHAPE_REPRESENTATION ( 'Micro_BMR-022-2', ( #21, #321 ), #50 ) ;
#280 = DIRECTION ( 'NONE',  ( -1.000000000000000000, 0.0000000000000000000, 1.942175125170813114E-16 ) ) ;
#281 = CARTESIAN_POINT ( 'NONE',  ( 0.01098900000000000571, 0.0000000000000000000, 0.06600000000000000311 ) ) ;
#282 = MECHANICAL_DESIGN_GEOMETRIC_PRESENTATION_REPRESENTATION (  '', ( #197 ), #67 ) ;
#283 = AXIS2_PLACEMENT_3D ( 'NONE', #63, #176, #92 ) ;
#284 = CARTESIAN_POINT ( 'NONE',  ( -0.04750000000000064587, 0.0000000000000000000, 1.500000000000000222 ) ) ;
#285 = FACE_OUTER_BOUND ( 'NONE', #314, .T. ) ;
#286 = FACE_OUTER_BOUND ( 'NONE', #167, .T. ) ;
#287 = DIRECTION ( 'NONE',  ( 0.0000000000000000000, 0.0000000000000000000, 1.000000000000000000 ) ) ;
#288 = EDGE_LOOP ( 'NONE', ( #71, #207, #240, #289 ) ) ;
#289 = ORIENTED_EDGE ( 'NONE', *, *, #325, .F. ) ;
#290 = VERTEX_POINT ( 'NONE', #158 ) ;
#291 = AXIS2_PLACEMENT_3D ( 'NONE', #133, #112, #111 ) ;
#292 = ORIENTED_EDGE ( 'NONE', *, *, #247, .F. ) ;
#293 = VERTEX_POINT ( 'NONE', #233 ) ;
#294 = DIRECTION ( 'NONE',  ( 1.224646799147353207E-16, 1.000000000000000000, -0.0000000000000000000 ) ) ;
#295 = ADVANCED_FACE ( 'NONE', ( #285 ), #149, .T. ) ;
#296 = PRODUCT_DEFINITION_FORMATION_WITH_SPECIFIED_SOURCE ( 'ANY', '', #31, .NOT_KNOWN. ) ;
#297 = LINE ( 'NONE', #219, #202 ) ;
#298 = DIMENSIONAL_EXPONENTS ( 1.000000000000000000, 0.0000000000000000000, 0.0000000000000000000, 0.0000000000000000000, 0.0000000000000000000, 0.0000000000000000000, 0.0000000000000000000 ) ;
#299 = FACE_OUTER_BOUND ( 'NONE', #308, .T. ) ;
#300 = UNCERTAINTY_MEASURE_WITH_UNIT (LENGTH_MEASURE( 1.000000000000000082E-05 ), #316, 'distance_accuracy_value', 'NONE');
#301 = CARTESIAN_POINT ( 'NONE',  ( 0.0000000000000000000, 0.0000000000000000000, 1.500000000000000222 ) ) ;
#302 = AXIS2_PLACEMENT_3D ( 'NONE', #278, #220, #155 ) ;
#303 = ADVANCED_FACE ( 'NONE', ( #286 ), #26, .T. ) ;
#304 = DIRECTION ( 'NONE',  ( -1.224646799147353454E-16, -0.0000000000000000000, -1.000000000000000000 ) ) ;
#305 = DIRECTION ( 'NONE',  ( -1.224646799147353454E-16, -0.0000000000000000000, -1.000000000000000000 ) ) ;
#306 = DIRECTION ( 'NONE',  ( -0.1736481776669311639, 2.126576849575783008E-17, 0.9848077530122080203 ) ) ;
#307 = EDGE_CURVE ( 'NONE', #180, #113, #245, .T. ) ;
#308 = EDGE_LOOP ( 'NONE', ( #166, #96, #136, #146 ) ) ;
#309 = CONICAL_SURFACE ( 'NONE', #195, 0.01098899999999999703, 0.1745329251994338637 ) ;
#310 = VECTOR ( 'NONE', #256, 39.37007874015748854 ) ;
#311 = DIRECTION ( 'NONE',  ( 0.1736481776669313581, 0.0000000000000000000, 0.9848077530122077983 ) ) ;
#312 = CARTESIAN_POINT ( 'NONE',  ( 0.04750000000000064587, 5.817072295950006528E-18, 1.500000000000000222 ) ) ;
#313 =( NAMED_UNIT ( * ) PLANE_ANGLE_UNIT ( ) SI_UNIT ( $, .RADIAN. ) );
#314 = EDGE_LOOP ( 'NONE', ( #118, #100, #48, #210 ) ) ;
#315 = ORIENTED_EDGE ( 'NONE', *, *, #45, .F. ) ;
#316 =( CONVERSION_BASED_UNIT ( 'INCH', #17 ) LENGTH_UNIT ( ) NAMED_UNIT ( #104 ) );
#317 = ORIENTED_EDGE ( 'NONE', *, *, #40, .T. ) ;
#318 = ORIENTED_EDGE ( 'NONE', *, *, #223, .T. ) ;
#319 = DIRECTION ( 'NONE',  ( 0.0000000000000000000, 0.0000000000000000000, -1.000000000000000000 ) ) ;
#320 = CLOSED_SHELL ( 'NONE', ( #175, #101, #303, #295, #127, #243, #199, #77, #64, #70, #212 ) ) ;
#321 = AXIS2_PLACEMENT_3D ( 'NONE', #123, #287, #97 ) ;
#322 = LINE ( 'NONE', #173, #174 ) ;
#323 = FACE_OUTER_BOUND ( 'NONE', #288, .T. ) ;
#324 = DIRECTION ( 'NONE',  ( -0.0000000000000000000, -0.0000000000000000000, -1.000000000000000000 ) ) ;
#325 = EDGE_CURVE ( 'NONE', #293, #268, #11, .T. ) ;
ENDSEC;
END-ISO-10303-21;
