ISO-10303-21;
HEADER;
FILE_DESCRIPTION (( 'STEP AP214' ),
    '1' );
FILE_NAME ('00375.STEP',
    '2023-06-22T14:07:02',
    ( '' ),
    ( '' ),
    'SwSTEP 2.0',
    'SolidWorks 2023',
    '' );
FILE_SCHEMA (( 'AUTOMOTIVE_DESIGN' ));
ENDSEC;

DATA;
#1 = PRESENTATION_LAYER_ASSIGNMENT (  '', '', ( #227 ) ) ;
#2 = CARTESIAN_POINT ( 'NONE',  ( 0.1875000000000000278, 1.499999999999999778, 2.296212748401288342E-17 ) ) ;
#3 = CARTESIAN_POINT ( 'NONE',  ( 0.000000000000000000, 0.000000000000000000, 0.000000000000000000 ) ) ;
#4 = PRODUCT_DEFINITION_SHAPE ( 'NONE', 'NONE',  #292 ) ;
#5 = FILL_AREA_STYLE ('',( #205 ) ) ;
#6 = CARTESIAN_POINT ( 'NONE',  ( 0.000000000000000000, 1.500000000000000222, 0.000000000000000000 ) ) ;
#7 = SURFACE_STYLE_FILL_AREA ( #5 ) ;
#8 = FILL_AREA_STYLE_COLOUR ( '', #280 ) ;
#9 = DIRECTION ( 'NONE',  ( 0.000000000000000000, 0.000000000000000000, -1.000000000000000000 ) ) ;
#10 = PRESENTATION_STYLE_ASSIGNMENT (( #187 ) ) ;
#11 = EDGE_CURVE ( 'NONE', #165, #41, #59, .T. ) ;
#12 = DIMENSIONAL_EXPONENTS ( 1.000000000000000000, 0.000000000000000000, 0.000000000000000000, 0.000000000000000000, 0.000000000000000000, 0.000000000000000000, 0.000000000000000000 ) ;
#13 = CARTESIAN_POINT ( 'NONE',  ( 2.296212748401287726E-17, 1.500000000000000222, 0.1875000000000000278 ) ) ;
#14 = CIRCLE ( 'NONE', #31, 0.1875000000000000833 ) ;
#15 = FACE_OUTER_BOUND ( 'NONE', #166, .T. ) ;
#16 = PRESENTATION_LAYER_ASSIGNMENT (  '', '', ( #214 ) ) ;
#17 = DIRECTION ( 'NONE',  ( -0.000000000000000000, -1.000000000000000000, -0.000000000000000000 ) ) ;
#18 = EDGE_CURVE ( 'NONE', #165, #217, #272, .T. ) ;
#19 = ORIENTED_EDGE ( 'NONE', *, *, #173, .T. ) ;
#20 = DIRECTION ( 'NONE',  ( -0.000000000000000000, -1.000000000000000000, -0.000000000000000000 ) ) ;
#21 =( GEOMETRIC_REPRESENTATION_CONTEXT ( 3 ) GLOBAL_UNCERTAINTY_ASSIGNED_CONTEXT ( ( #93 ) ) GLOBAL_UNIT_ASSIGNED_CONTEXT ( ( #253, #27, #156 ) ) REPRESENTATION_CONTEXT ( 'NONE', 'WORKASPACE' ) );
#22 = CARTESIAN_POINT ( 'NONE',  ( 2.296212748401287726E-17, 0.000000000000000000, 0.1875000000000000278 ) ) ;
#23 = VERTEX_POINT ( 'NONE', #300 ) ;
#24 = DIRECTION ( 'NONE',  ( 1.000000000000000000, 0.000000000000000000, 0.000000000000000000 ) ) ;
#25 = FACE_OUTER_BOUND ( 'NONE', #42, .T. ) ;
#26 = EDGE_CURVE ( 'NONE', #106, #238, #269, .T. ) ;
#27 =( NAMED_UNIT ( * ) PLANE_ANGLE_UNIT ( ) SI_UNIT ( $, .RADIAN. ) );
#28 = VECTOR ( 'NONE', #221, 39.37007874015748143 ) ;
#29 = PLANE ( 'NONE',  #148 ) ;
#30 = LENGTH_MEASURE_WITH_UNIT ( LENGTH_MEASURE( 0.02539999999999999897 ), #163 );
#31 = AXIS2_PLACEMENT_3D ( 'NONE', #170, #133, #307 ) ;
#32 = CIRCLE ( 'NONE', #228, 0.1875000000000000278 ) ;
#33 = PLANE ( 'NONE',  #191 ) ;
#34 = LENGTH_MEASURE_WITH_UNIT ( LENGTH_MEASURE( 0.02539999999999999897 ), #291 );
#35 =( CONVERSION_BASED_UNIT ( 'INCH', #293 ) LENGTH_UNIT ( ) NAMED_UNIT ( #55 ) );
#36 = CLOSED_SHELL ( 'NONE', ( #256, #177, #90, #116 ) ) ;
#37 = MECHANICAL_DESIGN_GEOMETRIC_PRESENTATION_REPRESENTATION (  '', ( #71 ), #232 ) ;
#38 =( NAMED_UNIT ( * ) PLANE_ANGLE_UNIT ( ) SI_UNIT ( $, .RADIAN. ) );
#39 = DIMENSIONAL_EXPONENTS ( 1.000000000000000000, 0.000000000000000000, 0.000000000000000000, 0.000000000000000000, 0.000000000000000000, 0.000000000000000000, 0.000000000000000000 ) ;
#40 = UNCERTAINTY_MEASURE_WITH_UNIT (LENGTH_MEASURE( 1.000000000000000082E-05 ), #35, 'distance_accuracy_value', 'NONE');
#41 = VERTEX_POINT ( 'NONE', #22 ) ;
#42 = EDGE_LOOP ( 'NONE', ( #60, #274 ) ) ;
#43 = AXIS2_PLACEMENT_3D ( 'NONE', #3, #203, #94 ) ;
#44 = ORIENTED_EDGE ( 'NONE', *, *, #18, .T. ) ;
#45 =( NAMED_UNIT ( * ) SI_UNIT ( $, .STERADIAN. ) SOLID_ANGLE_UNIT ( ) );
#46 = EDGE_CURVE ( 'NONE', #23, #106, #185, .T. ) ;
#47 = FILL_AREA_STYLE_COLOUR ( '', #258 ) ;
#48 = FILL_AREA_STYLE ('',( #47 ) ) ;
#49 = DIRECTION ( 'NONE',  ( 0.000000000000000000, 0.000000000000000000, -1.000000000000000000 ) ) ;
#50 = DIRECTION ( 'NONE',  ( -0.000000000000000000, -1.000000000000000000, -0.000000000000000000 ) ) ;
#51 = FILL_AREA_STYLE ('',( #144 ) ) ;
#52 = SURFACE_SIDE_STYLE ('',( #260 ) ) ;
#53 = CYLINDRICAL_SURFACE ( 'NONE', #273, 0.1875000000000000278 ) ;
#54 =( CONVERSION_BASED_UNIT ( 'INCH', #30 ) LENGTH_UNIT ( ) NAMED_UNIT ( #77 ) );
#55 = DIMENSIONAL_EXPONENTS ( 1.000000000000000000, 0.000000000000000000, 0.000000000000000000, 0.000000000000000000, 0.000000000000000000, 0.000000000000000000, 0.000000000000000000 ) ;
#56 =( NAMED_UNIT ( * ) PLANE_ANGLE_UNIT ( ) SI_UNIT ( $, .RADIAN. ) );
#57 = AXIS2_PLACEMENT_3D ( 'NONE', #234, #115, #49 ) ;
#58 = AXIS2_PLACEMENT_3D ( 'NONE', #235, #285, #210 ) ;
#59 = LINE ( 'NONE', #146, #251 ) ;
#60 = ORIENTED_EDGE ( 'NONE', *, *, #95, .T. ) ;
#61 = EDGE_CURVE ( 'NONE', #294, #41, #213, .T. ) ;
#62 = ORIENTED_EDGE ( 'NONE', *, *, #26, .T. ) ;
#63 = AXIS2_PLACEMENT_3D ( 'NONE', #67, #176, #135 ) ;
#64 = AXIS2_PLACEMENT_3D ( 'NONE', #286, #17, #120 ) ;
#65 = FILL_AREA_STYLE_COLOUR ( '', #104 ) ;
#66 =( NAMED_UNIT ( * ) SI_UNIT ( $, .STERADIAN. ) SOLID_ANGLE_UNIT ( ) );
#67 = CARTESIAN_POINT ( 'NONE',  ( -6.123233995736766036E-17, 4.000000000000000000, 0.000000000000000000 ) ) ;
#68 =( GEOMETRIC_REPRESENTATION_CONTEXT ( 3 ) GLOBAL_UNCERTAINTY_ASSIGNED_CONTEXT ( ( #263 ) ) GLOBAL_UNIT_ASSIGNED_CONTEXT ( ( #199, #229, #45 ) ) REPRESENTATION_CONTEXT ( 'NONE', 'WORKASPACE' ) );
#69 = LENGTH_MEASURE_WITH_UNIT ( LENGTH_MEASURE( 0.02539999999999999897 ), #113 );
#70 = FACE_OUTER_BOUND ( 'NONE', #301, .T. ) ;
#71 = STYLED_ITEM ( 'NONE', ( #288 ), #178 ) ;
#72 =( GEOMETRIC_REPRESENTATION_CONTEXT ( 3 ) GLOBAL_UNCERTAINTY_ASSIGNED_CONTEXT ( ( #204 ) ) GLOBAL_UNIT_ASSIGNED_CONTEXT ( ( #54, #38, #295 ) ) REPRESENTATION_CONTEXT ( 'NONE', 'WORKASPACE' ) );
#73 = SURFACE_STYLE_USAGE ( .BOTH. , #52 ) ;
#74 = EDGE_CURVE ( 'NONE', #217, #294, #282, .T. ) ;
#75 = FACE_OUTER_BOUND ( 'NONE', #109, .T. ) ;
#76 = FACE_OUTER_BOUND ( 'NONE', #147, .T. ) ;
#77 = DIMENSIONAL_EXPONENTS ( 1.000000000000000000, 0.000000000000000000, 0.000000000000000000, 0.000000000000000000, 0.000000000000000000, 0.000000000000000000, 0.000000000000000000 ) ;
#78 = DIRECTION ( 'NONE',  ( -1.000000000000000000, 0.000000000000000000, 0.000000000000000000 ) ) ;
#79 = DIRECTION ( 'NONE',  ( -0.000000000000000000, -1.000000000000000000, -0.000000000000000000 ) ) ;
#80 = ORIENTED_EDGE ( 'NONE', *, *, #18, .F. ) ;
#81 = AXIS2_PLACEMENT_3D ( 'NONE', #193, #126, #103 ) ;
#82 = ORIENTED_EDGE ( 'NONE', *, *, #95, .F. ) ;
#83 = EDGE_LOOP ( 'NONE', ( #219, #80 ) ) ;
#84 = EDGE_LOOP ( 'NONE', ( #143, #128 ) ) ;
#85 = COLOUR_RGB ( '',0.7921568627450980005, 0.8196078431372548767, 0.9333333333333333481 ) ;
#86 = DIRECTION ( 'NONE',  ( 1.000000000000000000, 2.449293598294706229E-17, 0.000000000000000000 ) ) ;
#87 = PLANE ( 'NONE',  #43 ) ;
#88 =( GEOMETRIC_REPRESENTATION_CONTEXT ( 3 ) GLOBAL_UNCERTAINTY_ASSIGNED_CONTEXT ( ( #40 ) ) GLOBAL_UNIT_ASSIGNED_CONTEXT ( ( #35, #290, #118 ) ) REPRESENTATION_CONTEXT ( 'NONE', 'WORKASPACE' ) );
#89 = SURFACE_STYLE_USAGE ( .BOTH. , #132 ) ;
#90 = ADVANCED_FACE ( 'NONE', ( #70 ), #277, .T. ) ;
#91 = MANIFOLD_SOLID_BREP ( 'Revolve - Tool Body (Straight Shanked)', #36 ) ;
#92 = MECHANICAL_DESIGN_GEOMETRIC_PRESENTATION_REPRESENTATION (  '', ( #214 ), #72 ) ;
#93 = UNCERTAINTY_MEASURE_WITH_UNIT (LENGTH_MEASURE( 1.000000000000000082E-05 ), #253, 'distance_accuracy_value', 'NONE');
#94 = DIRECTION ( 'NONE',  ( 0.000000000000000000, 0.000000000000000000, -1.000000000000000000 ) ) ;
#95 = EDGE_CURVE ( 'NONE', #195, #238, #14, .T. ) ;
#96 = SURFACE_STYLE_USAGE ( .BOTH. , #97 ) ;
#97 = SURFACE_SIDE_STYLE ('',( #7 ) ) ;
#98 = CARTESIAN_POINT ( 'NONE',  ( 0.1875000000000000278, 4.000000000000000000, 2.296212748401288342E-17 ) ) ;
#99 = FILL_AREA_STYLE ('',( #8 ) ) ;
#100 =( NAMED_UNIT ( * ) SI_UNIT ( $, .STERADIAN. ) SOLID_ANGLE_UNIT ( ) );
#101 = PRESENTATION_STYLE_ASSIGNMENT (( #189 ) ) ;
#102 = ORIENTED_EDGE ( 'NONE', *, *, #11, .T. ) ;
#103 = DIRECTION ( 'NONE',  ( 0.000000000000000000, 0.000000000000000000, -1.000000000000000000 ) ) ;
#104 = COLOUR_RGB ( '',1.000000000000000000, 0.000000000000000000, 0.000000000000000000 ) ;
#105 = PRODUCT_DEFINITION_FORMATION_WITH_SPECIFIED_SOURCE ( 'ANY', '', #131, .NOT_KNOWN. ) ;
#106 = VERTEX_POINT ( 'NONE', #2 ) ;
#107 = DIRECTION ( 'NONE',  ( -2.449293598294706538E-17, 1.000000000000000000, -0.000000000000000000 ) ) ;
#108 =( NAMED_UNIT ( * ) PLANE_ANGLE_UNIT ( ) SI_UNIT ( $, .RADIAN. ) );
#109 = EDGE_LOOP ( 'NONE', ( #19, #102, #123, #222 ) ) ;
#110 = APPLICATION_PROTOCOL_DEFINITION ( 'draft international standard', 'automotive_design', 1998, #261 ) ;
#111 = CARTESIAN_POINT ( 'NONE',  ( 0.1875000000000000278, 4.000000000000000000, 0.000000000000000000 ) ) ;
#112 = SURFACE_STYLE_FILL_AREA ( #151 ) ;
#113 =( LENGTH_UNIT ( ) NAMED_UNIT ( * ) SI_UNIT ( $, .METRE. ) );
#114 = PRESENTATION_STYLE_ASSIGNMENT (( #89 ) ) ;
#115 = DIRECTION ( 'NONE',  ( -0.000000000000000000, -1.000000000000000000, -0.000000000000000000 ) ) ;
#116 = ADVANCED_FACE ( 'NONE', ( #25 ), #276, .F. ) ;
#117 = DIRECTION ( 'NONE',  ( -1.000000000000000000, -2.449293598294706229E-17, 0.000000000000000000 ) ) ;
#118 =( NAMED_UNIT ( * ) SI_UNIT ( $, .STERADIAN. ) SOLID_ANGLE_UNIT ( ) );
#119 =( CONVERSION_BASED_UNIT ( 'INCH', #34 ) LENGTH_UNIT ( ) NAMED_UNIT ( #39 ) );
#120 = DIRECTION ( 'NONE',  ( 0.000000000000000000, 0.000000000000000000, -1.000000000000000000 ) ) ;
#121 = AXIS2_PLACEMENT_3D ( 'NONE', #111, #155, #86 ) ;
#122 = ORIENTED_EDGE ( 'NONE', *, *, #46, .F. ) ;
#123 = ORIENTED_EDGE ( 'NONE', *, *, #61, .F. ) ;
#124 = DIRECTION ( 'NONE',  ( -1.000000000000000000, 0.000000000000000000, 0.000000000000000000 ) ) ;
#125 = CARTESIAN_POINT ( 'NONE',  ( 0.1874999999999999722, 4.000000000000000000, 2.296212748401288034E-17 ) ) ;
#126 = DIRECTION ( 'NONE',  ( -0.000000000000000000, -1.000000000000000000, -0.000000000000000000 ) ) ;
#127 =( LENGTH_UNIT ( ) NAMED_UNIT ( * ) SI_UNIT ( $, .METRE. ) );
#128 = ORIENTED_EDGE ( 'NONE', *, *, #208, .T. ) ;
#129 = ADVANCED_FACE ( 'NONE', ( #250 ), #87, .T. ) ;
#130 = STYLED_ITEM ( 'NONE', ( #198 ), #129 ) ;
#131 = PRODUCT ( '00375', '00375', '', ( #171 ) ) ;
#132 = SURFACE_SIDE_STYLE ('',( #281 ) ) ;
#133 = DIRECTION ( 'NONE',  ( -2.449293598294706538E-17, 1.000000000000000000, -0.000000000000000000 ) ) ;
#134 = CIRCLE ( 'NONE', #64, 0.1875000000000000278 ) ;
#135 = DIRECTION ( 'NONE',  ( -1.000000000000000000, 0.000000000000000000, 0.000000000000000000 ) ) ;
#136 = CARTESIAN_POINT ( 'NONE',  ( 5.624099184981966457E-35, 1.500000000000000222, 0.000000000000000000 ) ) ;
#137 = FACE_OUTER_BOUND ( 'NONE', #190, .T. ) ;
#138 = SURFACE_STYLE_FILL_AREA ( #51 ) ;
#139 = DIRECTION ( 'NONE',  ( 0.000000000000000000, 0.000000000000000000, -1.000000000000000000 ) ) ;
#140 =( LENGTH_UNIT ( ) NAMED_UNIT ( * ) SI_UNIT ( $, .METRE. ) );
#141 = DIMENSIONAL_EXPONENTS ( 1.000000000000000000, 0.000000000000000000, 0.000000000000000000, 0.000000000000000000, 0.000000000000000000, 0.000000000000000000, 0.000000000000000000 ) ;
#142 = DIRECTION ( 'NONE',  ( -2.449293598294706229E-17, 1.000000000000000000, 0.000000000000000000 ) ) ;
#143 = ORIENTED_EDGE ( 'NONE', *, *, #61, .T. ) ;
#144 = FILL_AREA_STYLE_COLOUR ( '', #237 ) ;
#145 = ADVANCED_FACE ( 'NONE', ( #75 ), #230, .T. ) ;
#146 = CARTESIAN_POINT ( 'NONE',  ( 2.296212748401287726E-17, 0.000000000000000000, 0.1875000000000000278 ) ) ;
#147 = EDGE_LOOP ( 'NONE', ( #244, #62, #82, #167 ) ) ;
#148 = AXIS2_PLACEMENT_3D ( 'NONE', #136, #142, #117 ) ;
#149 = ORIENTED_EDGE ( 'NONE', *, *, #284, .F. ) ;
#150 = LENGTH_MEASURE_WITH_UNIT ( LENGTH_MEASURE( 0.02539999999999999897 ), #127 );
#151 = FILL_AREA_STYLE ('',( #65 ) ) ;
#152 = DIRECTION ( 'NONE',  ( -0.000000000000000000, -1.000000000000000000, -0.000000000000000000 ) ) ;
#153 = AXIS2_PLACEMENT_3D ( 'NONE', #247, #107, #226 ) ;
#154 = EDGE_CURVE ( 'NONE', #23, #195, #186, .T. ) ;
#155 = DIRECTION ( 'NONE',  ( 2.449293598294706229E-17, -1.000000000000000000, 0.000000000000000000 ) ) ;
#156 =( NAMED_UNIT ( * ) SI_UNIT ( $, .STERADIAN. ) SOLID_ANGLE_UNIT ( ) );
#157 = PRESENTATION_LAYER_ASSIGNMENT (  '', '', ( #130 ) ) ;
#158 =( NAMED_UNIT ( * ) PLANE_ANGLE_UNIT ( ) SI_UNIT ( $, .RADIAN. ) );
#159 = UNCERTAINTY_MEASURE_WITH_UNIT (LENGTH_MEASURE( 1.000000000000000082E-05 ), #119, 'distance_accuracy_value', 'NONE');
#160 = CARTESIAN_POINT ( 'NONE',  ( 0.000000000000000000, 0.000000000000000000, -0.1875000000000000278 ) ) ;
#161 = FILL_AREA_STYLE ('',( #182 ) ) ;
#162 = DIRECTION ( 'NONE',  ( -2.449293598294706229E-17, 1.000000000000000000, -0.000000000000000000 ) ) ;
#163 =( LENGTH_UNIT ( ) NAMED_UNIT ( * ) SI_UNIT ( $, .METRE. ) );
#164 = STYLED_ITEM ( 'NONE', ( #10 ), #249 ) ;
#165 = VERTEX_POINT ( 'NONE', #13 ) ;
#166 = EDGE_LOOP ( 'NONE', ( #268, #44, #265, #248 ) ) ;
#167 = ORIENTED_EDGE ( 'NONE', *, *, #154, .F. ) ;
#168 = STYLED_ITEM ( 'NONE', ( #183 ), #145 ) ;
#169 =( CONVERSION_BASED_UNIT ( 'INCH', #150 ) LENGTH_UNIT ( ) NAMED_UNIT ( #141 ) );
#170 = CARTESIAN_POINT ( 'NONE',  ( -6.123233995736766036E-17, 4.000000000000000000, 0.000000000000000000 ) ) ;
#171 = PRODUCT_CONTEXT ( 'NONE', #243, 'mechanical' ) ;
#172 = DIRECTION ( 'NONE',  ( 0.000000000000000000, 0.000000000000000000, -1.000000000000000000 ) ) ;
#173 = EDGE_CURVE ( 'NONE', #217, #165, #196, .T. ) ;
#174 = LENGTH_MEASURE_WITH_UNIT ( LENGTH_MEASURE( 0.02539999999999999897 ), #201 );
#175 = PRESENTATION_LAYER_ASSIGNMENT (  '', '', ( #168 ) ) ;
#176 = DIRECTION ( 'NONE',  ( -2.449293598294706538E-17, 1.000000000000000000, -0.000000000000000000 ) ) ;
#177 = ADVANCED_FACE ( 'NONE', ( #137 ), #29, .F. ) ;
#178 = MANIFOLD_SOLID_BREP ( 'Revolve - Cutting Edge', #192 ) ;
#179 = AXIS2_PLACEMENT_3D ( 'NONE', #264, #233, #78 ) ;
#180 =( NAMED_UNIT ( * ) SI_UNIT ( $, .STERADIAN. ) SOLID_ANGLE_UNIT ( ) );
#181 = CYLINDRICAL_SURFACE ( 'NONE', #179, 0.1875000000000000555 ) ;
#182 = FILL_AREA_STYLE_COLOUR ( '', #305 ) ;
#183 = PRESENTATION_STYLE_ASSIGNMENT (( #73 ) ) ;
#184 =( LENGTH_UNIT ( ) NAMED_UNIT ( * ) SI_UNIT ( $, .METRE. ) );
#185 = CIRCLE ( 'NONE', #153, 0.1875000000000000278 ) ;
#186 = LINE ( 'NONE', #259, #224 ) ;
#187 = SURFACE_STYLE_USAGE ( .BOTH. , #266 ) ;
#188 = DIMENSIONAL_EXPONENTS ( 1.000000000000000000, 0.000000000000000000, 0.000000000000000000, 0.000000000000000000, 0.000000000000000000, 0.000000000000000000, 0.000000000000000000 ) ;
#189 = SURFACE_STYLE_USAGE ( .BOTH. , #231 ) ;
#190 = EDGE_LOOP ( 'NONE', ( #122, #296 ) ) ;
#191 = AXIS2_PLACEMENT_3D ( 'NONE', #6, #245, #223 ) ;
#192 = CLOSED_SHELL ( 'NONE', ( #145, #297, #249, #129 ) ) ;
#193 = CARTESIAN_POINT ( 'NONE',  ( 0.000000000000000000, 1.500000000000000222, 0.000000000000000000 ) ) ;
#194 = SHAPE_DEFINITION_REPRESENTATION ( #4, #254 ) ;
#195 = VERTEX_POINT ( 'NONE', #215 ) ;
#196 = CIRCLE ( 'NONE', #289, 0.1875000000000000278 ) ;
#197 = SURFACE_SIDE_STYLE ('',( #112 ) ) ;
#198 = PRESENTATION_STYLE_ASSIGNMENT (( #309 ) ) ;
#199 =( CONVERSION_BASED_UNIT ( 'INCH', #69 ) LENGTH_UNIT ( ) NAMED_UNIT ( #12 ) );
#200 = AXIS2_PLACEMENT_3D ( 'NONE', #239, #302, #24 ) ;
#201 =( LENGTH_UNIT ( ) NAMED_UNIT ( * ) SI_UNIT ( $, .METRE. ) );
#202 = PRODUCT_RELATED_PRODUCT_CATEGORY ( 'part', '', ( #131 ) ) ;
#203 = DIRECTION ( 'NONE',  ( 0.000000000000000000, -1.000000000000000000, -0.000000000000000000 ) ) ;
#204 = UNCERTAINTY_MEASURE_WITH_UNIT (LENGTH_MEASURE( 1.000000000000000082E-05 ), #54, 'distance_accuracy_value', 'NONE');
#205 = FILL_AREA_STYLE_COLOUR ( '', #85 ) ;
#206 =( GEOMETRIC_REPRESENTATION_CONTEXT ( 3 ) GLOBAL_UNCERTAINTY_ASSIGNED_CONTEXT ( ( #303 ) ) GLOBAL_UNIT_ASSIGNED_CONTEXT ( ( #169, #108, #66 ) ) REPRESENTATION_CONTEXT ( 'NONE', 'WORKASPACE' ) );
#207 =( CONVERSION_BASED_UNIT ( 'INCH', #211 ) LENGTH_UNIT ( ) NAMED_UNIT ( #188 ) );
#208 = EDGE_CURVE ( 'NONE', #41, #294, #134, .T. ) ;
#209 = CARTESIAN_POINT ( 'NONE',  ( 0.000000000000000000, 1.500000000000000222, 0.000000000000000000 ) ) ;
#210 = DIRECTION ( 'NONE',  ( -1.000000000000000000, 0.000000000000000000, 0.000000000000000000 ) ) ;
#211 = LENGTH_MEASURE_WITH_UNIT ( LENGTH_MEASURE( 0.02539999999999999897 ), #140 );
#212 = FACE_OUTER_BOUND ( 'NONE', #83, .T. ) ;
#213 = CIRCLE ( 'NONE', #298, 0.1875000000000000278 ) ;
#214 = STYLED_ITEM ( 'NONE', ( #101 ), #297 ) ;
#215 = CARTESIAN_POINT ( 'NONE',  ( -0.1875000000000001388, 4.000000000000000000, 0.000000000000000000 ) ) ;
#216 = CARTESIAN_POINT ( 'NONE',  ( 0.000000000000000000, 1.500000000000000222, -0.1875000000000000278 ) ) ;
#217 = VERTEX_POINT ( 'NONE', #216 ) ;
#218 = UNCERTAINTY_MEASURE_WITH_UNIT (LENGTH_MEASURE( 1.000000000000000082E-05 ), #207, 'distance_accuracy_value', 'NONE');
#219 = ORIENTED_EDGE ( 'NONE', *, *, #173, .F. ) ;
#220 = MECHANICAL_DESIGN_GEOMETRIC_PRESENTATION_REPRESENTATION (  '', ( #168 ), #246 ) ;
#221 = DIRECTION ( 'NONE',  ( -2.449293598294706229E-17, 1.000000000000000000, -0.000000000000000000 ) ) ;
#222 = ORIENTED_EDGE ( 'NONE', *, *, #74, .F. ) ;
#223 = DIRECTION ( 'NONE',  ( 0.000000000000000000, -0.000000000000000000, 1.000000000000000000 ) ) ;
#224 = VECTOR ( 'NONE', #162, 39.37007874015748143 ) ;
#225 = MECHANICAL_DESIGN_GEOMETRIC_PRESENTATION_REPRESENTATION (  '', ( #164 ), #88 ) ;
#226 = DIRECTION ( 'NONE',  ( -1.000000000000000000, 0.000000000000000000, 0.000000000000000000 ) ) ;
#227 = STYLED_ITEM ( 'NONE', ( #114 ), #91 ) ;
#228 = AXIS2_PLACEMENT_3D ( 'NONE', #308, #275, #124 ) ;
#229 =( NAMED_UNIT ( * ) PLANE_ANGLE_UNIT ( ) SI_UNIT ( $, .RADIAN. ) );
#230 = CYLINDRICAL_SURFACE ( 'NONE', #57, 0.1875000000000000278 ) ;
#231 = SURFACE_SIDE_STYLE ('',( #138 ) ) ;
#232 =( GEOMETRIC_REPRESENTATION_CONTEXT ( 3 ) GLOBAL_UNCERTAINTY_ASSIGNED_CONTEXT ( ( #159 ) ) GLOBAL_UNIT_ASSIGNED_CONTEXT ( ( #119, #56, #100 ) ) REPRESENTATION_CONTEXT ( 'NONE', 'WORKASPACE' ) );
#233 = DIRECTION ( 'NONE',  ( -2.449293598294706538E-17, 1.000000000000000000, -0.000000000000000000 ) ) ;
#234 = CARTESIAN_POINT ( 'NONE',  ( 0.000000000000000000, 0.000000000000000000, 0.000000000000000000 ) ) ;
#235 = CARTESIAN_POINT ( 'NONE',  ( -6.123233995736766036E-17, 4.000000000000000000, 0.000000000000000000 ) ) ;
#236 = VECTOR ( 'NONE', #255, 39.37007874015748143 ) ;
#237 = COLOUR_RGB ( '',1.000000000000000000, 0.000000000000000000, 0.000000000000000000 ) ;
#238 = VERTEX_POINT ( 'NONE', #98 ) ;
#239 = CARTESIAN_POINT ( 'NONE',  ( 0.000000000000000000, 0.000000000000000000, 0.000000000000000000 ) ) ;
#240 = DIMENSIONAL_EXPONENTS ( 1.000000000000000000, 0.000000000000000000, 0.000000000000000000, 0.000000000000000000, 0.000000000000000000, 0.000000000000000000, 0.000000000000000000 ) ;
#241 = ORIENTED_EDGE ( 'NONE', *, *, #26, .F. ) ;
#242 = APPLICATION_PROTOCOL_DEFINITION ( 'draft international standard', 'automotive_design', 1998, #243 ) ;
#243 = APPLICATION_CONTEXT ( 'automotive_design' ) ;
#244 = ORIENTED_EDGE ( 'NONE', *, *, #46, .T. ) ;
#245 = DIRECTION ( 'NONE',  ( 0.000000000000000000, 1.000000000000000000, 0.000000000000000000 ) ) ;
#246 =( GEOMETRIC_REPRESENTATION_CONTEXT ( 3 ) GLOBAL_UNCERTAINTY_ASSIGNED_CONTEXT ( ( #218 ) ) GLOBAL_UNIT_ASSIGNED_CONTEXT ( ( #207, #158, #180 ) ) REPRESENTATION_CONTEXT ( 'NONE', 'WORKASPACE' ) );
#247 = CARTESIAN_POINT ( 'NONE',  ( 7.582401355855259480E-33, 1.499999999999999778, 0.000000000000000000 ) ) ;
#248 = ORIENTED_EDGE ( 'NONE', *, *, #208, .F. ) ;
#249 = ADVANCED_FACE ( 'NONE', ( #15 ), #53, .T. ) ;
#250 = FACE_OUTER_BOUND ( 'NONE', #84, .T. ) ;
#251 = VECTOR ( 'NONE', #20, 39.37007874015748143 ) ;
#252 = CARTESIAN_POINT ( 'NONE',  ( 0.000000000000000000, 0.000000000000000000, -0.1875000000000000278 ) ) ;
#253 =( CONVERSION_BASED_UNIT ( 'INCH', #174 ) LENGTH_UNIT ( ) NAMED_UNIT ( #240 ) );
#254 = ADVANCED_BREP_SHAPE_REPRESENTATION ( '00375', ( #178, #91, #200 ), #206 ) ;
#255 = DIRECTION ( 'NONE',  ( -0.000000000000000000, -1.000000000000000000, -0.000000000000000000 ) ) ;
#256 = ADVANCED_FACE ( 'NONE', ( #76 ), #181, .T. ) ;
#257 = MECHANICAL_DESIGN_GEOMETRIC_PRESENTATION_REPRESENTATION (  '', ( #227 ), #68 ) ;
#258 = COLOUR_RGB ( '',0.7921568627450980005, 0.8196078431372548767, 0.9333333333333333481 ) ;
#259 = CARTESIAN_POINT ( 'NONE',  ( -0.1875000000000001110, 4.000000000000000000, 0.000000000000000000 ) ) ;
#260 = SURFACE_STYLE_FILL_AREA ( #161 ) ;
#261 = APPLICATION_CONTEXT ( 'automotive_design' ) ;
#262 = CARTESIAN_POINT ( 'NONE',  ( 0.000000000000000000, 0.000000000000000000, 0.000000000000000000 ) ) ;
#263 = UNCERTAINTY_MEASURE_WITH_UNIT (LENGTH_MEASURE( 1.000000000000000082E-05 ), #199, 'distance_accuracy_value', 'NONE');
#264 = CARTESIAN_POINT ( 'NONE',  ( -6.123233995736766036E-17, 4.000000000000000000, 0.000000000000000000 ) ) ;
#265 = ORIENTED_EDGE ( 'NONE', *, *, #74, .T. ) ;
#266 = SURFACE_SIDE_STYLE ('',( #287 ) ) ;
#267 = CIRCLE ( 'NONE', #58, 0.1875000000000000833 ) ;
#268 = ORIENTED_EDGE ( 'NONE', *, *, #11, .F. ) ;
#269 = LINE ( 'NONE', #125, #28 ) ;
#270 = PRODUCT_DEFINITION_CONTEXT ( 'detailed design', #261, 'design' ) ;
#271 = ORIENTED_EDGE ( 'NONE', *, *, #154, .T. ) ;
#272 = CIRCLE ( 'NONE', #81, 0.1875000000000000278 ) ;
#273 = AXIS2_PLACEMENT_3D ( 'NONE', #262, #79, #139 ) ;
#274 = ORIENTED_EDGE ( 'NONE', *, *, #284, .T. ) ;
#275 = DIRECTION ( 'NONE',  ( -2.449293598294706538E-17, 1.000000000000000000, -0.000000000000000000 ) ) ;
#276 = PLANE ( 'NONE',  #121 ) ;
#277 = CYLINDRICAL_SURFACE ( 'NONE', #63, 0.1875000000000000555 ) ;
#278 = MECHANICAL_DESIGN_GEOMETRIC_PRESENTATION_REPRESENTATION (  '', ( #130 ), #21 ) ;
#279 = CARTESIAN_POINT ( 'NONE',  ( 0.000000000000000000, 0.000000000000000000, 0.000000000000000000 ) ) ;
#280 = COLOUR_RGB ( '',1.000000000000000000, 0.000000000000000000, 0.000000000000000000 ) ;
#281 = SURFACE_STYLE_FILL_AREA ( #48 ) ;
#282 = LINE ( 'NONE', #252, #236 ) ;
#283 = PRESENTATION_LAYER_ASSIGNMENT (  '', '', ( #71 ) ) ;
#284 = EDGE_CURVE ( 'NONE', #238, #195, #267, .T. ) ;
#285 = DIRECTION ( 'NONE',  ( -2.449293598294706538E-17, 1.000000000000000000, -0.000000000000000000 ) ) ;
#286 = CARTESIAN_POINT ( 'NONE',  ( 0.000000000000000000, 0.000000000000000000, 0.000000000000000000 ) ) ;
#287 = SURFACE_STYLE_FILL_AREA ( #99 ) ;
#288 = PRESENTATION_STYLE_ASSIGNMENT (( #96 ) ) ;
#289 = AXIS2_PLACEMENT_3D ( 'NONE', #209, #50, #9 ) ;
#290 =( NAMED_UNIT ( * ) PLANE_ANGLE_UNIT ( ) SI_UNIT ( $, .RADIAN. ) );
#291 =( LENGTH_UNIT ( ) NAMED_UNIT ( * ) SI_UNIT ( $, .METRE. ) );
#292 = PRODUCT_DEFINITION ( 'UNKNOWN', '', #105, #270 ) ;
#293 = LENGTH_MEASURE_WITH_UNIT ( LENGTH_MEASURE( 0.02539999999999999897 ), #184 );
#294 = VERTEX_POINT ( 'NONE', #160 ) ;
#295 =( NAMED_UNIT ( * ) SI_UNIT ( $, .STERADIAN. ) SOLID_ANGLE_UNIT ( ) );
#296 = ORIENTED_EDGE ( 'NONE', *, *, #306, .F. ) ;
#297 = ADVANCED_FACE ( 'NONE', ( #212 ), #33, .T. ) ;
#298 = AXIS2_PLACEMENT_3D ( 'NONE', #279, #152, #172 ) ;
#299 = PRESENTATION_LAYER_ASSIGNMENT (  '', '', ( #164 ) ) ;
#300 = CARTESIAN_POINT ( 'NONE',  ( -0.1875000000000000278, 1.499999999999999778, 0.000000000000000000 ) ) ;
#301 = EDGE_LOOP ( 'NONE', ( #241, #304, #271, #149 ) ) ;
#302 = DIRECTION ( 'NONE',  ( 0.000000000000000000, 0.000000000000000000, 1.000000000000000000 ) ) ;
#303 = UNCERTAINTY_MEASURE_WITH_UNIT (LENGTH_MEASURE( 1.000000000000000082E-05 ), #169, 'distance_accuracy_value', 'NONE');
#304 = ORIENTED_EDGE ( 'NONE', *, *, #306, .T. ) ;
#305 = COLOUR_RGB ( '',1.000000000000000000, 0.000000000000000000, 0.000000000000000000 ) ;
#306 = EDGE_CURVE ( 'NONE', #106, #23, #32, .T. ) ;
#307 = DIRECTION ( 'NONE',  ( -1.000000000000000000, 0.000000000000000000, 0.000000000000000000 ) ) ;
#308 = CARTESIAN_POINT ( 'NONE',  ( 7.582401355855259480E-33, 1.499999999999999778, 0.000000000000000000 ) ) ;
#309 = SURFACE_STYLE_USAGE ( .BOTH. , #197 ) ;
ENDSEC;
END-ISO-10303-21;
