ISO-10303-21;
HEADER;
FILE_DESCRIPTION (( 'STEP AP214' ),
    '1' );
FILE_NAME ('83774.STEP',
    '2023-07-05T19:24:54',
    ( '' ),
    ( '' ),
    'SwSTEP 2.0',
    'SolidWorks 2023',
    '' );
FILE_SCHEMA (( 'AUTOMOTIVE_DESIGN' ));
ENDSEC;

DATA;
#1 = FILL_AREA_STYLE_COLOUR ( '', #35 ) ;
#2 =( NAMED_UNIT ( * ) SI_UNIT ( $, .STERADIAN. ) SOLID_ANGLE_UNIT ( ) );
#3 = UNCERTAINTY_MEASURE_WITH_UNIT (LENGTH_MEASURE( 1.000000000000000082E-05 ), #37, 'distance_accuracy_value', 'NONE');
#4 = AXIS2_PLACEMENT_3D ( 'NONE', #50, #229, #105 ) ;
#5 = SURFACE_STYLE_USAGE ( .BOTH. , #34 ) ;
#6 = CIRCLE ( 'NONE', #271, 0.1250000000000000555 ) ;
#7 = DIMENSIONAL_EXPONENTS ( 1.000000000000000000, 0.000000000000000000, 0.000000000000000000, 0.000000000000000000, 0.000000000000000000, 0.000000000000000000, 0.000000000000000000 ) ;
#8 = CARTESIAN_POINT ( 'NONE',  ( 0.000000000000000000, 0.000000000000000000, 0.000000000000000000 ) ) ;
#9 = ORIENTED_EDGE ( 'NONE', *, *, #95, .T. ) ;
#10 =( LENGTH_UNIT ( ) NAMED_UNIT ( * ) SI_UNIT ( $, .METRE. ) );
#11 = ORIENTED_EDGE ( 'NONE', *, *, #74, .F. ) ;
#12 = PRODUCT_RELATED_PRODUCT_CATEGORY ( 'part', '', ( #131 ) ) ;
#13 = DIRECTION ( 'NONE',  ( 1.227993083434185205E-16, -1.000000000000000000, 0.000000000000000000 ) ) ;
#14 = ORIENTED_EDGE ( 'NONE', *, *, #265, .T. ) ;
#15 = CLOSED_SHELL ( 'NONE', ( #29, #300, #92, #219 ) ) ;
#16 =( NAMED_UNIT ( * ) SI_UNIT ( $, .STERADIAN. ) SOLID_ANGLE_UNIT ( ) );
#17 = CYLINDRICAL_SURFACE ( 'NONE', #287, 0.1249999999999999584 ) ;
#18 = AXIS2_PLACEMENT_3D ( 'NONE', #305, #304, #245 ) ;
#19 = LINE ( 'NONE', #294, #276 ) ;
#20 = EDGE_CURVE ( 'NONE', #43, #315, #270, .T. ) ;
#21 = DIRECTION ( 'NONE',  ( -1.000000000000000000, 0.000000000000000000, 0.000000000000000000 ) ) ;
#22 = PLANE ( 'NONE',  #125 ) ;
#23 = ORIENTED_EDGE ( 'NONE', *, *, #56, .T. ) ;
#24 = DIRECTION ( 'NONE',  ( -0.000000000000000000, -1.000000000000000000, -0.000000000000000000 ) ) ;
#25 = ORIENTED_EDGE ( 'NONE', *, *, #145, .F. ) ;
#26 = AXIS2_PLACEMENT_3D ( 'NONE', #126, #13, #338 ) ;
#27 = CARTESIAN_POINT ( 'NONE',  ( -6.123233995736766036E-17, 2.500000000000000000, 0.000000000000000000 ) ) ;
#28 = DIRECTION ( 'NONE',  ( -1.000000000000000000, 0.000000000000000000, 0.000000000000000000 ) ) ;
#29 = ADVANCED_FACE ( 'NONE', ( #169 ), #17, .T. ) ;
#30 = MECHANICAL_DESIGN_GEOMETRIC_PRESENTATION_REPRESENTATION (  '', ( #168 ), #335 ) ;
#31 = PRODUCT_DEFINITION ( 'UNKNOWN', '', #36, #119 ) ;
#32 = UNCERTAINTY_MEASURE_WITH_UNIT (LENGTH_MEASURE( 1.000000000000000082E-05 ), #188, 'distance_accuracy_value', 'NONE');
#33 = AXIS2_PLACEMENT_3D ( 'NONE', #347, #234, #21 ) ;
#34 = SURFACE_SIDE_STYLE ('',( #116 ) ) ;
#35 = COLOUR_RGB ( '',0.7921568627450980005, 0.8196078431372548767, 0.9333333333333333481 ) ;
#36 = PRODUCT_DEFINITION_FORMATION_WITH_SPECIFIED_SOURCE ( 'ANY', '', #131, .NOT_KNOWN. ) ;
#37 =( CONVERSION_BASED_UNIT ( 'INCH', #154 ) LENGTH_UNIT ( ) NAMED_UNIT ( #7 ) );
#38 =( NAMED_UNIT ( * ) SI_UNIT ( $, .STERADIAN. ) SOLID_ANGLE_UNIT ( ) );
#39 = PLANE ( 'NONE',  #26 ) ;
#40 = CIRCLE ( 'NONE', #151, 0.1249999999999998473 ) ;
#41 = DIRECTION ( 'NONE',  ( 0.000000000000000000, 0.000000000000000000, -1.000000000000000000 ) ) ;
#42 = FILL_AREA_STYLE ('',( #98 ) ) ;
#43 = VERTEX_POINT ( 'NONE', #297 ) ;
#44 = LENGTH_MEASURE_WITH_UNIT ( LENGTH_MEASURE( 0.02539999999999999897 ), #75 );
#45 = DIRECTION ( 'NONE',  ( -1.227993083434185205E-16, 1.000000000000000000, -0.000000000000000000 ) ) ;
#46 = DIRECTION ( 'NONE',  ( 1.060575238724908024E-16, 0.4999999999999979461, -0.8660254037844397068 ) ) ;
#47 = VERTEX_POINT ( 'NONE', #185 ) ;
#48 = FILL_AREA_STYLE ('',( #317 ) ) ;
#49 = FACE_OUTER_BOUND ( 'NONE', #67, .T. ) ;
#50 = CARTESIAN_POINT ( 'NONE',  ( 0.000000000000000000, 0.7500000000000001110, 0.000000000000000000 ) ) ;
#51 = STYLED_ITEM ( 'NONE', ( #261 ), #114 ) ;
#52 = SURFACE_STYLE_FILL_AREA ( #228 ) ;
#53 =( LENGTH_UNIT ( ) NAMED_UNIT ( * ) SI_UNIT ( $, .METRE. ) );
#54 = AXIS2_PLACEMENT_3D ( 'NONE', #138, #212, #58 ) ;
#55 = AXIS2_PLACEMENT_3D ( 'NONE', #339, #176, #104 ) ;
#56 = EDGE_CURVE ( 'NONE', #199, #315, #61, .T. ) ;
#57 = LENGTH_MEASURE_WITH_UNIT ( LENGTH_MEASURE( 0.02539999999999999897 ), #190 );
#58 = DIRECTION ( 'NONE',  ( 0.000000000000000000, 0.000000000000000000, 1.000000000000000000 ) ) ;
#59 = PRESENTATION_STYLE_ASSIGNMENT (( #87 ) ) ;
#60 = UNCERTAINTY_MEASURE_WITH_UNIT (LENGTH_MEASURE( 1.000000000000000082E-05 ), #243, 'distance_accuracy_value', 'NONE');
#61 = CIRCLE ( 'NONE', #113, 0.1250000000000000555 ) ;
#62 = DIMENSIONAL_EXPONENTS ( 1.000000000000000000, 0.000000000000000000, 0.000000000000000000, 0.000000000000000000, 0.000000000000000000, 0.000000000000000000, 0.000000000000000000 ) ;
#63 = COLOUR_RGB ( '',1.000000000000000000, 0.000000000000000000, 0.000000000000000000 ) ;
#64 =( GEOMETRIC_REPRESENTATION_CONTEXT ( 3 ) GLOBAL_UNCERTAINTY_ASSIGNED_CONTEXT ( ( #32 ) ) GLOBAL_UNIT_ASSIGNED_CONTEXT ( ( #188, #235, #140 ) ) REPRESENTATION_CONTEXT ( 'NONE', 'WORKASPACE' ) );
#65 = CARTESIAN_POINT ( 'NONE',  ( 0.000000000000000000, 0.7500000000000001110, 0.000000000000000000 ) ) ;
#66 = DIMENSIONAL_EXPONENTS ( 1.000000000000000000, 0.000000000000000000, 0.000000000000000000, 0.000000000000000000, 0.000000000000000000, 0.000000000000000000, 0.000000000000000000 ) ;
#67 = EDGE_LOOP ( 'NONE', ( #336, #73, #110, #252 ) ) ;
#68 = VECTOR ( 'NONE', #111, 39.37007874015748143 ) ;
#69 = DIRECTION ( 'NONE',  ( -0.000000000000000000, -1.000000000000000000, -0.000000000000000000 ) ) ;
#70 = ORIENTED_EDGE ( 'NONE', *, *, #201, .F. ) ;
#71 =( CONVERSION_BASED_UNIT ( 'INCH', #44 ) LENGTH_UNIT ( ) NAMED_UNIT ( #66 ) );
#72 = DIRECTION ( 'NONE',  ( -0.000000000000000000, -1.000000000000000000, -0.000000000000000000 ) ) ;
#73 = ORIENTED_EDGE ( 'NONE', *, *, #145, .T. ) ;
#74 = EDGE_CURVE ( 'NONE', #187, #43, #237, .T. ) ;
#75 =( LENGTH_UNIT ( ) NAMED_UNIT ( * ) SI_UNIT ( $, .METRE. ) );
#76 = PRESENTATION_LAYER_ASSIGNMENT (  '', '', ( #103 ) ) ;
#77 = CARTESIAN_POINT ( 'NONE',  ( -6.123233995736766036E-17, 2.500000000000000000, 0.000000000000000000 ) ) ;
#78 = DIRECTION ( 'NONE',  ( 0.000000000000000000, 0.000000000000000000, -1.000000000000000000 ) ) ;
#79 = VERTEX_POINT ( 'NONE', #295 ) ;
#80 = ADVANCED_BREP_SHAPE_REPRESENTATION ( '83774', ( #279, #155, #18 ), #108 ) ;
#81 = LENGTH_MEASURE_WITH_UNIT ( LENGTH_MEASURE( 0.02539999999999999897 ), #323 );
#82 = FILL_AREA_STYLE ('',( #324 ) ) ;
#83 = PRESENTATION_LAYER_ASSIGNMENT (  '', '', ( #51 ) ) ;
#84 = PRODUCT_DEFINITION_SHAPE ( 'NONE', 'NONE',  #31 ) ;
#85 = DIRECTION ( 'NONE',  ( -1.227993083434185205E-16, 1.000000000000000000, -0.000000000000000000 ) ) ;
#86 = CIRCLE ( 'NONE', #314, 0.1249999999999999861 ) ;
#87 = SURFACE_STYLE_USAGE ( .BOTH. , #198 ) ;
#88 = DIMENSIONAL_EXPONENTS ( 1.000000000000000000, 0.000000000000000000, 0.000000000000000000, 0.000000000000000000, 0.000000000000000000, 0.000000000000000000, 0.000000000000000000 ) ;
#89 = PRESENTATION_LAYER_ASSIGNMENT (  '', '', ( #144 ) ) ;
#90 = DIRECTION ( 'NONE',  ( -1.227993083434185205E-16, 1.000000000000000000, -0.000000000000000000 ) ) ;
#91 = DIRECTION ( 'NONE',  ( -1.227993083434185205E-16, 1.000000000000000000, -0.000000000000000000 ) ) ;
#92 = ADVANCED_FACE ( 'NONE', ( #49 ), #342, .T. ) ;
#93 = PRESENTATION_LAYER_ASSIGNMENT (  '', '', ( #351 ) ) ;
#94 = SURFACE_SIDE_STYLE ('',( #179 ) ) ;
#95 = EDGE_CURVE ( 'NONE', #47, #227, #137, .T. ) ;
#96 =( GEOMETRIC_REPRESENTATION_CONTEXT ( 3 ) GLOBAL_UNCERTAINTY_ASSIGNED_CONTEXT ( ( #278 ) ) GLOBAL_UNIT_ASSIGNED_CONTEXT ( ( #71, #160, #16 ) ) REPRESENTATION_CONTEXT ( 'NONE', 'WORKASPACE' ) );
#97 = ORIENTED_EDGE ( 'NONE', *, *, #20, .T. ) ;
#98 = FILL_AREA_STYLE_COLOUR ( '', #217 ) ;
#99 = LENGTH_MEASURE_WITH_UNIT ( LENGTH_MEASURE( 0.02539999999999999897 ), #253 );
#100 = VECTOR ( 'NONE', #46, 39.37007874015748854 ) ;
#101 = DIRECTION ( 'NONE',  ( 0.000000000000000000, 0.000000000000000000, -1.000000000000000000 ) ) ;
#102 = ORIENTED_EDGE ( 'NONE', *, *, #277, .F. ) ;
#103 = STYLED_ITEM ( 'NONE', ( #59 ), #155 ) ;
#104 = DIRECTION ( 'NONE',  ( 0.000000000000000000, 0.000000000000000000, 1.000000000000000000 ) ) ;
#105 = DIRECTION ( 'NONE',  ( 0.000000000000000000, 0.000000000000000000, -1.000000000000000000 ) ) ;
#106 = EDGE_CURVE ( 'NONE', #47, #311, #312, .T. ) ;
#107 = SURFACE_STYLE_USAGE ( .BOTH. , #345 ) ;
#108 =( GEOMETRIC_REPRESENTATION_CONTEXT ( 3 ) GLOBAL_UNCERTAINTY_ASSIGNED_CONTEXT ( ( #60 ) ) GLOBAL_UNIT_ASSIGNED_CONTEXT ( ( #243, #197, #171 ) ) REPRESENTATION_CONTEXT ( 'NONE', 'WORKASPACE' ) );
#109 = EDGE_LOOP ( 'NONE', ( #102, #152, #9, #182 ) ) ;
#110 = ORIENTED_EDGE ( 'NONE', *, *, #343, .T. ) ;
#111 = DIRECTION ( 'NONE',  ( -0.000000000000000000, -1.000000000000000000, -0.000000000000000000 ) ) ;
#112 =( GEOMETRIC_REPRESENTATION_CONTEXT ( 3 ) GLOBAL_UNCERTAINTY_ASSIGNED_CONTEXT ( ( #307 ) ) GLOBAL_UNIT_ASSIGNED_CONTEXT ( ( #165, #193, #2 ) ) REPRESENTATION_CONTEXT ( 'NONE', 'WORKASPACE' ) );
#113 = AXIS2_PLACEMENT_3D ( 'NONE', #77, #45, #139 ) ;
#114 = ADVANCED_FACE ( 'NONE', ( #349 ), #213, .T. ) ;
#115 = CONICAL_SURFACE ( 'NONE', #54, 68.19097667594041923, 1.047197551196600074 ) ;
#116 = SURFACE_STYLE_FILL_AREA ( #274 ) ;
#117 = VECTOR ( 'NONE', #85, 39.37007874015748143 ) ;
#118 = LENGTH_MEASURE_WITH_UNIT ( LENGTH_MEASURE( 0.02539999999999999897 ), #248 );
#119 = PRODUCT_DEFINITION_CONTEXT ( 'detailed design', #344, 'design' ) ;
#120 =( NAMED_UNIT ( * ) PLANE_ANGLE_UNIT ( ) SI_UNIT ( $, .RADIAN. ) );
#121 = DIMENSIONAL_EXPONENTS ( 1.000000000000000000, 0.000000000000000000, 0.000000000000000000, 0.000000000000000000, 0.000000000000000000, 0.000000000000000000, 0.000000000000000000 ) ;
#122 = SURFACE_STYLE_USAGE ( .BOTH. , #94 ) ;
#123 = ORIENTED_EDGE ( 'NONE', *, *, #106, .F. ) ;
#124 = EDGE_LOOP ( 'NONE', ( #11, #25 ) ) ;
#125 = AXIS2_PLACEMENT_3D ( 'NONE', #269, #186, #341 ) ;
#126 = CARTESIAN_POINT ( 'NONE',  ( 0.1250000000000000000, 2.500000000000000000, 0.000000000000000000 ) ) ;
#127 = DIRECTION ( 'NONE',  ( -0.000000000000000000, -1.000000000000000000, -0.000000000000000000 ) ) ;
#128 = ORIENTED_EDGE ( 'NONE', *, *, #319, .T. ) ;
#129 = STYLED_ITEM ( 'NONE', ( #209 ), #279 ) ;
#130 = SURFACE_STYLE_USAGE ( .BOTH. , #167 ) ;
#131 = PRODUCT ( '83774', '83774', '', ( #173 ) ) ;
#132 = DIRECTION ( 'NONE',  ( -1.227993083434185205E-16, 1.000000000000000000, -0.000000000000000000 ) ) ;
#133 = ADVANCED_FACE ( 'NONE', ( #332 ), #330, .T. ) ;
#134 = DIRECTION ( 'NONE',  ( -1.000000000000000000, 0.000000000000000000, 0.000000000000000000 ) ) ;
#135 = FACE_OUTER_BOUND ( 'NONE', #210, .T. ) ;
#136 = CIRCLE ( 'NONE', #177, 0.1250000000000000000 ) ;
#137 = LINE ( 'NONE', #350, #68 ) ;
#138 = CARTESIAN_POINT ( 'NONE',  ( 0.000000000000000000, 39.37007874015748143, 0.000000000000000000 ) ) ;
#139 = DIRECTION ( 'NONE',  ( -1.000000000000000000, 0.000000000000000000, 0.000000000000000000 ) ) ;
#140 =( NAMED_UNIT ( * ) SI_UNIT ( $, .STERADIAN. ) SOLID_ANGLE_UNIT ( ) );
#141 = FILL_AREA_STYLE_COLOUR ( '', #158 ) ;
#142 = APPLICATION_PROTOCOL_DEFINITION ( 'draft international standard', 'automotive_design', 1998, #267 ) ;
#143 =( LENGTH_UNIT ( ) NAMED_UNIT ( * ) SI_UNIT ( $, .METRE. ) );
#144 = STYLED_ITEM ( 'NONE', ( #250 ), #181 ) ;
#145 = EDGE_CURVE ( 'NONE', #43, #187, #40, .T. ) ;
#146 =( NAMED_UNIT ( * ) SI_UNIT ( $, .STERADIAN. ) SOLID_ANGLE_UNIT ( ) );
#147 = LINE ( 'NONE', #273, #223 ) ;
#148 = DIRECTION ( 'NONE',  ( 0.000000000000000000, 1.000000000000000000, 0.000000000000000000 ) ) ;
#149 = CARTESIAN_POINT ( 'NONE',  ( 1.536664496436147691E-16, 0.7499999999999998890, 0.000000000000000000 ) ) ;
#150 = VECTOR ( 'NONE', #258, 39.37007874015748854 ) ;
#151 = AXIS2_PLACEMENT_3D ( 'NONE', #149, #91, #28 ) ;
#152 = ORIENTED_EDGE ( 'NONE', *, *, #208, .T. ) ;
#153 = CARTESIAN_POINT ( 'NONE',  ( 0.000000000000000000, 0.07216878364870282780, -0.1249999999999999861 ) ) ;
#154 = LENGTH_MEASURE_WITH_UNIT ( LENGTH_MEASURE( 0.02539999999999999897 ), #10 );
#155 = MANIFOLD_SOLID_BREP ( 'Revolve - Tool Body (Straight Shanked)', #15 ) ;
#156 =( CONVERSION_BASED_UNIT ( 'INCH', #99 ) LENGTH_UNIT ( ) NAMED_UNIT ( #121 ) );
#157 = EDGE_LOOP ( 'NONE', ( #123, #322 ) ) ;
#158 = COLOUR_RGB ( '',1.000000000000000000, 0.000000000000000000, 0.000000000000000000 ) ;
#159 = MECHANICAL_DESIGN_GEOMETRIC_PRESENTATION_REPRESENTATION (  '', ( #351 ), #302 ) ;
#160 =( NAMED_UNIT ( * ) PLANE_ANGLE_UNIT ( ) SI_UNIT ( $, .RADIAN. ) );
#161 = SURFACE_STYLE_USAGE ( .BOTH. , #189 ) ;
#162 = PRESENTATION_LAYER_ASSIGNMENT (  '', '', ( #262 ) ) ;
#163 = CARTESIAN_POINT ( 'NONE',  ( 1.530808498934191509E-17, 0.7500000000000001110, 0.1250000000000000000 ) ) ;
#164 = ORIENTED_EDGE ( 'NONE', *, *, #201, .T. ) ;
#165 =( CONVERSION_BASED_UNIT ( 'INCH', #207 ) LENGTH_UNIT ( ) NAMED_UNIT ( #88 ) );
#166 = CARTESIAN_POINT ( 'NONE',  ( 0.1249999999999999029, 2.500000000000000000, 1.530808498934191201E-17 ) ) ;
#167 = SURFACE_SIDE_STYLE ('',( #230 ) ) ;
#168 = STYLED_ITEM ( 'NONE', ( #288 ), #239 ) ;
#169 = FACE_OUTER_BOUND ( 'NONE', #180, .T. ) ;
#170 = SURFACE_STYLE_FILL_AREA ( #172 ) ;
#171 =( NAMED_UNIT ( * ) SI_UNIT ( $, .STERADIAN. ) SOLID_ANGLE_UNIT ( ) );
#172 = FILL_AREA_STYLE ('',( #1 ) ) ;
#173 = PRODUCT_CONTEXT ( 'NONE', #267, 'mechanical' ) ;
#174 = CARTESIAN_POINT ( 'NONE',  ( 0.000000000000000000, 0.000000000000000000, 0.000000000000000000 ) ) ;
#175 = UNCERTAINTY_MEASURE_WITH_UNIT (LENGTH_MEASURE( 1.000000000000000082E-05 ), #280, 'distance_accuracy_value', 'NONE');
#176 = DIRECTION ( 'NONE',  ( 0.000000000000000000, 1.000000000000000000, 0.000000000000000000 ) ) ;
#177 = AXIS2_PLACEMENT_3D ( 'NONE', #65, #127, #41 ) ;
#178 = FACE_OUTER_BOUND ( 'NONE', #334, .T. ) ;
#179 = SURFACE_STYLE_FILL_AREA ( #256 ) ;
#180 = EDGE_LOOP ( 'NONE', ( #318, #97, #286, #320 ) ) ;
#181 = ADVANCED_FACE ( 'NONE', ( #246 ), #327, .T. ) ;
#182 = ORIENTED_EDGE ( 'NONE', *, *, #254, .F. ) ;
#183 = COLOUR_RGB ( '',0.7921568627450980005, 0.8196078431372548767, 0.9333333333333333481 ) ;
#184 = FACE_OUTER_BOUND ( 'NONE', #124, .T. ) ;
#185 = CARTESIAN_POINT ( 'NONE',  ( 0.000000000000000000, 0.7500000000000001110, -0.1250000000000000000 ) ) ;
#186 = DIRECTION ( 'NONE',  ( -1.227993083434185205E-16, 1.000000000000000000, 0.000000000000000000 ) ) ;
#187 = VERTEX_POINT ( 'NONE', #225 ) ;
#188 =( CONVERSION_BASED_UNIT ( 'INCH', #81 ) LENGTH_UNIT ( ) NAMED_UNIT ( #251 ) );
#189 = SURFACE_SIDE_STYLE ('',( #192 ) ) ;
#190 =( LENGTH_UNIT ( ) NAMED_UNIT ( * ) SI_UNIT ( $, .METRE. ) );
#191 = CIRCLE ( 'NONE', #214, 0.1249999999999999861 ) ;
#192 = SURFACE_STYLE_FILL_AREA ( #82 ) ;
#193 =( NAMED_UNIT ( * ) PLANE_ANGLE_UNIT ( ) SI_UNIT ( $, .RADIAN. ) );
#194 = APPLICATION_PROTOCOL_DEFINITION ( 'draft international standard', 'automotive_design', 1998, #344 ) ;
#195 = DIMENSIONAL_EXPONENTS ( 1.000000000000000000, 0.000000000000000000, 0.000000000000000000, 0.000000000000000000, 0.000000000000000000, 0.000000000000000000, 0.000000000000000000 ) ;
#196 =( NAMED_UNIT ( * ) SI_UNIT ( $, .STERADIAN. ) SOLID_ANGLE_UNIT ( ) );
#197 =( NAMED_UNIT ( * ) PLANE_ANGLE_UNIT ( ) SI_UNIT ( $, .RADIAN. ) );
#198 = SURFACE_SIDE_STYLE ('',( #170 ) ) ;
#199 = VERTEX_POINT ( 'NONE', #337 ) ;
#200 = MECHANICAL_DESIGN_GEOMETRIC_PRESENTATION_REPRESENTATION (  '', ( #103 ), #222 ) ;
#201 = EDGE_CURVE ( 'NONE', #79, #325, #226, .T. ) ;
#202 = SURFACE_SIDE_STYLE ('',( #284 ) ) ;
#203 = COLOUR_RGB ( '',1.000000000000000000, 0.000000000000000000, 0.000000000000000000 ) ;
#204 = PRESENTATION_LAYER_ASSIGNMENT (  '', '', ( #168 ) ) ;
#205 = EDGE_LOOP ( 'NONE', ( #257, #164, #231 ) ) ;
#206 = CARTESIAN_POINT ( 'NONE',  ( 0.000000000000000000, 0.07216878364870282780, 0.000000000000000000 ) ) ;
#207 = LENGTH_MEASURE_WITH_UNIT ( LENGTH_MEASURE( 0.02539999999999999897 ), #53 );
#208 = EDGE_CURVE ( 'NONE', #311, #47, #136, .T. ) ;
#209 = PRESENTATION_STYLE_ASSIGNMENT (( #130 ) ) ;
#210 = EDGE_LOOP ( 'NONE', ( #70, #14, #128 ) ) ;
#211 = DIRECTION ( 'NONE',  ( -1.000000000000000000, 0.000000000000000000, 0.000000000000000000 ) ) ;
#212 = DIRECTION ( 'NONE',  ( 0.000000000000000000, 1.000000000000000000, 0.000000000000000000 ) ) ;
#213 = PLANE ( 'NONE',  #308 ) ;
#214 = AXIS2_PLACEMENT_3D ( 'NONE', #263, #24, #101 ) ;
#215 = DIRECTION ( 'NONE',  ( 0.000000000000000000, -0.000000000000000000, 1.000000000000000000 ) ) ;
#216 = UNCERTAINTY_MEASURE_WITH_UNIT (LENGTH_MEASURE( 1.000000000000000082E-05 ), #156, 'distance_accuracy_value', 'NONE');
#217 = COLOUR_RGB ( '',1.000000000000000000, 0.000000000000000000, 0.000000000000000000 ) ;
#218 = DIRECTION ( 'NONE',  ( 0.000000000000000000, 0.000000000000000000, -1.000000000000000000 ) ) ;
#219 = ADVANCED_FACE ( 'NONE', ( #178 ), #39, .F. ) ;
#220 = SURFACE_STYLE_USAGE ( .BOTH. , #202 ) ;
#221 = EDGE_LOOP ( 'NONE', ( #264, #290, #260, #255 ) ) ;
#222 =( GEOMETRIC_REPRESENTATION_CONTEXT ( 3 ) GLOBAL_UNCERTAINTY_ASSIGNED_CONTEXT ( ( #175 ) ) GLOBAL_UNIT_ASSIGNED_CONTEXT ( ( #280, #303, #146 ) ) REPRESENTATION_CONTEXT ( 'NONE', 'WORKASPACE' ) );
#223 = VECTOR ( 'NONE', #90, 39.37007874015748143 ) ;
#224 = DIRECTION ( 'NONE',  ( 0.000000000000000000, 0.000000000000000000, -1.000000000000000000 ) ) ;
#225 = CARTESIAN_POINT ( 'NONE',  ( -0.1249999999999996947, 0.7499999999999998890, 0.000000000000000000 ) ) ;
#226 = LINE ( 'NONE', #8, #150 ) ;
#227 = VERTEX_POINT ( 'NONE', #153 ) ;
#228 = FILL_AREA_STYLE ('',( #233 ) ) ;
#229 = DIRECTION ( 'NONE',  ( -0.000000000000000000, -1.000000000000000000, -0.000000000000000000 ) ) ;
#230 = SURFACE_STYLE_FILL_AREA ( #48 ) ;
#231 = ORIENTED_EDGE ( 'NONE', *, *, #254, .T. ) ;
#232 =( GEOMETRIC_REPRESENTATION_CONTEXT ( 3 ) GLOBAL_UNCERTAINTY_ASSIGNED_CONTEXT ( ( #3 ) ) GLOBAL_UNIT_ASSIGNED_CONTEXT ( ( #37, #285, #38 ) ) REPRESENTATION_CONTEXT ( 'NONE', 'WORKASPACE' ) );
#233 = FILL_AREA_STYLE_COLOUR ( '', #63 ) ;
#234 = DIRECTION ( 'NONE',  ( -1.227993083434185205E-16, 1.000000000000000000, -0.000000000000000000 ) ) ;
#235 =( NAMED_UNIT ( * ) PLANE_ANGLE_UNIT ( ) SI_UNIT ( $, .RADIAN. ) );
#236 = DIRECTION ( 'NONE',  ( -1.000000000000000000, 0.000000000000000000, 0.000000000000000000 ) ) ;
#237 = CIRCLE ( 'NONE', #33, 0.1249999999999998473 ) ;
#238 =( CONVERSION_BASED_UNIT ( 'INCH', #281 ) LENGTH_UNIT ( ) NAMED_UNIT ( #195 ) );
#239 = ADVANCED_FACE ( 'NONE', ( #259 ), #249, .T. ) ;
#240 = SHAPE_DEFINITION_REPRESENTATION ( #84, #80 ) ;
#241 = PRESENTATION_LAYER_ASSIGNMENT (  '', '', ( #129 ) ) ;
#242 = EDGE_CURVE ( 'NONE', #315, #199, #6, .T. ) ;
#243 =( CONVERSION_BASED_UNIT ( 'INCH', #57 ) LENGTH_UNIT ( ) NAMED_UNIT ( #62 ) );
#244 = CARTESIAN_POINT ( 'NONE',  ( 0.000000000000000000, 0.7500000000000001110, 0.000000000000000000 ) ) ;
#245 = DIRECTION ( 'NONE',  ( 1.000000000000000000, 0.000000000000000000, 0.000000000000000000 ) ) ;
#246 = FACE_OUTER_BOUND ( 'NONE', #221, .T. ) ;
#247 = UNCERTAINTY_MEASURE_WITH_UNIT (LENGTH_MEASURE( 1.000000000000000082E-05 ), #238, 'distance_accuracy_value', 'NONE');
#248 =( LENGTH_UNIT ( ) NAMED_UNIT ( * ) SI_UNIT ( $, .METRE. ) );
#249 = CONICAL_SURFACE ( 'NONE', #55, 68.19097667594041923, 1.047197551196600074 ) ;
#250 = PRESENTATION_STYLE_ASSIGNMENT (( #122 ) ) ;
#251 = DIMENSIONAL_EXPONENTS ( 1.000000000000000000, 0.000000000000000000, 0.000000000000000000, 0.000000000000000000, 0.000000000000000000, 0.000000000000000000, 0.000000000000000000 ) ;
#252 = ORIENTED_EDGE ( 'NONE', *, *, #242, .F. ) ;
#253 =( LENGTH_UNIT ( ) NAMED_UNIT ( * ) SI_UNIT ( $, .METRE. ) );
#254 = EDGE_CURVE ( 'NONE', #325, #227, #86, .T. ) ;
#255 = ORIENTED_EDGE ( 'NONE', *, *, #95, .F. ) ;
#256 = FILL_AREA_STYLE ('',( #333 ) ) ;
#257 = ORIENTED_EDGE ( 'NONE', *, *, #265, .F. ) ;
#258 = DIRECTION ( 'NONE',  ( 0.000000000000000000, 0.4999999999999979461, 0.8660254037844397068 ) ) ;
#259 = FACE_OUTER_BOUND ( 'NONE', #205, .T. ) ;
#260 = ORIENTED_EDGE ( 'NONE', *, *, #319, .F. ) ;
#261 = PRESENTATION_STYLE_ASSIGNMENT (( #161 ) ) ;
#262 = STYLED_ITEM ( 'NONE', ( #348 ), #328 ) ;
#263 = CARTESIAN_POINT ( 'NONE',  ( 0.000000000000000000, 0.07216878364870282780, 0.000000000000000000 ) ) ;
#264 = ORIENTED_EDGE ( 'NONE', *, *, #106, .T. ) ;
#265 = EDGE_CURVE ( 'NONE', #79, #227, #321, .T. ) ;
#266 = DIRECTION ( 'NONE',  ( -1.227993083434185205E-16, 1.000000000000000000, -0.000000000000000000 ) ) ;
#267 = APPLICATION_CONTEXT ( 'automotive_design' ) ;
#268 = AXIS2_PLACEMENT_3D ( 'NONE', #27, #132, #236 ) ;
#269 = CARTESIAN_POINT ( 'NONE',  ( 1.536664496436148184E-16, 0.7500000000000001110, 0.000000000000000000 ) ) ;
#270 = LINE ( 'NONE', #166, #117 ) ;
#271 = AXIS2_PLACEMENT_3D ( 'NONE', #316, #266, #134 ) ;
#272 = CARTESIAN_POINT ( 'NONE',  ( -6.123233995736766036E-17, 2.500000000000000000, 0.000000000000000000 ) ) ;
#273 = CARTESIAN_POINT ( 'NONE',  ( -0.1250000000000000278, 2.500000000000000000, 0.000000000000000000 ) ) ;
#274 = FILL_AREA_STYLE ('',( #141 ) ) ;
#275 = PRESENTATION_STYLE_ASSIGNMENT (( #5 ) ) ;
#276 = VECTOR ( 'NONE', #72, 39.37007874015748143 ) ;
#277 = EDGE_CURVE ( 'NONE', #311, #325, #19, .T. ) ;
#278 = UNCERTAINTY_MEASURE_WITH_UNIT (LENGTH_MEASURE( 1.000000000000000082E-05 ), #71, 'distance_accuracy_value', 'NONE');
#279 = MANIFOLD_SOLID_BREP ( 'Revolve - Cutting Edge', #329 ) ;
#280 =( CONVERSION_BASED_UNIT ( 'INCH', #118 ) LENGTH_UNIT ( ) NAMED_UNIT ( #283 ) );
#281 = LENGTH_MEASURE_WITH_UNIT ( LENGTH_MEASURE( 0.02539999999999999897 ), #143 );
#282 = MECHANICAL_DESIGN_GEOMETRIC_PRESENTATION_REPRESENTATION (  '', ( #51 ), #112 ) ;
#283 = DIMENSIONAL_EXPONENTS ( 1.000000000000000000, 0.000000000000000000, 0.000000000000000000, 0.000000000000000000, 0.000000000000000000, 0.000000000000000000, 0.000000000000000000 ) ;
#284 = SURFACE_STYLE_FILL_AREA ( #42 ) ;
#285 =( NAMED_UNIT ( * ) PLANE_ANGLE_UNIT ( ) SI_UNIT ( $, .RADIAN. ) );
#286 = ORIENTED_EDGE ( 'NONE', *, *, #56, .F. ) ;
#287 = AXIS2_PLACEMENT_3D ( 'NONE', #272, #299, #211 ) ;
#288 = PRESENTATION_STYLE_ASSIGNMENT (( #220 ) ) ;
#289 = MECHANICAL_DESIGN_GEOMETRIC_PRESENTATION_REPRESENTATION (  '', ( #144 ), #232 ) ;
#290 = ORIENTED_EDGE ( 'NONE', *, *, #277, .T. ) ;
#291 = DIRECTION ( 'NONE',  ( -0.000000000000000000, -1.000000000000000000, -0.000000000000000000 ) ) ;
#292 = ORIENTED_EDGE ( 'NONE', *, *, #242, .T. ) ;
#293 = MECHANICAL_DESIGN_GEOMETRIC_PRESENTATION_REPRESENTATION (  '', ( #262 ), #64 ) ;
#294 = CARTESIAN_POINT ( 'NONE',  ( 1.530808498934191509E-17, 0.000000000000000000, 0.1250000000000000000 ) ) ;
#295 = CARTESIAN_POINT ( 'NONE',  ( 0.000000000000000000, 0.000000000000000000, 0.000000000000000000 ) ) ;
#296 = CARTESIAN_POINT ( 'NONE',  ( 0.1250000000000000000, 2.500000000000000000, 1.530808498934191817E-17 ) ) ;
#297 = CARTESIAN_POINT ( 'NONE',  ( 0.1250000000000000000, 0.7499999999999998890, 1.530808498934191817E-17 ) ) ;
#298 = CARTESIAN_POINT ( 'NONE',  ( 1.530808498934191201E-17, 0.07216878364870282780, 0.1249999999999999861 ) ) ;
#299 = DIRECTION ( 'NONE',  ( -1.227993083434185205E-16, 1.000000000000000000, -0.000000000000000000 ) ) ;
#300 = ADVANCED_FACE ( 'NONE', ( #184 ), #22, .F. ) ;
#301 = COLOUR_RGB ( '',1.000000000000000000, 0.000000000000000000, 0.000000000000000000 ) ;
#302 =( GEOMETRIC_REPRESENTATION_CONTEXT ( 3 ) GLOBAL_UNCERTAINTY_ASSIGNED_CONTEXT ( ( #247 ) ) GLOBAL_UNIT_ASSIGNED_CONTEXT ( ( #238, #120, #196 ) ) REPRESENTATION_CONTEXT ( 'NONE', 'WORKASPACE' ) );
#303 =( NAMED_UNIT ( * ) PLANE_ANGLE_UNIT ( ) SI_UNIT ( $, .RADIAN. ) );
#304 = DIRECTION ( 'NONE',  ( 0.000000000000000000, 0.000000000000000000, 1.000000000000000000 ) ) ;
#305 = CARTESIAN_POINT ( 'NONE',  ( 0.000000000000000000, 0.000000000000000000, 0.000000000000000000 ) ) ;
#306 = DIRECTION ( 'NONE',  ( -0.000000000000000000, -1.000000000000000000, -0.000000000000000000 ) ) ;
#307 = UNCERTAINTY_MEASURE_WITH_UNIT (LENGTH_MEASURE( 1.000000000000000082E-05 ), #165, 'distance_accuracy_value', 'NONE');
#308 = AXIS2_PLACEMENT_3D ( 'NONE', #244, #148, #215 ) ;
#309 = CARTESIAN_POINT ( 'NONE',  ( 0.000000000000000000, 0.000000000000000000, 0.000000000000000000 ) ) ;
#310 =( NAMED_UNIT ( * ) SI_UNIT ( $, .STERADIAN. ) SOLID_ANGLE_UNIT ( ) );
#311 = VERTEX_POINT ( 'NONE', #163 ) ;
#312 = CIRCLE ( 'NONE', #4, 0.1250000000000000000 ) ;
#313 =( NAMED_UNIT ( * ) PLANE_ANGLE_UNIT ( ) SI_UNIT ( $, .RADIAN. ) );
#314 = AXIS2_PLACEMENT_3D ( 'NONE', #206, #291, #78 ) ;
#315 = VERTEX_POINT ( 'NONE', #296 ) ;
#316 = CARTESIAN_POINT ( 'NONE',  ( -6.123233995736766036E-17, 2.500000000000000000, 0.000000000000000000 ) ) ;
#317 = FILL_AREA_STYLE_COLOUR ( '', #183 ) ;
#318 = ORIENTED_EDGE ( 'NONE', *, *, #74, .T. ) ;
#319 = EDGE_CURVE ( 'NONE', #227, #325, #191, .T. ) ;
#320 = ORIENTED_EDGE ( 'NONE', *, *, #343, .F. ) ;
#321 = LINE ( 'NONE', #346, #100 ) ;
#322 = ORIENTED_EDGE ( 'NONE', *, *, #208, .F. ) ;
#323 =( LENGTH_UNIT ( ) NAMED_UNIT ( * ) SI_UNIT ( $, .METRE. ) );
#324 = FILL_AREA_STYLE_COLOUR ( '', #203 ) ;
#325 = VERTEX_POINT ( 'NONE', #298 ) ;
#326 = MECHANICAL_DESIGN_GEOMETRIC_PRESENTATION_REPRESENTATION (  '', ( #129 ), #96 ) ;
#327 = CYLINDRICAL_SURFACE ( 'NONE', #331, 0.1250000000000000000 ) ;
#328 = ADVANCED_FACE ( 'NONE', ( #135 ), #115, .T. ) ;
#329 = CLOSED_SHELL ( 'NONE', ( #328, #181, #114, #133, #239 ) ) ;
#330 = CYLINDRICAL_SURFACE ( 'NONE', #340, 0.1250000000000000000 ) ;
#331 = AXIS2_PLACEMENT_3D ( 'NONE', #309, #69, #224 ) ;
#332 = FACE_OUTER_BOUND ( 'NONE', #109, .T. ) ;
#333 = FILL_AREA_STYLE_COLOUR ( '', #301 ) ;
#334 = EDGE_LOOP ( 'NONE', ( #23, #292 ) ) ;
#335 =( GEOMETRIC_REPRESENTATION_CONTEXT ( 3 ) GLOBAL_UNCERTAINTY_ASSIGNED_CONTEXT ( ( #216 ) ) GLOBAL_UNIT_ASSIGNED_CONTEXT ( ( #156, #313, #310 ) ) REPRESENTATION_CONTEXT ( 'NONE', 'WORKASPACE' ) );
#336 = ORIENTED_EDGE ( 'NONE', *, *, #20, .F. ) ;
#337 = CARTESIAN_POINT ( 'NONE',  ( -0.1250000000000001388, 2.500000000000000000, 0.000000000000000000 ) ) ;
#338 = DIRECTION ( 'NONE',  ( 1.000000000000000000, 1.227993083434185205E-16, 0.000000000000000000 ) ) ;
#339 = CARTESIAN_POINT ( 'NONE',  ( 0.000000000000000000, 39.37007874015748143, 0.000000000000000000 ) ) ;
#340 = AXIS2_PLACEMENT_3D ( 'NONE', #174, #306, #218 ) ;
#341 = DIRECTION ( 'NONE',  ( -1.000000000000000000, -1.227993083434185205E-16, 0.000000000000000000 ) ) ;
#342 = CYLINDRICAL_SURFACE ( 'NONE', #268, 0.1249999999999999584 ) ;
#343 = EDGE_CURVE ( 'NONE', #187, #199, #147, .T. ) ;
#344 = APPLICATION_CONTEXT ( 'automotive_design' ) ;
#345 = SURFACE_SIDE_STYLE ('',( #52 ) ) ;
#346 = CARTESIAN_POINT ( 'NONE',  ( 0.000000000000000000, 0.000000000000000000, 0.000000000000000000 ) ) ;
#347 = CARTESIAN_POINT ( 'NONE',  ( 1.536664496436147691E-16, 0.7499999999999998890, 0.000000000000000000 ) ) ;
#348 = PRESENTATION_STYLE_ASSIGNMENT (( #107 ) ) ;
#349 = FACE_OUTER_BOUND ( 'NONE', #157, .T. ) ;
#350 = CARTESIAN_POINT ( 'NONE',  ( 0.000000000000000000, 0.000000000000000000, -0.1250000000000000000 ) ) ;
#351 = STYLED_ITEM ( 'NONE', ( #275 ), #133 ) ;
ENDSEC;
END-ISO-10303-21;
