ISO-10303-21;
HEADER;
FILE_DESCRIPTION (( 'STEP AP214' ),
    '1' );
FILE_NAME ('56742.STEP',
    '2023-06-30T22:14:04',
    ( '' ),
    ( '' ),
    'SwSTEP 2.0',
    'SolidWorks 2023',
    '' );
FILE_SCHEMA (( 'AUTOMOTIVE_DESIGN' ));
ENDSEC;

DATA;
#1 = DIRECTION ( 'NONE',  ( -0.000000000000000000, -1.000000000000000000, -0.000000000000000000 ) ) ;
#2 =( NAMED_UNIT ( * ) SI_UNIT ( $, .STERADIAN. ) SOLID_ANGLE_UNIT ( ) );
#3 = AXIS2_PLACEMENT_3D ( 'NONE', #226, #19, #82 ) ;
#4 = COLOUR_RGB ( '',0.7921568627450980005, 0.8196078431372548767, 0.9333333333333333481 ) ;
#5 = DIRECTION ( 'NONE',  ( -1.224646799147353700E-16, 1.000000000000000000, -0.000000000000000000 ) ) ;
#6 = CYLINDRICAL_SURFACE ( 'NONE', #26, 0.4999999999999997780 ) ;
#7 = FACE_OUTER_BOUND ( 'NONE', #316, .T. ) ;
#8 = CARTESIAN_POINT ( 'NONE',  ( -6.123233995736766036E-17, 0.5000000000000000000, 0.000000000000000000 ) ) ;
#9 = FILL_AREA_STYLE ('',( #14 ) ) ;
#10 = CLOSED_SHELL ( 'NONE', ( #175, #121, #283, #321 ) ) ;
#11 = DIRECTION ( 'NONE',  ( 1.224646799147353207E-16, -0.000000000000000000, 1.000000000000000000 ) ) ;
#12 = AXIS2_PLACEMENT_3D ( 'NONE', #301, #274, #35 ) ;
#13 = DIRECTION ( 'NONE',  ( -1.224646799147353700E-16, 1.000000000000000000, 0.000000000000000000 ) ) ;
#14 = FILL_AREA_STYLE_COLOUR ( '', #42 ) ;
#15 = DIRECTION ( 'NONE',  ( 1.224646799147353700E-16, -1.000000000000000000, 0.000000000000000000 ) ) ;
#16 = FACE_OUTER_BOUND ( 'NONE', #143, .T. ) ;
#17 = ORIENTED_EDGE ( 'NONE', *, *, #140, .F. ) ;
#18 = VERTEX_POINT ( 'NONE', #167 ) ;
#19 = DIRECTION ( 'NONE',  ( -0.000000000000000000, -1.000000000000000000, -0.000000000000000000 ) ) ;
#20 = CARTESIAN_POINT ( 'NONE',  ( -3.061616997868383018E-17, 0.000000000000000000, 0.000000000000000000 ) ) ;
#21 = SURFACE_STYLE_FILL_AREA ( #45 ) ;
#22 = ORIENTED_EDGE ( 'NONE', *, *, #154, .F. ) ;
#23 = ORIENTED_EDGE ( 'NONE', *, *, #330, .F. ) ;
#24 = ORIENTED_EDGE ( 'NONE', *, *, #240, .T. ) ;
#25 = EDGE_CURVE ( 'NONE', #286, #363, #294, .T. ) ;
#26 = AXIS2_PLACEMENT_3D ( 'NONE', #61, #1, #181 ) ;
#27 =( GEOMETRIC_REPRESENTATION_CONTEXT ( 3 ) GLOBAL_UNCERTAINTY_ASSIGNED_CONTEXT ( ( #370 ) ) GLOBAL_UNIT_ASSIGNED_CONTEXT ( ( #70, #34, #68 ) ) REPRESENTATION_CONTEXT ( 'NONE', 'WORKASPACE' ) );
#28 =( NAMED_UNIT ( * ) PLANE_ANGLE_UNIT ( ) SI_UNIT ( $, .RADIAN. ) );
#29 = DIRECTION ( 'NONE',  ( 0.000000000000000000, 0.000000000000000000, -1.000000000000000000 ) ) ;
#30 = CARTESIAN_POINT ( 'NONE',  ( 0.000000000000000000, 3.000000000000000444, 0.000000000000000000 ) ) ;
#31 = DIRECTION ( 'NONE',  ( -1.000000000000000000, -1.224646799147353700E-16, 0.000000000000000000 ) ) ;
#32 = COLOUR_RGB ( '',1.000000000000000000, 0.000000000000000000, 0.000000000000000000 ) ;
#33 = AXIS2_PLACEMENT_3D ( 'NONE', #298, #242, #156 ) ;
#34 =( NAMED_UNIT ( * ) PLANE_ANGLE_UNIT ( ) SI_UNIT ( $, .RADIAN. ) );
#35 = DIRECTION ( 'NONE',  ( 1.000000000000000000, 0.000000000000000000, 0.000000000000000000 ) ) ;
#36 = PRODUCT_DEFINITION ( 'UNKNOWN', '', #184, #225 ) ;
#37 = DIMENSIONAL_EXPONENTS ( 1.000000000000000000, 0.000000000000000000, 0.000000000000000000, 0.000000000000000000, 0.000000000000000000, 0.000000000000000000, 0.000000000000000000 ) ;
#38 = CARTESIAN_POINT ( 'NONE',  ( 2.449293598294706414E-16, 3.000000000000000444, 0.000000000000000000 ) ) ;
#39 = CARTESIAN_POINT ( 'NONE',  ( 0.000000000000000000, 3.000000000000000444, -0.4999999999999996114 ) ) ;
#40 = DIMENSIONAL_EXPONENTS ( 1.000000000000000000, 0.000000000000000000, 0.000000000000000000, 0.000000000000000000, 0.000000000000000000, 0.000000000000000000, 0.000000000000000000 ) ;
#41 = SHAPE_DEFINITION_REPRESENTATION ( #373, #95 ) ;
#42 = COLOUR_RGB ( '',1.000000000000000000, 0.000000000000000000, 0.000000000000000000 ) ;
#43 = DIMENSIONAL_EXPONENTS ( 1.000000000000000000, 0.000000000000000000, 0.000000000000000000, 0.000000000000000000, 0.000000000000000000, 0.000000000000000000, 0.000000000000000000 ) ;
#44 = SURFACE_SIDE_STYLE ('',( #284 ) ) ;
#45 = FILL_AREA_STYLE ('',( #308 ) ) ;
#46 = ORIENTED_EDGE ( 'NONE', *, *, #25, .F. ) ;
#47 = CARTESIAN_POINT ( 'NONE',  ( 0.5000000000000000000, 0.5000000000000000000, 0.000000000000000000 ) ) ;
#48 = EDGE_CURVE ( 'NONE', #304, #363, #163, .T. ) ;
#49 = ORIENTED_EDGE ( 'NONE', *, *, #48, .F. ) ;
#50 = EDGE_LOOP ( 'NONE', ( #275, #193 ) ) ;
#51 =( LENGTH_UNIT ( ) NAMED_UNIT ( * ) SI_UNIT ( $, .METRE. ) );
#52 = CIRCLE ( 'NONE', #75, 0.4999999999999996114 ) ;
#53 =( GEOMETRIC_REPRESENTATION_CONTEXT ( 3 ) GLOBAL_UNCERTAINTY_ASSIGNED_CONTEXT ( ( #200 ) ) GLOBAL_UNIT_ASSIGNED_CONTEXT ( ( #264, #265, #2 ) ) REPRESENTATION_CONTEXT ( 'NONE', 'WORKASPACE' ) );
#54 = CARTESIAN_POINT ( 'NONE',  ( -1.224646799147354440E-16, 6.000000000000000888, 0.000000000000000000 ) ) ;
#55 = ORIENTED_EDGE ( 'NONE', *, *, #372, .T. ) ;
#56 = VERTEX_POINT ( 'NONE', #20 ) ;
#57 = CARTESIAN_POINT ( 'NONE',  ( 6.123233995736762338E-17, 3.000000000000000444, 0.4999999999999996114 ) ) ;
#58 =( LENGTH_UNIT ( ) NAMED_UNIT ( * ) SI_UNIT ( $, .METRE. ) );
#59 = AXIS2_PLACEMENT_3D ( 'NONE', #239, #350, #292 ) ;
#60 = PLANE ( 'NONE',  #111 ) ;
#61 = CARTESIAN_POINT ( 'NONE',  ( 0.000000000000000000, 0.000000000000000000, 0.000000000000000000 ) ) ;
#62 = PLANE ( 'NONE',  #349 ) ;
#63 = LENGTH_MEASURE_WITH_UNIT ( LENGTH_MEASURE( 0.02539999999999999897 ), #206 );
#64 = FILL_AREA_STYLE_COLOUR ( '', #123 ) ;
#65 = PLANE ( 'NONE',  #178 ) ;
#66 = CYLINDRICAL_SURFACE ( 'NONE', #300, 0.4999999999999997780 ) ;
#67 = EDGE_CURVE ( 'NONE', #18, #286, #108, .T. ) ;
#68 =( NAMED_UNIT ( * ) SI_UNIT ( $, .STERADIAN. ) SOLID_ANGLE_UNIT ( ) );
#69 = CIRCLE ( 'NONE', #59, 0.4999999999999993894 ) ;
#70 =( CONVERSION_BASED_UNIT ( 'INCH', #222 ) LENGTH_UNIT ( ) NAMED_UNIT ( #78 ) );
#71 = DIRECTION ( 'NONE',  ( 0.000000000000000000, 0.000000000000000000, 1.000000000000000000 ) ) ;
#72 =( LENGTH_UNIT ( ) NAMED_UNIT ( * ) SI_UNIT ( $, .METRE. ) );
#73 = DIMENSIONAL_EXPONENTS ( 1.000000000000000000, 0.000000000000000000, 0.000000000000000000, 0.000000000000000000, 0.000000000000000000, 0.000000000000000000, 0.000000000000000000 ) ;
#74 = VECTOR ( 'NONE', #172, 39.37007874015748143 ) ;
#75 = AXIS2_PLACEMENT_3D ( 'NONE', #30, #120, #151 ) ;
#76 = VECTOR ( 'NONE', #98, 39.37007874015748143 ) ;
#77 = LENGTH_MEASURE_WITH_UNIT ( LENGTH_MEASURE( 0.02539999999999999897 ), #345 );
#78 = DIMENSIONAL_EXPONENTS ( 1.000000000000000000, 0.000000000000000000, 0.000000000000000000, 0.000000000000000000, 0.000000000000000000, 0.000000000000000000, 0.000000000000000000 ) ;
#79 = ORIENTED_EDGE ( 'NONE', *, *, #67, .T. ) ;
#80 = SURFACE_SIDE_STYLE ('',( #257 ) ) ;
#81 = ORIENTED_EDGE ( 'NONE', *, *, #240, .F. ) ;
#82 = DIRECTION ( 'NONE',  ( 0.000000000000000000, 0.000000000000000000, -1.000000000000000000 ) ) ;
#83 = PRESENTATION_LAYER_ASSIGNMENT (  '', '', ( #267 ) ) ;
#84 = DIRECTION ( 'NONE',  ( 0.000000000000000000, 0.000000000000000000, -1.000000000000000000 ) ) ;
#85 = EDGE_LOOP ( 'NONE', ( #138, #256, #46, #309, #232 ) ) ;
#86 = PRESENTATION_STYLE_ASSIGNMENT (( #295 ) ) ;
#87 = PRESENTATION_LAYER_ASSIGNMENT (  '', '', ( #194 ) ) ;
#88 = STYLED_ITEM ( 'NONE', ( #276 ), #291 ) ;
#89 = SURFACE_SIDE_STYLE ('',( #208 ) ) ;
#90 = DIRECTION ( 'NONE',  ( 1.000000000000000000, 0.000000000000000000, 0.000000000000000000 ) ) ;
#91 = CARTESIAN_POINT ( 'NONE',  ( -1.224646799147354440E-16, 6.000000000000000888, 0.000000000000000000 ) ) ;
#92 =( NAMED_UNIT ( * ) SI_UNIT ( $, .STERADIAN. ) SOLID_ANGLE_UNIT ( ) );
#93 = FILL_AREA_STYLE_COLOUR ( '', #32 ) ;
#94 = AXIS2_PLACEMENT_3D ( 'NONE', #91, #5, #213 ) ;
#95 = ADVANCED_BREP_SHAPE_REPRESENTATION ( '56742', ( #291, #278, #103 ), #27 ) ;
#96 = FACE_OUTER_BOUND ( 'NONE', #346, .T. ) ;
#97 = DIMENSIONAL_EXPONENTS ( 1.000000000000000000, 0.000000000000000000, 0.000000000000000000, 0.000000000000000000, 0.000000000000000000, 0.000000000000000000, 0.000000000000000000 ) ;
#98 = DIRECTION ( 'NONE',  ( -0.000000000000000000, -1.000000000000000000, -0.000000000000000000 ) ) ;
#99 = EDGE_CURVE ( 'NONE', #114, #253, #158, .T. ) ;
#100 = SURFACE_STYLE_USAGE ( .BOTH. , #244 ) ;
#101 =( GEOMETRIC_REPRESENTATION_CONTEXT ( 3 ) GLOBAL_UNCERTAINTY_ASSIGNED_CONTEXT ( ( #364 ) ) GLOBAL_UNIT_ASSIGNED_CONTEXT ( ( #279, #325, #159 ) ) REPRESENTATION_CONTEXT ( 'NONE', 'WORKASPACE' ) );
#102 = DIRECTION ( 'NONE',  ( 0.000000000000000000, 1.000000000000000000, 0.000000000000000000 ) ) ;
#103 = AXIS2_PLACEMENT_3D ( 'NONE', #223, #71, #247 ) ;
#104 = DIRECTION ( 'NONE',  ( -1.224646799147353700E-16, 1.000000000000000000, -0.000000000000000000 ) ) ;
#105 = CARTESIAN_POINT ( 'NONE',  ( -1.224646799147354440E-16, 6.000000000000000888, 0.000000000000000000 ) ) ;
#106 = EDGE_LOOP ( 'NONE', ( #23, #207 ) ) ;
#107 = ADVANCED_FACE ( 'NONE', ( #287 ), #273, .T. ) ;
#108 = CIRCLE ( 'NONE', #319, 0.5000000000000000000 ) ;
#109 = ORIENTED_EDGE ( 'NONE', *, *, #277, .F. ) ;
#110 =( NAMED_UNIT ( * ) PLANE_ANGLE_UNIT ( ) SI_UNIT ( $, .RADIAN. ) );
#111 = AXIS2_PLACEMENT_3D ( 'NONE', #357, #102, #216 ) ;
#112 = DIRECTION ( 'NONE',  ( -1.000000000000000000, 0.000000000000000000, 0.000000000000000000 ) ) ;
#113 = ORIENTED_EDGE ( 'NONE', *, *, #25, .T. ) ;
#114 = VERTEX_POINT ( 'NONE', #153 ) ;
#115 =( GEOMETRIC_REPRESENTATION_CONTEXT ( 3 ) GLOBAL_UNCERTAINTY_ASSIGNED_CONTEXT ( ( #358 ) ) GLOBAL_UNIT_ASSIGNED_CONTEXT ( ( #343, #312, #303 ) ) REPRESENTATION_CONTEXT ( 'NONE', 'WORKASPACE' ) );
#116 = VECTOR ( 'NONE', #271, 39.37007874015748143 ) ;
#117 = VERTEX_POINT ( 'NONE', #215 ) ;
#118 =( NAMED_UNIT ( * ) PLANE_ANGLE_UNIT ( ) SI_UNIT ( $, .RADIAN. ) );
#119 = PRESENTATION_STYLE_ASSIGNMENT (( #173 ) ) ;
#120 = DIRECTION ( 'NONE',  ( -0.000000000000000000, -1.000000000000000000, -0.000000000000000000 ) ) ;
#121 = ADVANCED_FACE ( 'NONE', ( #268 ), #62, .F. ) ;
#122 = LENGTH_MEASURE_WITH_UNIT ( LENGTH_MEASURE( 0.02539999999999999897 ), #149 );
#123 = COLOUR_RGB ( '',1.000000000000000000, 0.000000000000000000, 0.000000000000000000 ) ;
#124 = FILL_AREA_STYLE ('',( #93 ) ) ;
#125 = CARTESIAN_POINT ( 'NONE',  ( 0.4999999999999993894, 6.000000000000000888, 6.123233995736759873E-17 ) ) ;
#126 = ADVANCED_FACE ( 'NONE', ( #293 ), #6, .T. ) ;
#127 = SURFACE_STYLE_USAGE ( .BOTH. , #270 ) ;
#128 = CIRCLE ( 'NONE', #272, 0.4999999999999996114 ) ;
#129 = DIRECTION ( 'NONE',  ( 1.000000000000000000, 1.224646799147353700E-16, 0.000000000000000000 ) ) ;
#130 = SURFACE_STYLE_FILL_AREA ( #9 ) ;
#131 = DIRECTION ( 'NONE',  ( -0.000000000000000000, -1.000000000000000000, -0.000000000000000000 ) ) ;
#132 = MECHANICAL_DESIGN_GEOMETRIC_PRESENTATION_REPRESENTATION (  '', ( #267 ), #115 ) ;
#133 = CYLINDRICAL_SURFACE ( 'NONE', #246, 0.4999999999999995004 ) ;
#134 = EDGE_CURVE ( 'NONE', #117, #254, #69, .T. ) ;
#135 = EDGE_LOOP ( 'NONE', ( #371, #55, #22, #113 ) ) ;
#136 = ORIENTED_EDGE ( 'NONE', *, *, #99, .F. ) ;
#137 = FILL_AREA_STYLE ('',( #285 ) ) ;
#138 = ORIENTED_EDGE ( 'NONE', *, *, #150, .T. ) ;
#139 = MECHANICAL_DESIGN_GEOMETRIC_PRESENTATION_REPRESENTATION (  '', ( #337 ), #101 ) ;
#140 = EDGE_CURVE ( 'NONE', #304, #197, #52, .T. ) ;
#141 = DIRECTION ( 'NONE',  ( 0.000000000000000000, 0.000000000000000000, -1.000000000000000000 ) ) ;
#142 = SURFACE_SIDE_STYLE ('',( #21 ) ) ;
#143 = EDGE_LOOP ( 'NONE', ( #259, #311, #24, #136 ) ) ;
#144 = ORIENTED_EDGE ( 'NONE', *, *, #140, .T. ) ;
#145 = EDGE_LOOP ( 'NONE', ( #250, #367, #79, #233 ) ) ;
#146 =( LENGTH_UNIT ( ) NAMED_UNIT ( * ) SI_UNIT ( $, .METRE. ) );
#147 =( CONVERSION_BASED_UNIT ( 'INCH', #122 ) LENGTH_UNIT ( ) NAMED_UNIT ( #310 ) );
#148 = PRESENTATION_LAYER_ASSIGNMENT (  '', '', ( #183 ) ) ;
#149 =( LENGTH_UNIT ( ) NAMED_UNIT ( * ) SI_UNIT ( $, .METRE. ) );
#150 = EDGE_CURVE ( 'NONE', #197, #304, #128, .T. ) ;
#151 = DIRECTION ( 'NONE',  ( 0.000000000000000000, 0.000000000000000000, -1.000000000000000000 ) ) ;
#152 = AXIS2_PLACEMENT_3D ( 'NONE', #8, #355, #90 ) ;
#153 = CARTESIAN_POINT ( 'NONE',  ( 0.4999999999999996114, 6.000000000000000888, 6.123233995736761105E-17 ) ) ;
#154 = EDGE_CURVE ( 'NONE', #286, #56, #338, .T. ) ;
#155 = SURFACE_STYLE_FILL_AREA ( #124 ) ;
#156 = DIRECTION ( 'NONE',  ( -1.000000000000000000, 0.000000000000000000, 0.000000000000000000 ) ) ;
#157 = PRESENTATION_STYLE_ASSIGNMENT (( #127 ) ) ;
#158 = CIRCLE ( 'NONE', #281, 0.4999999999999997224 ) ;
#159 =( NAMED_UNIT ( * ) SI_UNIT ( $, .STERADIAN. ) SOLID_ANGLE_UNIT ( ) );
#160 = MECHANICAL_DESIGN_GEOMETRIC_PRESENTATION_REPRESENTATION (  '', ( #261 ), #305 ) ;
#161 = UNCERTAINTY_MEASURE_WITH_UNIT (LENGTH_MEASURE( 1.000000000000000082E-05 ), #369, 'distance_accuracy_value', 'NONE');
#162 = LINE ( 'NONE', #326, #76 ) ;
#163 = LINE ( 'NONE', #260, #74 ) ;
#164 = LENGTH_MEASURE_WITH_UNIT ( LENGTH_MEASURE( 0.02539999999999999897 ), #72 );
#165 = PRESENTATION_STYLE_ASSIGNMENT (( #229 ) ) ;
#166 =( NAMED_UNIT ( * ) SI_UNIT ( $, .STERADIAN. ) SOLID_ANGLE_UNIT ( ) );
#167 = CARTESIAN_POINT ( 'NONE',  ( 0.000000000000000000, 0.5000000000000000000, -0.5000000000000000000 ) ) ;
#168 = CIRCLE ( 'NONE', #3, 0.5000000000000000000 ) ;
#169 = COLOUR_RGB ( '',1.000000000000000000, 0.000000000000000000, 0.000000000000000000 ) ;
#170 = DIRECTION ( 'NONE',  ( -1.224646799147353700E-16, 1.000000000000000000, -0.000000000000000000 ) ) ;
#171 = ORIENTED_EDGE ( 'NONE', *, *, #258, .F. ) ;
#172 = DIRECTION ( 'NONE',  ( -0.000000000000000000, -1.000000000000000000, -0.000000000000000000 ) ) ;
#173 = SURFACE_STYLE_USAGE ( .BOTH. , #89 ) ;
#174 =( CONVERSION_BASED_UNIT ( 'INCH', #352 ) LENGTH_UNIT ( ) NAMED_UNIT ( #37 ) );
#175 = ADVANCED_FACE ( 'NONE', ( #7 ), #317, .T. ) ;
#176 =( NAMED_UNIT ( * ) SI_UNIT ( $, .STERADIAN. ) SOLID_ANGLE_UNIT ( ) );
#177 = MECHANICAL_DESIGN_GEOMETRIC_PRESENTATION_REPRESENTATION (  '', ( #194 ), #214 ) ;
#178 = AXIS2_PLACEMENT_3D ( 'NONE', #328, #15, #129 ) ;
#179 = CIRCLE ( 'NONE', #33, 0.4999999999999993894 ) ;
#180 = DIRECTION ( 'NONE',  ( -0.000000000000000000, -1.000000000000000000, -0.000000000000000000 ) ) ;
#181 = DIRECTION ( 'NONE',  ( 0.000000000000000000, 0.000000000000000000, -1.000000000000000000 ) ) ;
#182 = FILL_AREA_STYLE ('',( #64 ) ) ;
#183 = STYLED_ITEM ( 'NONE', ( #157 ), #126 ) ;
#184 = PRODUCT_DEFINITION_FORMATION_WITH_SPECIFIED_SOURCE ( 'ANY', '', #236, .NOT_KNOWN. ) ;
#185 = CARTESIAN_POINT ( 'NONE',  ( -6.123233995736766036E-17, 0.5000000000000000000, 0.000000000000000000 ) ) ;
#186 = DIRECTION ( 'NONE',  ( 0.000000000000000000, 0.000000000000000000, -1.000000000000000000 ) ) ;
#187 = ADVANCED_FACE ( 'NONE', ( #324 ), #60, .T. ) ;
#188 = VECTOR ( 'NONE', #365, 39.37007874015748143 ) ;
#189 = PRESENTATION_STYLE_ASSIGNMENT (( #100 ) ) ;
#190 = PRODUCT_CONTEXT ( 'NONE', #322, 'mechanical' ) ;
#191 = UNCERTAINTY_MEASURE_WITH_UNIT (LENGTH_MEASURE( 1.000000000000000082E-05 ), #147, 'distance_accuracy_value', 'NONE');
#192 = DIRECTION ( 'NONE',  ( -0.000000000000000000, -1.000000000000000000, -0.000000000000000000 ) ) ;
#193 = ORIENTED_EDGE ( 'NONE', *, *, #99, .T. ) ;
#194 = STYLED_ITEM ( 'NONE', ( #86 ), #187 ) ;
#195 = FILL_AREA_STYLE_COLOUR ( '', #169 ) ;
#196 = AXIS2_PLACEMENT_3D ( 'NONE', #353, #131, #186 ) ;
#197 = VERTEX_POINT ( 'NONE', #39 ) ;
#198 = DIRECTION ( 'NONE',  ( -1.000000000000000000, 0.000000000000000000, 0.000000000000000000 ) ) ;
#199 = ORIENTED_EDGE ( 'NONE', *, *, #347, .T. ) ;
#200 = UNCERTAINTY_MEASURE_WITH_UNIT (LENGTH_MEASURE( 1.000000000000000082E-05 ), #264, 'distance_accuracy_value', 'NONE');
#201 = CLOSED_SHELL ( 'NONE', ( #297, #126, #187, #235, #107 ) ) ;
#202 = CARTESIAN_POINT ( 'NONE',  ( 0.000000000000000000, 0.5000000000000000000, 0.000000000000000000 ) ) ;
#203 = DIRECTION ( 'NONE',  ( -1.224646799147353700E-16, 1.000000000000000000, -0.000000000000000000 ) ) ;
#204 = MECHANICAL_DESIGN_GEOMETRIC_PRESENTATION_REPRESENTATION (  '', ( #221 ), #359 ) ;
#205 = FILL_AREA_STYLE_COLOUR ( '', #241 ) ;
#206 =( LENGTH_UNIT ( ) NAMED_UNIT ( * ) SI_UNIT ( $, .METRE. ) );
#207 = ORIENTED_EDGE ( 'NONE', *, *, #134, .F. ) ;
#208 = SURFACE_STYLE_FILL_AREA ( #290 ) ;
#209 = DIRECTION ( 'NONE',  ( -1.000000000000000000, 0.000000000000000000, 0.000000000000000000 ) ) ;
#210 = CARTESIAN_POINT ( 'NONE',  ( 0.000000000000000000, 3.000000000000000444, 0.000000000000000000 ) ) ;
#211 = CIRCLE ( 'NONE', #332, 0.4999999999999997224 ) ;
#212 =( NAMED_UNIT ( * ) PLANE_ANGLE_UNIT ( ) SI_UNIT ( $, .RADIAN. ) );
#213 = DIRECTION ( 'NONE',  ( -1.000000000000000000, 0.000000000000000000, 0.000000000000000000 ) ) ;
#214 =( GEOMETRIC_REPRESENTATION_CONTEXT ( 3 ) GLOBAL_UNCERTAINTY_ASSIGNED_CONTEXT ( ( #331 ) ) GLOBAL_UNIT_ASSIGNED_CONTEXT ( ( #174, #118, #176 ) ) REPRESENTATION_CONTEXT ( 'NONE', 'WORKASPACE' ) );
#215 = CARTESIAN_POINT ( 'NONE',  ( 0.4999999999999996669, 3.000000000000000444, 6.123233995736761105E-17 ) ) ;
#216 = DIRECTION ( 'NONE',  ( 0.000000000000000000, -0.000000000000000000, 1.000000000000000000 ) ) ;
#217 = PRODUCT_RELATED_PRODUCT_CATEGORY ( 'part', '', ( #236 ) ) ;
#218 = CARTESIAN_POINT ( 'NONE',  ( -0.5000000000000000000, 0.5000000000000000000, 6.123233995736764803E-17 ) ) ;
#219 = DIRECTION ( 'NONE',  ( 1.000000000000000000, 0.000000000000000000, -1.224646799147353207E-16 ) ) ;
#220 =( GEOMETRIC_REPRESENTATION_CONTEXT ( 3 ) GLOBAL_UNCERTAINTY_ASSIGNED_CONTEXT ( ( #191 ) ) GLOBAL_UNIT_ASSIGNED_CONTEXT ( ( #147, #212, #92 ) ) REPRESENTATION_CONTEXT ( 'NONE', 'WORKASPACE' ) );
#221 = STYLED_ITEM ( 'NONE', ( #119 ), #297 ) ;
#222 = LENGTH_MEASURE_WITH_UNIT ( LENGTH_MEASURE( 0.02539999999999999897 ), #329 );
#223 = CARTESIAN_POINT ( 'NONE',  ( 0.000000000000000000, 0.000000000000000000, 0.000000000000000000 ) ) ;
#224 = LENGTH_MEASURE_WITH_UNIT ( LENGTH_MEASURE( 0.02539999999999999897 ), #51 );
#225 = PRODUCT_DEFINITION_CONTEXT ( 'detailed design', #306, 'design' ) ;
#226 = CARTESIAN_POINT ( 'NONE',  ( 0.000000000000000000, 0.5000000000000000000, 0.000000000000000000 ) ) ;
#227 = AXIS2_PLACEMENT_3D ( 'NONE', #251, #342, #84 ) ;
#228 = MECHANICAL_DESIGN_GEOMETRIC_PRESENTATION_REPRESENTATION (  '', ( #183 ), #220 ) ;
#229 = SURFACE_STYLE_USAGE ( .BOTH. , #44 ) ;
#230 = CARTESIAN_POINT ( 'NONE',  ( -0.4999999999999998335, 6.000000000000000888, 0.000000000000000000 ) ) ;
#231 = SURFACE_STYLE_USAGE ( .BOTH. , #80 ) ;
#232 = ORIENTED_EDGE ( 'NONE', *, *, #307, .F. ) ;
#233 = ORIENTED_EDGE ( 'NONE', *, *, #154, .T. ) ;
#234 = CARTESIAN_POINT ( 'NONE',  ( -0.4999999999999991118, 3.000000000000000444, 0.000000000000000000 ) ) ;
#235 = ADVANCED_FACE ( 'NONE', ( #96 ), #66, .T. ) ;
#236 = PRODUCT ( '56742', '56742', '', ( #190 ) ) ;
#237 = ORIENTED_EDGE ( 'NONE', *, *, #150, .F. ) ;
#238 = FACE_OUTER_BOUND ( 'NONE', #135, .T. ) ;
#239 = CARTESIAN_POINT ( 'NONE',  ( 2.449293598294706907E-16, 3.000000000000000444, 0.000000000000000000 ) ) ;
#240 = EDGE_CURVE ( 'NONE', #254, #253, #360, .T. ) ;
#241 = COLOUR_RGB ( '',1.000000000000000000, 0.000000000000000000, 0.000000000000000000 ) ;
#242 = DIRECTION ( 'NONE',  ( -1.224646799147353700E-16, 1.000000000000000000, -0.000000000000000000 ) ) ;
#243 = UNCERTAINTY_MEASURE_WITH_UNIT (LENGTH_MEASURE( 1.000000000000000082E-05 ), #348, 'distance_accuracy_value', 'NONE');
#244 = SURFACE_SIDE_STYLE ('',( #130 ) ) ;
#245 = COLOUR_RGB ( '',0.7921568627450980005, 0.8196078431372548767, 0.9333333333333333481 ) ;
#246 = AXIS2_PLACEMENT_3D ( 'NONE', #105, #104, #336 ) ;
#247 = DIRECTION ( 'NONE',  ( 1.000000000000000000, 0.000000000000000000, 0.000000000000000000 ) ) ;
#248 = CARTESIAN_POINT ( 'NONE',  ( -1.224646799147354440E-16, 6.000000000000000888, 0.000000000000000000 ) ) ;
#249 = ORIENTED_EDGE ( 'NONE', *, *, #330, .T. ) ;
#250 = ORIENTED_EDGE ( 'NONE', *, *, #372, .F. ) ;
#251 = CARTESIAN_POINT ( 'NONE',  ( 0.000000000000000000, 0.5000000000000000000, 0.000000000000000000 ) ) ;
#252 = CARTESIAN_POINT ( 'NONE',  ( -0.4999999999999996669, 6.000000000000000888, 0.000000000000000000 ) ) ;
#253 = VERTEX_POINT ( 'NONE', #230 ) ;
#254 = VERTEX_POINT ( 'NONE', #234 ) ;
#255 = SURFACE_STYLE_USAGE ( .BOTH. , #142 ) ;
#256 = ORIENTED_EDGE ( 'NONE', *, *, #48, .T. ) ;
#257 = SURFACE_STYLE_FILL_AREA ( #137 ) ;
#258 = EDGE_CURVE ( 'NONE', #253, #114, #211, .T. ) ;
#259 = ORIENTED_EDGE ( 'NONE', *, *, #347, .F. ) ;
#260 = CARTESIAN_POINT ( 'NONE',  ( 6.123233995736763571E-17, 0.000000000000000000, 0.4999999999999997780 ) ) ;
#261 = STYLED_ITEM ( 'NONE', ( #189 ), #235 ) ;
#262 = CIRCLE ( 'NONE', #196, 0.5000000000000000000 ) ;
#263 = SURFACE_SIDE_STYLE ('',( #288 ) ) ;
#264 =( CONVERSION_BASED_UNIT ( 'INCH', #63 ) LENGTH_UNIT ( ) NAMED_UNIT ( #97 ) );
#265 =( NAMED_UNIT ( * ) PLANE_ANGLE_UNIT ( ) SI_UNIT ( $, .RADIAN. ) );
#266 = DIRECTION ( 'NONE',  ( 0.000000000000000000, 0.000000000000000000, -1.000000000000000000 ) ) ;
#267 = STYLED_ITEM ( 'NONE', ( #315 ), #278 ) ;
#268 = FACE_OUTER_BOUND ( 'NONE', #106, .T. ) ;
#269 = FACE_OUTER_BOUND ( 'NONE', #50, .T. ) ;
#270 = SURFACE_SIDE_STYLE ('',( #155 ) ) ;
#271 = DIRECTION ( 'NONE',  ( -1.224646799147353700E-16, 1.000000000000000000, -0.000000000000000000 ) ) ;
#272 = AXIS2_PLACEMENT_3D ( 'NONE', #210, #180, #266 ) ;
#273 = SPHERICAL_SURFACE ( 'NONE', #152, 0.5000000000000000000 ) ;
#274 = DIRECTION ( 'NONE',  ( 0.000000000000000000, 0.000000000000000000, 1.000000000000000000 ) ) ;
#275 = ORIENTED_EDGE ( 'NONE', *, *, #258, .T. ) ;
#276 = PRESENTATION_STYLE_ASSIGNMENT (( #255 ) ) ;
#277 = EDGE_CURVE ( 'NONE', #363, #340, #168, .T. ) ;
#278 = MANIFOLD_SOLID_BREP ( 'Revolve - Tool Body (Straight Shanked)', #10 ) ;
#279 =( CONVERSION_BASED_UNIT ( 'INCH', #77 ) LENGTH_UNIT ( ) NAMED_UNIT ( #43 ) );
#280 = DIRECTION ( 'NONE',  ( 0.000000000000000000, 0.000000000000000000, -1.000000000000000000 ) ) ;
#281 = AXIS2_PLACEMENT_3D ( 'NONE', #54, #170, #112 ) ;
#282 = CARTESIAN_POINT ( 'NONE',  ( 0.000000000000000000, 0.000000000000000000, 0.000000000000000000 ) ) ;
#283 = ADVANCED_FACE ( 'NONE', ( #16 ), #133, .T. ) ;
#284 = SURFACE_STYLE_FILL_AREA ( #362 ) ;
#285 = FILL_AREA_STYLE_COLOUR ( '', #245 ) ;
#286 = VERTEX_POINT ( 'NONE', #47 ) ;
#287 = FACE_OUTER_BOUND ( 'NONE', #145, .T. ) ;
#288 = SURFACE_STYLE_FILL_AREA ( #182 ) ;
#289 = MECHANICAL_DESIGN_GEOMETRIC_PRESENTATION_REPRESENTATION (  '', ( #88 ), #53 ) ;
#290 = FILL_AREA_STYLE ('',( #195 ) ) ;
#291 = MANIFOLD_SOLID_BREP ( 'Revolve - Cutting Edge', #201 ) ;
#292 = DIRECTION ( 'NONE',  ( -1.000000000000000000, 0.000000000000000000, 0.000000000000000000 ) ) ;
#293 = FACE_OUTER_BOUND ( 'NONE', #85, .T. ) ;
#294 = CIRCLE ( 'NONE', #227, 0.5000000000000000000 ) ;
#295 = SURFACE_STYLE_USAGE ( .BOTH. , #263 ) ;
#296 = PRESENTATION_LAYER_ASSIGNMENT (  '', '', ( #88 ) ) ;
#297 = ADVANCED_FACE ( 'NONE', ( #238 ), #299, .T. ) ;
#298 = CARTESIAN_POINT ( 'NONE',  ( 2.449293598294706907E-16, 3.000000000000000444, 0.000000000000000000 ) ) ;
#299 = SPHERICAL_SURFACE ( 'NONE', #12, 0.5000000000000000000 ) ;
#300 = AXIS2_PLACEMENT_3D ( 'NONE', #282, #192, #280 ) ;
#301 = CARTESIAN_POINT ( 'NONE',  ( -6.123233995736766036E-17, 0.5000000000000000000, 0.000000000000000000 ) ) ;
#302 = APPLICATION_PROTOCOL_DEFINITION ( 'draft international standard', 'automotive_design', 1998, #306 ) ;
#303 =( NAMED_UNIT ( * ) SI_UNIT ( $, .STERADIAN. ) SOLID_ANGLE_UNIT ( ) );
#304 = VERTEX_POINT ( 'NONE', #57 ) ;
#305 =( GEOMETRIC_REPRESENTATION_CONTEXT ( 3 ) GLOBAL_UNCERTAINTY_ASSIGNED_CONTEXT ( ( #161 ) ) GLOBAL_UNIT_ASSIGNED_CONTEXT ( ( #369, #110, #166 ) ) REPRESENTATION_CONTEXT ( 'NONE', 'WORKASPACE' ) );
#306 = APPLICATION_CONTEXT ( 'automotive_design' ) ;
#307 = EDGE_CURVE ( 'NONE', #197, #18, #162, .T. ) ;
#308 = FILL_AREA_STYLE_COLOUR ( '', #4 ) ;
#309 = ORIENTED_EDGE ( 'NONE', *, *, #67, .F. ) ;
#310 = DIMENSIONAL_EXPONENTS ( 1.000000000000000000, 0.000000000000000000, 0.000000000000000000, 0.000000000000000000, 0.000000000000000000, 0.000000000000000000, 0.000000000000000000 ) ;
#311 = ORIENTED_EDGE ( 'NONE', *, *, #134, .T. ) ;
#312 =( NAMED_UNIT ( * ) PLANE_ANGLE_UNIT ( ) SI_UNIT ( $, .RADIAN. ) );
#313 = AXIS2_PLACEMENT_3D ( 'NONE', #323, #29, #209 ) ;
#314 = DIRECTION ( 'NONE',  ( -0.000000000000000000, -1.000000000000000000, -0.000000000000000000 ) ) ;
#315 = PRESENTATION_STYLE_ASSIGNMENT (( #231 ) ) ;
#316 = EDGE_LOOP ( 'NONE', ( #249, #199, #171, #81 ) ) ;
#317 = CYLINDRICAL_SURFACE ( 'NONE', #94, 0.4999999999999995004 ) ;
#318 = LENGTH_MEASURE_WITH_UNIT ( LENGTH_MEASURE( 0.02539999999999999897 ), #146 );
#319 = AXIS2_PLACEMENT_3D ( 'NONE', #202, #314, #141 ) ;
#320 = PRESENTATION_LAYER_ASSIGNMENT (  '', '', ( #261 ) ) ;
#321 = ADVANCED_FACE ( 'NONE', ( #269 ), #65, .F. ) ;
#322 = APPLICATION_CONTEXT ( 'automotive_design' ) ;
#323 = CARTESIAN_POINT ( 'NONE',  ( -6.123233995736766036E-17, 0.5000000000000000000, 0.000000000000000000 ) ) ;
#324 = FACE_OUTER_BOUND ( 'NONE', #368, .T. ) ;
#325 =( NAMED_UNIT ( * ) PLANE_ANGLE_UNIT ( ) SI_UNIT ( $, .RADIAN. ) );
#326 = CARTESIAN_POINT ( 'NONE',  ( 0.000000000000000000, 0.000000000000000000, -0.4999999999999997780 ) ) ;
#327 = AXIS2_PLACEMENT_3D ( 'NONE', #185, #11, #219 ) ;
#328 = CARTESIAN_POINT ( 'NONE',  ( 0.4999999999999996114, 6.000000000000000888, 0.000000000000000000 ) ) ;
#329 =( LENGTH_UNIT ( ) NAMED_UNIT ( * ) SI_UNIT ( $, .METRE. ) );
#330 = EDGE_CURVE ( 'NONE', #254, #117, #179, .T. ) ;
#331 = UNCERTAINTY_MEASURE_WITH_UNIT (LENGTH_MEASURE( 1.000000000000000082E-05 ), #174, 'distance_accuracy_value', 'NONE');
#332 = AXIS2_PLACEMENT_3D ( 'NONE', #248, #203, #198 ) ;
#333 = LINE ( 'NONE', #125, #116 ) ;
#334 = APPLICATION_PROTOCOL_DEFINITION ( 'draft international standard', 'automotive_design', 1998, #322 ) ;
#335 = EDGE_CURVE ( 'NONE', #340, #18, #262, .T. ) ;
#336 = DIRECTION ( 'NONE',  ( -1.000000000000000000, 0.000000000000000000, 0.000000000000000000 ) ) ;
#337 = STYLED_ITEM ( 'NONE', ( #165 ), #107 ) ;
#338 = CIRCLE ( 'NONE', #313, 0.5000000000000000000 ) ;
#339 = PRESENTATION_LAYER_ASSIGNMENT (  '', '', ( #221 ) ) ;
#340 = VERTEX_POINT ( 'NONE', #218 ) ;
#341 = ORIENTED_EDGE ( 'NONE', *, *, #307, .T. ) ;
#342 = DIRECTION ( 'NONE',  ( -0.000000000000000000, -1.000000000000000000, -0.000000000000000000 ) ) ;
#343 =( CONVERSION_BASED_UNIT ( 'INCH', #224 ) LENGTH_UNIT ( ) NAMED_UNIT ( #73 ) );
#344 = CIRCLE ( 'NONE', #327, 0.5000000000000000000 ) ;
#345 =( LENGTH_UNIT ( ) NAMED_UNIT ( * ) SI_UNIT ( $, .METRE. ) );
#346 = EDGE_LOOP ( 'NONE', ( #49, #144, #341, #361, #109 ) ) ;
#347 = EDGE_CURVE ( 'NONE', #117, #114, #333, .T. ) ;
#348 =( CONVERSION_BASED_UNIT ( 'INCH', #318 ) LENGTH_UNIT ( ) NAMED_UNIT ( #366 ) );
#349 = AXIS2_PLACEMENT_3D ( 'NONE', #38, #13, #31 ) ;
#350 = DIRECTION ( 'NONE',  ( -1.224646799147353700E-16, 1.000000000000000000, -0.000000000000000000 ) ) ;
#351 =( NAMED_UNIT ( * ) SI_UNIT ( $, .STERADIAN. ) SOLID_ANGLE_UNIT ( ) );
#352 = LENGTH_MEASURE_WITH_UNIT ( LENGTH_MEASURE( 0.02539999999999999897 ), #58 );
#353 = CARTESIAN_POINT ( 'NONE',  ( 0.000000000000000000, 0.5000000000000000000, 0.000000000000000000 ) ) ;
#354 = PRESENTATION_LAYER_ASSIGNMENT (  '', '', ( #337 ) ) ;
#355 = DIRECTION ( 'NONE',  ( 0.000000000000000000, 0.000000000000000000, 1.000000000000000000 ) ) ;
#356 = CARTESIAN_POINT ( 'NONE',  ( 6.123233995736767268E-17, 0.5000000000000000000, 0.5000000000000000000 ) ) ;
#357 = CARTESIAN_POINT ( 'NONE',  ( 0.000000000000000000, 3.000000000000000444, 0.000000000000000000 ) ) ;
#358 = UNCERTAINTY_MEASURE_WITH_UNIT (LENGTH_MEASURE( 1.000000000000000082E-05 ), #343, 'distance_accuracy_value', 'NONE');
#359 =( GEOMETRIC_REPRESENTATION_CONTEXT ( 3 ) GLOBAL_UNCERTAINTY_ASSIGNED_CONTEXT ( ( #243 ) ) GLOBAL_UNIT_ASSIGNED_CONTEXT ( ( #348, #28, #351 ) ) REPRESENTATION_CONTEXT ( 'NONE', 'WORKASPACE' ) );
#360 = LINE ( 'NONE', #252, #188 ) ;
#361 = ORIENTED_EDGE ( 'NONE', *, *, #335, .F. ) ;
#362 = FILL_AREA_STYLE ('',( #205 ) ) ;
#363 = VERTEX_POINT ( 'NONE', #356 ) ;
#364 = UNCERTAINTY_MEASURE_WITH_UNIT (LENGTH_MEASURE( 1.000000000000000082E-05 ), #279, 'distance_accuracy_value', 'NONE');
#365 = DIRECTION ( 'NONE',  ( -1.224646799147353700E-16, 1.000000000000000000, -0.000000000000000000 ) ) ;
#366 = DIMENSIONAL_EXPONENTS ( 1.000000000000000000, 0.000000000000000000, 0.000000000000000000, 0.000000000000000000, 0.000000000000000000, 0.000000000000000000, 0.000000000000000000 ) ;
#367 = ORIENTED_EDGE ( 'NONE', *, *, #335, .T. ) ;
#368 = EDGE_LOOP ( 'NONE', ( #237, #17 ) ) ;
#369 =( CONVERSION_BASED_UNIT ( 'INCH', #164 ) LENGTH_UNIT ( ) NAMED_UNIT ( #40 ) );
#370 = UNCERTAINTY_MEASURE_WITH_UNIT (LENGTH_MEASURE( 1.000000000000000082E-05 ), #70, 'distance_accuracy_value', 'NONE');
#371 = ORIENTED_EDGE ( 'NONE', *, *, #277, .T. ) ;
#372 = EDGE_CURVE ( 'NONE', #340, #56, #344, .T. ) ;
#373 = PRODUCT_DEFINITION_SHAPE ( 'NONE', 'NONE',  #36 ) ;
ENDSEC;
END-ISO-10303-21;
