ISO-10303-21;
HEADER;
FILE_DESCRIPTION (( 'STEP AP214' ),
    '1' );
FILE_NAME ('03797.STEP',
    '2023-06-22T15:47:17',
    ( '' ),
    ( '' ),
    'SwSTEP 2.0',
    'SolidWorks 2023',
    '' );
FILE_SCHEMA (( 'AUTOMOTIVE_DESIGN' ));
ENDSEC;

DATA;
#1 = FILL_AREA_STYLE_COLOUR ( '', #235 ) ;
#2 = SURFACE_STYLE_USAGE ( .BOTH. , #309 ) ;
#3 = AXIS2_PLACEMENT_3D ( 'NONE', #195, #177, #173 ) ;
#4 =( LENGTH_UNIT ( ) NAMED_UNIT ( * ) SI_UNIT ( $, .METRE. ) );
#5 = DIRECTION ( 'NONE',  ( 4.259641040512529009E-17, -1.000000000000000000, 0.000000000000000000 ) ) ;
#6 = COLOUR_RGB ( '',1.000000000000000000, 0.000000000000000000, 0.000000000000000000 ) ;
#7 = AXIS2_PLACEMENT_3D ( 'NONE', #87, #147, #145 ) ;
#8 = CARTESIAN_POINT ( 'NONE',  ( 0.5000000000000000000, 7.000000000000000000, 6.123233995736767268E-17 ) ) ;
#9 = ADVANCED_FACE ( 'NONE', ( #306 ), #184, .T. ) ;
#10 =( NAMED_UNIT ( * ) PLANE_ANGLE_UNIT ( ) SI_UNIT ( $, .RADIAN. ) );
#11 =( CONVERSION_BASED_UNIT ( 'INCH', #179 ) LENGTH_UNIT ( ) NAMED_UNIT ( #55 ) );
#12 = AXIS2_PLACEMENT_3D ( 'NONE', #33, #5, #100 ) ;
#13 =( NAMED_UNIT ( * ) SI_UNIT ( $, .STERADIAN. ) SOLID_ANGLE_UNIT ( ) );
#14 = SURFACE_STYLE_FILL_AREA ( #227 ) ;
#15 = CARTESIAN_POINT ( 'NONE',  ( 0.000000000000000000, 0.000000000000000000, 0.000000000000000000 ) ) ;
#16 = DIRECTION ( 'NONE',  ( -1.000000000000000000, 0.000000000000000000, 0.000000000000000000 ) ) ;
#17 = FILL_AREA_STYLE_COLOUR ( '', #223 ) ;
#18 = LINE ( 'NONE', #107, #247 ) ;
#19 = SURFACE_STYLE_FILL_AREA ( #307 ) ;
#20 = EDGE_LOOP ( 'NONE', ( #264, #189, #56, #258 ) ) ;
#21 = CARTESIAN_POINT ( 'NONE',  ( -1.224646799147351975E-16, 7.000000000000000000, 0.000000000000000000 ) ) ;
#22 = MANIFOLD_SOLID_BREP ( 'Revolve - Cutting Edge', #279 ) ;
#23 = VERTEX_POINT ( 'NONE', #8 ) ;
#24 = CARTESIAN_POINT ( 'NONE',  ( 0.4999999999999999445, 7.000000000000000000, 6.123233995736767268E-17 ) ) ;
#25 =( LENGTH_UNIT ( ) NAMED_UNIT ( * ) SI_UNIT ( $, .METRE. ) );
#26 = AXIS2_PLACEMENT_3D ( 'NONE', #127, #265, #159 ) ;
#27 = VECTOR ( 'NONE', #262, 39.37007874015748143 ) ;
#28 = EDGE_LOOP ( 'NONE', ( #71, #110, #137, #160 ) ) ;
#29 = SHAPE_DEFINITION_REPRESENTATION ( #190, #40 ) ;
#30 = CARTESIAN_POINT ( 'NONE',  ( 0.000000000000000000, 0.000000000000000000, 0.000000000000000000 ) ) ;
#31 =( NAMED_UNIT ( * ) SI_UNIT ( $, .STERADIAN. ) SOLID_ANGLE_UNIT ( ) );
#32 = DIRECTION ( 'NONE',  ( -4.259641040512529009E-17, 1.000000000000000000, 0.000000000000000000 ) ) ;
#33 = CARTESIAN_POINT ( 'NONE',  ( 0.5000000000000000000, 7.000000000000000000, 0.000000000000000000 ) ) ;
#34 = ORIENTED_EDGE ( 'NONE', *, *, #278, .T. ) ;
#35 = CARTESIAN_POINT ( 'NONE',  ( 0.000000000000000000, 4.125000000000000000, 0.000000000000000000 ) ) ;
#36 = PRODUCT_DEFINITION_CONTEXT ( 'detailed design', #60, 'design' ) ;
#37 = PRESENTATION_LAYER_ASSIGNMENT (  '', '', ( #212 ) ) ;
#38 = SURFACE_SIDE_STYLE ('',( #272 ) ) ;
#39 =( NAMED_UNIT ( * ) SI_UNIT ( $, .STERADIAN. ) SOLID_ANGLE_UNIT ( ) );
#40 = ADVANCED_BREP_SHAPE_REPRESENTATION ( '03797', ( #22, #121, #89 ), #176 ) ;
#41 =( GEOMETRIC_REPRESENTATION_CONTEXT ( 3 ) GLOBAL_UNCERTAINTY_ASSIGNED_CONTEXT ( ( #241 ) ) GLOBAL_UNIT_ASSIGNED_CONTEXT ( ( #230, #273, #141 ) ) REPRESENTATION_CONTEXT ( 'NONE', 'WORKASPACE' ) );
#42 = AXIS2_PLACEMENT_3D ( 'NONE', #35, #304, #16 ) ;
#43 = VERTEX_POINT ( 'NONE', #178 ) ;
#44 = CIRCLE ( 'NONE', #128, 0.5000000000000000000 ) ;
#45 = ADVANCED_FACE ( 'NONE', ( #139 ), #151, .F. ) ;
#46 = CARTESIAN_POINT ( 'NONE',  ( 0.000000000000000000, 0.000000000000000000, -0.5000000000000000000 ) ) ;
#47 = PLANE ( 'NONE',  #26 ) ;
#48 = CLOSED_SHELL ( 'NONE', ( #224, #228, #9, #45 ) ) ;
#49 = CARTESIAN_POINT ( 'NONE',  ( 6.123233995736766036E-17, 0.000000000000000000, 0.5000000000000000000 ) ) ;
#50 = ORIENTED_EDGE ( 'NONE', *, *, #143, .T. ) ;
#51 = FACE_OUTER_BOUND ( 'NONE', #65, .T. ) ;
#52 = EDGE_CURVE ( 'NONE', #122, #240, #109, .T. ) ;
#53 = PRESENTATION_STYLE_ASSIGNMENT (( #111 ) ) ;
#54 = FACE_OUTER_BOUND ( 'NONE', #210, .T. ) ;
#55 = DIMENSIONAL_EXPONENTS ( 1.000000000000000000, 0.000000000000000000, 0.000000000000000000, 0.000000000000000000, 0.000000000000000000, 0.000000000000000000, 0.000000000000000000 ) ;
#56 = ORIENTED_EDGE ( 'NONE', *, *, #76, .F. ) ;
#57 = CYLINDRICAL_SURFACE ( 'NONE', #7, 0.5000000000000001110 ) ;
#58 = EDGE_LOOP ( 'NONE', ( #294, #140 ) ) ;
#59 = EDGE_CURVE ( 'NONE', #43, #171, #148, .T. ) ;
#60 = APPLICATION_CONTEXT ( 'automotive_design' ) ;
#61 = DIRECTION ( 'NONE',  ( 0.000000000000000000, 1.000000000000000000, 0.000000000000000000 ) ) ;
#62 =( GEOMETRIC_REPRESENTATION_CONTEXT ( 3 ) GLOBAL_UNCERTAINTY_ASSIGNED_CONTEXT ( ( #192 ) ) GLOBAL_UNIT_ASSIGNED_CONTEXT ( ( #239, #10, #64 ) ) REPRESENTATION_CONTEXT ( 'NONE', 'WORKASPACE' ) );
#63 = ORIENTED_EDGE ( 'NONE', *, *, #286, .T. ) ;
#64 =( NAMED_UNIT ( * ) SI_UNIT ( $, .STERADIAN. ) SOLID_ANGLE_UNIT ( ) );
#65 = EDGE_LOOP ( 'NONE', ( #170, #75, #63, #233 ) ) ;
#66 = STYLED_ITEM ( 'NONE', ( #232 ), #218 ) ;
#67 = COLOUR_RGB ( '',1.000000000000000000, 0.000000000000000000, 0.000000000000000000 ) ;
#68 = SURFACE_STYLE_FILL_AREA ( #290 ) ;
#69 = CARTESIAN_POINT ( 'NONE',  ( 0.000000000000000000, 4.125000000000000000, -0.5000000000000000000 ) ) ;
#70 = DIRECTION ( 'NONE',  ( -4.259641040512529009E-17, 1.000000000000000000, -0.000000000000000000 ) ) ;
#71 = ORIENTED_EDGE ( 'NONE', *, *, #181, .T. ) ;
#72 = DIRECTION ( 'NONE',  ( -4.259641040512529009E-17, 1.000000000000000000, -0.000000000000000000 ) ) ;
#73 = AXIS2_PLACEMENT_3D ( 'NONE', #150, #180, #281 ) ;
#74 = CARTESIAN_POINT ( 'NONE',  ( 6.123233995736766036E-17, 4.125000000000000000, 0.5000000000000000000 ) ) ;
#75 = ORIENTED_EDGE ( 'NONE', *, *, #52, .T. ) ;
#76 = EDGE_CURVE ( 'NONE', #166, #23, #203, .T. ) ;
#77 = DIRECTION ( 'NONE',  ( 0.000000000000000000, 0.000000000000000000, -1.000000000000000000 ) ) ;
#78 = EDGE_LOOP ( 'NONE', ( #119, #289 ) ) ;
#79 = UNCERTAINTY_MEASURE_WITH_UNIT (LENGTH_MEASURE( 1.000000000000000082E-05 ), #271, 'distance_accuracy_value', 'NONE');
#80 = CARTESIAN_POINT ( 'NONE',  ( 0.000000000000000000, 0.000000000000000000, 0.000000000000000000 ) ) ;
#81 = DIRECTION ( 'NONE',  ( -1.000000000000000000, -4.259641040512529009E-17, 0.000000000000000000 ) ) ;
#82 = AXIS2_PLACEMENT_3D ( 'NONE', #30, #162, #133 ) ;
#83 = ORIENTED_EDGE ( 'NONE', *, *, #59, .F. ) ;
#84 = FILL_AREA_STYLE ('',( #120 ) ) ;
#85 = UNCERTAINTY_MEASURE_WITH_UNIT (LENGTH_MEASURE( 1.000000000000000082E-05 ), #11, 'distance_accuracy_value', 'NONE');
#86 = DIRECTION ( 'NONE',  ( 0.000000000000000000, 0.000000000000000000, 1.000000000000000000 ) ) ;
#87 = CARTESIAN_POINT ( 'NONE',  ( -1.224646799147351975E-16, 7.000000000000000000, 0.000000000000000000 ) ) ;
#88 = STYLED_ITEM ( 'NONE', ( #204 ), #164 ) ;
#89 = AXIS2_PLACEMENT_3D ( 'NONE', #80, #86, #297 ) ;
#90 = CIRCLE ( 'NONE', #257, 0.5000000000000000000 ) ;
#91 = SURFACE_STYLE_USAGE ( .BOTH. , #106 ) ;
#92 = DIMENSIONAL_EXPONENTS ( 1.000000000000000000, 0.000000000000000000, 0.000000000000000000, 0.000000000000000000, 0.000000000000000000, 0.000000000000000000, 0.000000000000000000 ) ;
#93 =( GEOMETRIC_REPRESENTATION_CONTEXT ( 3 ) GLOBAL_UNCERTAINTY_ASSIGNED_CONTEXT ( ( #85 ) ) GLOBAL_UNIT_ASSIGNED_CONTEXT ( ( #11, #149, #13 ) ) REPRESENTATION_CONTEXT ( 'NONE', 'WORKASPACE' ) );
#94 = SURFACE_STYLE_USAGE ( .BOTH. , #95 ) ;
#95 = SURFACE_SIDE_STYLE ('',( #68 ) ) ;
#96 = PRESENTATION_LAYER_ASSIGNMENT (  '', '', ( #225 ) ) ;
#97 = LINE ( 'NONE', #24, #211 ) ;
#98 = FACE_OUTER_BOUND ( 'NONE', #270, .T. ) ;
#99 = AXIS2_PLACEMENT_3D ( 'NONE', #207, #205, #259 ) ;
#100 = DIRECTION ( 'NONE',  ( 1.000000000000000000, 4.259641040512529009E-17, 0.000000000000000000 ) ) ;
#101 = PRODUCT ( '03797', '03797', '', ( #215 ) ) ;
#102 = LENGTH_MEASURE_WITH_UNIT ( LENGTH_MEASURE( 0.02539999999999999897 ), #194 );
#103 = MECHANICAL_DESIGN_GEOMETRIC_PRESENTATION_REPRESENTATION (  '', ( #66 ), #268 ) ;
#104 = STYLED_ITEM ( 'NONE', ( #53 ), #296 ) ;
#105 = EDGE_CURVE ( 'NONE', #260, #188, #220, .T. ) ;
#106 = SURFACE_SIDE_STYLE ('',( #14 ) ) ;
#107 = CARTESIAN_POINT ( 'NONE',  ( -0.5000000000000002220, 7.000000000000000000, 0.000000000000000000 ) ) ;
#108 = DIMENSIONAL_EXPONENTS ( 1.000000000000000000, 0.000000000000000000, 0.000000000000000000, 0.000000000000000000, 0.000000000000000000, 0.000000000000000000, 0.000000000000000000 ) ;
#109 = CIRCLE ( 'NONE', #293, 0.5000000000000000000 ) ;
#110 = ORIENTED_EDGE ( 'NONE', *, *, #200, .T. ) ;
#111 = SURFACE_STYLE_USAGE ( .BOTH. , #254 ) ;
#112 = DIRECTION ( 'NONE',  ( -4.259641040512529009E-17, 1.000000000000000000, -0.000000000000000000 ) ) ;
#113 = ORIENTED_EDGE ( 'NONE', *, *, #157, .F. ) ;
#114 =( CONVERSION_BASED_UNIT ( 'INCH', #135 ) LENGTH_UNIT ( ) NAMED_UNIT ( #167 ) );
#115 = EDGE_CURVE ( 'NONE', #23, #166, #199, .T. ) ;
#116 = CARTESIAN_POINT ( 'NONE',  ( 0.000000000000000000, 4.125000000000000000, 0.000000000000000000 ) ) ;
#117 = SURFACE_STYLE_FILL_AREA ( #209 ) ;
#118 = ORIENTED_EDGE ( 'NONE', *, *, #201, .T. ) ;
#119 = ORIENTED_EDGE ( 'NONE', *, *, #76, .T. ) ;
#120 = FILL_AREA_STYLE_COLOUR ( '', #67 ) ;
#121 = MANIFOLD_SOLID_BREP ( 'Revolve - Tool Body (Straight Shanked)', #48 ) ;
#122 = VERTEX_POINT ( 'NONE', #74 ) ;
#123 = UNCERTAINTY_MEASURE_WITH_UNIT (LENGTH_MEASURE( 1.000000000000000082E-05 ), #114, 'distance_accuracy_value', 'NONE');
#124 = CARTESIAN_POINT ( 'NONE',  ( 0.000000000000000000, 4.125000000000000000, 0.000000000000000000 ) ) ;
#125 = COLOUR_RGB ( '',0.7921568627450980005, 0.8196078431372548767, 0.9333333333333333481 ) ;
#126 = MECHANICAL_DESIGN_GEOMETRIC_PRESENTATION_REPRESENTATION (  '', ( #212 ), #93 ) ;
#127 = CARTESIAN_POINT ( 'NONE',  ( 0.000000000000000000, 0.000000000000000000, 0.000000000000000000 ) ) ;
#128 = AXIS2_PLACEMENT_3D ( 'NONE', #116, #70, #288 ) ;
#129 = PRODUCT_DEFINITION_FORMATION_WITH_SPECIFIED_SOURCE ( 'ANY', '', #101, .NOT_KNOWN. ) ;
#130 =( LENGTH_UNIT ( ) NAMED_UNIT ( * ) SI_UNIT ( $, .METRE. ) );
#131 = SURFACE_STYLE_USAGE ( .BOTH. , #187 ) ;
#132 = FILL_AREA_STYLE ('',( #1 ) ) ;
#133 = DIRECTION ( 'NONE',  ( 0.000000000000000000, 0.000000000000000000, -1.000000000000000000 ) ) ;
#134 = DIRECTION ( 'NONE',  ( -4.259641040512529009E-17, 1.000000000000000000, -0.000000000000000000 ) ) ;
#135 = LENGTH_MEASURE_WITH_UNIT ( LENGTH_MEASURE( 0.02539999999999999897 ), #130 );
#136 =( NAMED_UNIT ( * ) SI_UNIT ( $, .STERADIAN. ) SOLID_ANGLE_UNIT ( ) );
#137 = ORIENTED_EDGE ( 'NONE', *, *, #105, .F. ) ;
#138 = APPLICATION_PROTOCOL_DEFINITION ( 'draft international standard', 'automotive_design', 1998, #60 ) ;
#139 = FACE_OUTER_BOUND ( 'NONE', #78, .T. ) ;
#140 = ORIENTED_EDGE ( 'NONE', *, *, #52, .F. ) ;
#141 =( NAMED_UNIT ( * ) SI_UNIT ( $, .STERADIAN. ) SOLID_ANGLE_UNIT ( ) );
#142 = DIRECTION ( 'NONE',  ( 0.000000000000000000, 0.000000000000000000, -1.000000000000000000 ) ) ;
#143 = EDGE_CURVE ( 'NONE', #171, #43, #44, .T. ) ;
#144 = DIRECTION ( 'NONE',  ( 0.000000000000000000, -0.000000000000000000, 1.000000000000000000 ) ) ;
#145 = DIRECTION ( 'NONE',  ( -1.000000000000000000, 0.000000000000000000, 0.000000000000000000 ) ) ;
#146 = UNCERTAINTY_MEASURE_WITH_UNIT (LENGTH_MEASURE( 1.000000000000000082E-05 ), #308, 'distance_accuracy_value', 'NONE');
#147 = DIRECTION ( 'NONE',  ( -4.259641040512529009E-17, 1.000000000000000000, -0.000000000000000000 ) ) ;
#148 = CIRCLE ( 'NONE', #42, 0.5000000000000000000 ) ;
#149 =( NAMED_UNIT ( * ) PLANE_ANGLE_UNIT ( ) SI_UNIT ( $, .RADIAN. ) );
#150 = CARTESIAN_POINT ( 'NONE',  ( -1.224646799147351975E-16, 7.000000000000000000, 0.000000000000000000 ) ) ;
#151 = PLANE ( 'NONE',  #12 ) ;
#152 = AXIS2_PLACEMENT_3D ( 'NONE', #124, #61, #144 ) ;
#153 = PRESENTATION_STYLE_ASSIGNMENT (( #280 ) ) ;
#154 = DIMENSIONAL_EXPONENTS ( 1.000000000000000000, 0.000000000000000000, 0.000000000000000000, 0.000000000000000000, 0.000000000000000000, 0.000000000000000000, 0.000000000000000000 ) ;
#155 =( LENGTH_UNIT ( ) NAMED_UNIT ( * ) SI_UNIT ( $, .METRE. ) );
#156 = LENGTH_MEASURE_WITH_UNIT ( LENGTH_MEASURE( 0.02539999999999999897 ), #25 );
#157 = EDGE_CURVE ( 'NONE', #171, #23, #97, .T. ) ;
#158 = CYLINDRICAL_SURFACE ( 'NONE', #3, 0.5000000000000000000 ) ;
#159 = DIRECTION ( 'NONE',  ( 0.000000000000000000, 0.000000000000000000, -1.000000000000000000 ) ) ;
#160 = ORIENTED_EDGE ( 'NONE', *, *, #286, .F. ) ;
#161 = COLOUR_RGB ( '',0.7921568627450980005, 0.8196078431372548767, 0.9333333333333333481 ) ;
#162 = DIRECTION ( 'NONE',  ( -0.000000000000000000, -1.000000000000000000, -0.000000000000000000 ) ) ;
#163 = LINE ( 'NONE', #284, #27 ) ;
#164 = ADVANCED_FACE ( 'NONE', ( #54 ), #47, .T. ) ;
#165 = FACE_OUTER_BOUND ( 'NONE', #58, .T. ) ;
#166 = VERTEX_POINT ( 'NONE', #283 ) ;
#167 = DIMENSIONAL_EXPONENTS ( 1.000000000000000000, 0.000000000000000000, 0.000000000000000000, 0.000000000000000000, 0.000000000000000000, 0.000000000000000000, 0.000000000000000000 ) ;
#168 = CARTESIAN_POINT ( 'NONE',  ( 6.123233995736766036E-17, 0.000000000000000000, 0.5000000000000000000 ) ) ;
#169 = EDGE_LOOP ( 'NONE', ( #113, #50, #34, #214 ) ) ;
#170 = ORIENTED_EDGE ( 'NONE', *, *, #200, .F. ) ;
#171 = VERTEX_POINT ( 'NONE', #185 ) ;
#172 = UNCERTAINTY_MEASURE_WITH_UNIT (LENGTH_MEASURE( 1.000000000000000082E-05 ), #193, 'distance_accuracy_value', 'NONE');
#173 = DIRECTION ( 'NONE',  ( 0.000000000000000000, 0.000000000000000000, -1.000000000000000000 ) ) ;
#174 = FACE_OUTER_BOUND ( 'NONE', #28, .T. ) ;
#175 = MECHANICAL_DESIGN_GEOMETRIC_PRESENTATION_REPRESENTATION (  '', ( #275 ), #41 ) ;
#176 =( GEOMETRIC_REPRESENTATION_CONTEXT ( 3 ) GLOBAL_UNCERTAINTY_ASSIGNED_CONTEXT ( ( #79 ) ) GLOBAL_UNIT_ASSIGNED_CONTEXT ( ( #271, #300, #31 ) ) REPRESENTATION_CONTEXT ( 'NONE', 'WORKASPACE' ) );
#177 = DIRECTION ( 'NONE',  ( -0.000000000000000000, -1.000000000000000000, -0.000000000000000000 ) ) ;
#178 = CARTESIAN_POINT ( 'NONE',  ( -0.5000000000000000000, 4.125000000000000000, 0.000000000000000000 ) ) ;
#179 = LENGTH_MEASURE_WITH_UNIT ( LENGTH_MEASURE( 0.02539999999999999897 ), #301 );
#180 = DIRECTION ( 'NONE',  ( -4.259641040512529009E-17, 1.000000000000000000, -0.000000000000000000 ) ) ;
#181 = EDGE_CURVE ( 'NONE', #240, #122, #90, .T. ) ;
#182 =( NAMED_UNIT ( * ) PLANE_ANGLE_UNIT ( ) SI_UNIT ( $, .RADIAN. ) );
#183 = DIMENSIONAL_EXPONENTS ( 1.000000000000000000, 0.000000000000000000, 0.000000000000000000, 0.000000000000000000, 0.000000000000000000, 0.000000000000000000, 0.000000000000000000 ) ;
#184 = CYLINDRICAL_SURFACE ( 'NONE', #73, 0.5000000000000001110 ) ;
#185 = CARTESIAN_POINT ( 'NONE',  ( 0.5000000000000000000, 4.125000000000000000, 6.123233995736767268E-17 ) ) ;
#186 = CARTESIAN_POINT ( 'NONE',  ( -1.224646799147351975E-16, 7.000000000000000000, 0.000000000000000000 ) ) ;
#187 = SURFACE_SIDE_STYLE ('',( #19 ) ) ;
#188 = VERTEX_POINT ( 'NONE', #168 ) ;
#189 = ORIENTED_EDGE ( 'NONE', *, *, #157, .T. ) ;
#190 = PRODUCT_DEFINITION_SHAPE ( 'NONE', 'NONE',  #248 ) ;
#191 = PRODUCT_RELATED_PRODUCT_CATEGORY ( 'part', '', ( #101 ) ) ;
#192 = UNCERTAINTY_MEASURE_WITH_UNIT (LENGTH_MEASURE( 1.000000000000000082E-05 ), #239, 'distance_accuracy_value', 'NONE');
#193 =( CONVERSION_BASED_UNIT ( 'INCH', #277 ) LENGTH_UNIT ( ) NAMED_UNIT ( #183 ) );
#194 =( LENGTH_UNIT ( ) NAMED_UNIT ( * ) SI_UNIT ( $, .METRE. ) );
#195 = CARTESIAN_POINT ( 'NONE',  ( 0.000000000000000000, 0.000000000000000000, 0.000000000000000000 ) ) ;
#196 =( NAMED_UNIT ( * ) PLANE_ANGLE_UNIT ( ) SI_UNIT ( $, .RADIAN. ) );
#197 = VECTOR ( 'NONE', #237, 39.37007874015748143 ) ;
#198 = AXIS2_PLACEMENT_3D ( 'NONE', #15, #251, #287 ) ;
#199 = CIRCLE ( 'NONE', #282, 0.5000000000000001110 ) ;
#200 = EDGE_CURVE ( 'NONE', #122, #188, #255, .T. ) ;
#201 = EDGE_CURVE ( 'NONE', #188, #260, #302, .T. ) ;
#202 = MECHANICAL_DESIGN_GEOMETRIC_PRESENTATION_REPRESENTATION (  '', ( #88 ), #299 ) ;
#203 = CIRCLE ( 'NONE', #231, 0.5000000000000001110 ) ;
#204 = PRESENTATION_STYLE_ASSIGNMENT (( #94 ) ) ;
#205 = DIRECTION ( 'NONE',  ( -0.000000000000000000, -1.000000000000000000, -0.000000000000000000 ) ) ;
#206 = DIRECTION ( 'NONE',  ( -4.259641040512529009E-17, 1.000000000000000000, -0.000000000000000000 ) ) ;
#207 = CARTESIAN_POINT ( 'NONE',  ( 0.000000000000000000, 0.000000000000000000, 0.000000000000000000 ) ) ;
#208 = DIRECTION ( 'NONE',  ( -0.000000000000000000, -1.000000000000000000, -0.000000000000000000 ) ) ;
#209 = FILL_AREA_STYLE ('',( #266 ) ) ;
#210 = EDGE_LOOP ( 'NONE', ( #267, #118 ) ) ;
#211 = VECTOR ( 'NONE', #206, 39.37007874015748143 ) ;
#212 = STYLED_ITEM ( 'NONE', ( #153 ), #238 ) ;
#213 = PRESENTATION_STYLE_ASSIGNMENT (( #91 ) ) ;
#214 = ORIENTED_EDGE ( 'NONE', *, *, #115, .F. ) ;
#215 = PRODUCT_CONTEXT ( 'NONE', #303, 'mechanical' ) ;
#216 = PLANE ( 'NONE',  #152 ) ;
#217 = PRESENTATION_STYLE_ASSIGNMENT (( #2 ) ) ;
#218 = ADVANCED_FACE ( 'NONE', ( #165 ), #216, .T. ) ;
#219 = ORIENTED_EDGE ( 'NONE', *, *, #143, .F. ) ;
#220 = CIRCLE ( 'NONE', #99, 0.5000000000000000000 ) ;
#221 = APPLICATION_PROTOCOL_DEFINITION ( 'draft international standard', 'automotive_design', 1998, #303 ) ;
#222 =( GEOMETRIC_REPRESENTATION_CONTEXT ( 3 ) GLOBAL_UNCERTAINTY_ASSIGNED_CONTEXT ( ( #123 ) ) GLOBAL_UNIT_ASSIGNED_CONTEXT ( ( #114, #182, #236 ) ) REPRESENTATION_CONTEXT ( 'NONE', 'WORKASPACE' ) );
#223 = COLOUR_RGB ( '',1.000000000000000000, 0.000000000000000000, 0.000000000000000000 ) ;
#224 = ADVANCED_FACE ( 'NONE', ( #298 ), #57, .T. ) ;
#225 = STYLED_ITEM ( 'NONE', ( #213 ), #22 ) ;
#226 = PRESENTATION_LAYER_ASSIGNMENT (  '', '', ( #104 ) ) ;
#227 = FILL_AREA_STYLE ('',( #249 ) ) ;
#228 = ADVANCED_FACE ( 'NONE', ( #98 ), #245, .F. ) ;
#229 = CARTESIAN_POINT ( 'NONE',  ( 0.000000000000000000, 4.125000000000000000, 0.000000000000000000 ) ) ;
#230 =( CONVERSION_BASED_UNIT ( 'INCH', #156 ) LENGTH_UNIT ( ) NAMED_UNIT ( #108 ) );
#231 = AXIS2_PLACEMENT_3D ( 'NONE', #186, #134, #256 ) ;
#232 = PRESENTATION_STYLE_ASSIGNMENT (( #131 ) ) ;
#233 = ORIENTED_EDGE ( 'NONE', *, *, #201, .F. ) ;
#234 = PRESENTATION_LAYER_ASSIGNMENT (  '', '', ( #275 ) ) ;
#235 = COLOUR_RGB ( '',1.000000000000000000, 0.000000000000000000, 0.000000000000000000 ) ;
#236 =( NAMED_UNIT ( * ) SI_UNIT ( $, .STERADIAN. ) SOLID_ANGLE_UNIT ( ) );
#237 = DIRECTION ( 'NONE',  ( -0.000000000000000000, -1.000000000000000000, -0.000000000000000000 ) ) ;
#238 = ADVANCED_FACE ( 'NONE', ( #174 ), #242, .T. ) ;
#239 =( CONVERSION_BASED_UNIT ( 'INCH', #102 ) LENGTH_UNIT ( ) NAMED_UNIT ( #92 ) );
#240 = VERTEX_POINT ( 'NONE', #69 ) ;
#241 = UNCERTAINTY_MEASURE_WITH_UNIT (LENGTH_MEASURE( 1.000000000000000082E-05 ), #230, 'distance_accuracy_value', 'NONE');
#242 = CYLINDRICAL_SURFACE ( 'NONE', #198, 0.5000000000000000000 ) ;
#243 = CARTESIAN_POINT ( 'NONE',  ( 0.000000000000000000, 4.125000000000000000, 0.000000000000000000 ) ) ;
#244 = MECHANICAL_DESIGN_GEOMETRIC_PRESENTATION_REPRESENTATION (  '', ( #225 ), #62 ) ;
#245 = PLANE ( 'NONE',  #269 ) ;
#246 = PRESENTATION_LAYER_ASSIGNMENT (  '', '', ( #66 ) ) ;
#247 = VECTOR ( 'NONE', #72, 39.37007874015748143 ) ;
#248 = PRODUCT_DEFINITION ( 'UNKNOWN', '', #129, #36 ) ;
#249 = FILL_AREA_STYLE_COLOUR ( '', #125 ) ;
#250 = PRESENTATION_LAYER_ASSIGNMENT (  '', '', ( #88 ) ) ;
#251 = DIRECTION ( 'NONE',  ( -0.000000000000000000, -1.000000000000000000, -0.000000000000000000 ) ) ;
#252 =( NAMED_UNIT ( * ) PLANE_ANGLE_UNIT ( ) SI_UNIT ( $, .RADIAN. ) );
#253 = DIRECTION ( 'NONE',  ( -1.000000000000000000, 0.000000000000000000, 0.000000000000000000 ) ) ;
#254 = SURFACE_SIDE_STYLE ('',( #305 ) ) ;
#255 = LINE ( 'NONE', #49, #197 ) ;
#256 = DIRECTION ( 'NONE',  ( -1.000000000000000000, 0.000000000000000000, 0.000000000000000000 ) ) ;
#257 = AXIS2_PLACEMENT_3D ( 'NONE', #229, #208, #77 ) ;
#258 = ORIENTED_EDGE ( 'NONE', *, *, #278, .F. ) ;
#259 = DIRECTION ( 'NONE',  ( 0.000000000000000000, 0.000000000000000000, -1.000000000000000000 ) ) ;
#260 = VERTEX_POINT ( 'NONE', #46 ) ;
#261 = DIMENSIONAL_EXPONENTS ( 1.000000000000000000, 0.000000000000000000, 0.000000000000000000, 0.000000000000000000, 0.000000000000000000, 0.000000000000000000, 0.000000000000000000 ) ;
#262 = DIRECTION ( 'NONE',  ( -0.000000000000000000, -1.000000000000000000, -0.000000000000000000 ) ) ;
#263 = LENGTH_MEASURE_WITH_UNIT ( LENGTH_MEASURE( 0.02539999999999999897 ), #155 );
#264 = ORIENTED_EDGE ( 'NONE', *, *, #59, .T. ) ;
#265 = DIRECTION ( 'NONE',  ( 0.000000000000000000, -1.000000000000000000, -0.000000000000000000 ) ) ;
#266 = FILL_AREA_STYLE_COLOUR ( '', #161 ) ;
#267 = ORIENTED_EDGE ( 'NONE', *, *, #105, .T. ) ;
#268 =( GEOMETRIC_REPRESENTATION_CONTEXT ( 3 ) GLOBAL_UNCERTAINTY_ASSIGNED_CONTEXT ( ( #172 ) ) GLOBAL_UNIT_ASSIGNED_CONTEXT ( ( #193, #196, #39 ) ) REPRESENTATION_CONTEXT ( 'NONE', 'WORKASPACE' ) );
#269 = AXIS2_PLACEMENT_3D ( 'NONE', #292, #32, #81 ) ;
#270 = EDGE_LOOP ( 'NONE', ( #83, #219 ) ) ;
#271 =( CONVERSION_BASED_UNIT ( 'INCH', #291 ) LENGTH_UNIT ( ) NAMED_UNIT ( #261 ) );
#272 = SURFACE_STYLE_FILL_AREA ( #84 ) ;
#273 =( NAMED_UNIT ( * ) PLANE_ANGLE_UNIT ( ) SI_UNIT ( $, .RADIAN. ) );
#274 =( LENGTH_UNIT ( ) NAMED_UNIT ( * ) SI_UNIT ( $, .METRE. ) );
#275 = STYLED_ITEM ( 'NONE', ( #217 ), #121 ) ;
#276 = MECHANICAL_DESIGN_GEOMETRIC_PRESENTATION_REPRESENTATION (  '', ( #104 ), #222 ) ;
#277 = LENGTH_MEASURE_WITH_UNIT ( LENGTH_MEASURE( 0.02539999999999999897 ), #4 );
#278 = EDGE_CURVE ( 'NONE', #43, #166, #18, .T. ) ;
#279 = CLOSED_SHELL ( 'NONE', ( #238, #218, #296, #164 ) ) ;
#280 = SURFACE_STYLE_USAGE ( .BOTH. , #38 ) ;
#281 = DIRECTION ( 'NONE',  ( -1.000000000000000000, 0.000000000000000000, 0.000000000000000000 ) ) ;
#282 = AXIS2_PLACEMENT_3D ( 'NONE', #21, #112, #253 ) ;
#283 = CARTESIAN_POINT ( 'NONE',  ( -0.5000000000000002220, 7.000000000000000000, 0.000000000000000000 ) ) ;
#284 = CARTESIAN_POINT ( 'NONE',  ( 0.000000000000000000, 0.000000000000000000, -0.5000000000000000000 ) ) ;
#285 = FILL_AREA_STYLE_COLOUR ( '', #6 ) ;
#286 = EDGE_CURVE ( 'NONE', #240, #260, #163, .T. ) ;
#287 = DIRECTION ( 'NONE',  ( 0.000000000000000000, 0.000000000000000000, -1.000000000000000000 ) ) ;
#288 = DIRECTION ( 'NONE',  ( -1.000000000000000000, 0.000000000000000000, 0.000000000000000000 ) ) ;
#289 = ORIENTED_EDGE ( 'NONE', *, *, #115, .T. ) ;
#290 = FILL_AREA_STYLE ('',( #285 ) ) ;
#291 = LENGTH_MEASURE_WITH_UNIT ( LENGTH_MEASURE( 0.02539999999999999897 ), #274 );
#292 = CARTESIAN_POINT ( 'NONE',  ( 4.536135448504664961E-34, 4.125000000000000000, 0.000000000000000000 ) ) ;
#293 = AXIS2_PLACEMENT_3D ( 'NONE', #243, #295, #142 ) ;
#294 = ORIENTED_EDGE ( 'NONE', *, *, #181, .F. ) ;
#295 = DIRECTION ( 'NONE',  ( -0.000000000000000000, -1.000000000000000000, -0.000000000000000000 ) ) ;
#296 = ADVANCED_FACE ( 'NONE', ( #51 ), #158, .T. ) ;
#297 = DIRECTION ( 'NONE',  ( 1.000000000000000000, 0.000000000000000000, 0.000000000000000000 ) ) ;
#298 = FACE_OUTER_BOUND ( 'NONE', #20, .T. ) ;
#299 =( GEOMETRIC_REPRESENTATION_CONTEXT ( 3 ) GLOBAL_UNCERTAINTY_ASSIGNED_CONTEXT ( ( #146 ) ) GLOBAL_UNIT_ASSIGNED_CONTEXT ( ( #308, #252, #136 ) ) REPRESENTATION_CONTEXT ( 'NONE', 'WORKASPACE' ) );
#300 =( NAMED_UNIT ( * ) PLANE_ANGLE_UNIT ( ) SI_UNIT ( $, .RADIAN. ) );
#301 =( LENGTH_UNIT ( ) NAMED_UNIT ( * ) SI_UNIT ( $, .METRE. ) );
#302 = CIRCLE ( 'NONE', #82, 0.5000000000000000000 ) ;
#303 = APPLICATION_CONTEXT ( 'automotive_design' ) ;
#304 = DIRECTION ( 'NONE',  ( -4.259641040512529009E-17, 1.000000000000000000, -0.000000000000000000 ) ) ;
#305 = SURFACE_STYLE_FILL_AREA ( #132 ) ;
#306 = FACE_OUTER_BOUND ( 'NONE', #169, .T. ) ;
#307 = FILL_AREA_STYLE ('',( #17 ) ) ;
#308 =( CONVERSION_BASED_UNIT ( 'INCH', #263 ) LENGTH_UNIT ( ) NAMED_UNIT ( #154 ) );
#309 = SURFACE_SIDE_STYLE ('',( #117 ) ) ;
ENDSEC;
END-ISO-10303-21;
