ISO-10303-21;
HEADER;
FILE_DESCRIPTION (( 'STEP AP214' ),
    '1' );
FILE_NAME ('Micro_BMS-050-2X.STEP',
    '2021-09-03T15:22:22',
    ( '' ),
    ( '' ),
    'SwSTEP 2.0',
    'SolidWorks 2020',
    '' );
FILE_SCHEMA (( 'AUTOMOTIVE_DESIGN' ));
ENDSEC;

DATA;
#1 = DIRECTION ( 'NONE',  ( -0.1736481776669312194, 2.126576849575783625E-17, 0.9848077530122080203 ) ) ;
#2 =( LENGTH_UNIT ( ) NAMED_UNIT ( * ) SI_UNIT ( $, .METRE. ) );
#3 = VECTOR ( 'NONE', #264, 39.37007874015748143 ) ;
#4 = ORIENTED_EDGE ( 'NONE', *, *, #291, .F. ) ;
#5 = DIRECTION ( 'NONE',  ( -1.224646799147353454E-16, -0.0000000000000000000, -1.000000000000000000 ) ) ;
#6 = ORIENTED_EDGE ( 'NONE', *, *, #300, .F. ) ;
#7 = CARTESIAN_POINT ( 'NONE',  ( 3.058555380870515335E-18, 0.0000000000000000000, 0.02497500000000000067 ) ) ;
#8 = AXIS2_PLACEMENT_3D ( 'NONE', #265, #191, #97 ) ;
#9 = DIRECTION ( 'NONE',  ( 1.224646799147353454E-16, 0.0000000000000000000, 1.000000000000000000 ) ) ;
#10 = DIRECTION ( 'NONE',  ( -1.224646799147353454E-16, -0.0000000000000000000, -1.000000000000000000 ) ) ;
#11 = DIRECTION ( 'NONE',  ( 1.000000000000000000, 0.0000000000000000000, -0.0000000000000000000 ) ) ;
#12 = CIRCLE ( 'NONE', #86, 0.02497500000000000067 ) ;
#13 = AXIS2_PLACEMENT_3D ( 'NONE', #71, #224, #79 ) ;
#14 = DIRECTION ( 'NONE',  ( -1.000000000000000000, 0.0000000000000000000, 1.709114110150314860E-16 ) ) ;
#15 = DIRECTION ( 'NONE',  ( 1.000000000000000000, 0.0000000000000000000, 0.0000000000000000000 ) ) ;
#16 = DIRECTION ( 'NONE',  ( 0.1736481776669314137, 0.0000000000000000000, 0.9848077530122077983 ) ) ;
#17 = AXIS2_PLACEMENT_3D ( 'NONE', #69, #294, #66 ) ;
#18 = DIRECTION ( 'NONE',  ( -0.0000000000000000000, -0.0000000000000000000, -1.000000000000000000 ) ) ;
#19 = FACE_OUTER_BOUND ( 'NONE', #149, .T. ) ;
#20 = EDGE_CURVE ( 'NONE', #53, #250, #12, .T. ) ;
#21 = FACE_OUTER_BOUND ( 'NONE', #228, .T. ) ;
#22 = PRESENTATION_LAYER_ASSIGNMENT (  '', '', ( #179 ) ) ;
#23 = EDGE_LOOP ( 'NONE', ( #147, #194, #131, #82 ) ) ;
#24 = CYLINDRICAL_SURFACE ( 'NONE', #235, 0.02497500000000000067 ) ;
#25 = SHAPE_DEFINITION_REPRESENTATION ( #256, #297 ) ;
#26 = AXIS2_PLACEMENT_3D ( 'NONE', #198, #54, #133 ) ;
#27 = ORIENTED_EDGE ( 'NONE', *, *, #207, .T. ) ;
#28 = LENGTH_MEASURE_WITH_UNIT ( LENGTH_MEASURE( 0.02539999999999999897 ), #218 );
#29 = ORIENTED_EDGE ( 'NONE', *, *, #163, .T. ) ;
#30 = ORIENTED_EDGE ( 'NONE', *, *, #232, .T. ) ;
#31 =( CONVERSION_BASED_UNIT ( 'INCH', #258 ) LENGTH_UNIT ( ) NAMED_UNIT ( #110 ) );
#32 = MECHANICAL_DESIGN_GEOMETRIC_PRESENTATION_REPRESENTATION (  '', ( #241 ), #159 ) ;
#33 = APPLICATION_CONTEXT ( 'automotive_design' ) ;
#34 = FACE_OUTER_BOUND ( 'NONE', #220, .T. ) ;
#35 = EDGE_CURVE ( 'NONE', #322, #255, #146, .T. ) ;
#36 = DIRECTION ( 'NONE',  ( -0.0000000000000000000, -0.0000000000000000000, -1.000000000000000000 ) ) ;
#37 = ADVANCED_FACE ( 'NONE', ( #101 ), #24, .T. ) ;
#38 = CARTESIAN_POINT ( 'NONE',  ( 0.0000000000000000000, 0.0000000000000000000, 1.500000000000000222 ) ) ;
#39 = CIRCLE ( 'NONE', #211, 0.06250000000000000000 ) ;
#40 = FACE_OUTER_BOUND ( 'NONE', #172, .T. ) ;
#41 = CARTESIAN_POINT ( 'NONE',  ( 0.02497500000000001108, 0.0000000000000000000, 0.07499999999999999722 ) ) ;
#42 = FACE_OUTER_BOUND ( 'NONE', #193, .T. ) ;
#43 = ORIENTED_EDGE ( 'NONE', *, *, #154, .F. ) ;
#44 = CIRCLE ( 'NONE', #145, 0.02497500000000000067 ) ;
#45 = CARTESIAN_POINT ( 'NONE',  ( 0.06250000000000000000, 7.654042494670956004E-18, 1.485000000000000764 ) ) ;
#46 = CARTESIAN_POINT ( 'NONE',  ( 0.02497500000000000414, 3.058555380870514950E-18, 0.02497499999999999720 ) ) ;
#47 = ADVANCED_FACE ( 'NONE', ( #178 ), #323, .T. ) ;
#48 = CYLINDRICAL_SURFACE ( 'NONE', #102, 0.06250000000000000000 ) ;
#49 = CIRCLE ( 'NONE', #128, 0.02497500000000000067 ) ;
#50 = DIRECTION ( 'NONE',  ( 0.0000000000000000000, -1.000000000000000000, 0.0000000000000000000 ) ) ;
#51 =( CONVERSION_BASED_UNIT ( 'INCH', #28 ) LENGTH_UNIT ( ) NAMED_UNIT ( #230 ) );
#52 = EDGE_LOOP ( 'NONE', ( #271, #130 ) ) ;
#53 = VERTEX_POINT ( 'NONE', #316 ) ;
#54 = DIRECTION ( 'NONE',  ( 0.0000000000000000000, 0.0000000000000000000, -1.000000000000000000 ) ) ;
#55 = ADVANCED_FACE ( 'NONE', ( #34 ), #231, .T. ) ;
#56 = EDGE_CURVE ( 'NONE', #322, #310, #233, .T. ) ;
#57 = FILL_AREA_STYLE ('',( #282 ) ) ;
#58 = ORIENTED_EDGE ( 'NONE', *, *, #169, .T. ) ;
#59 = EDGE_CURVE ( 'NONE', #279, #275, #157, .T. ) ;
#60 = CONICAL_SURFACE ( 'NONE', #305, 0.04750000000000064587, 0.7853981633974457255 ) ;
#61 = DIRECTION ( 'NONE',  ( -1.000000000000000000, 0.0000000000000000000, 0.0000000000000000000 ) ) ;
#62 = CARTESIAN_POINT ( 'NONE',  ( 0.0000000000000000000, 0.0000000000000000000, 1.500000000000000222 ) ) ;
#63 = LINE ( 'NONE', #290, #136 ) ;
#64 = AXIS2_PLACEMENT_3D ( 'NONE', #246, #124, #186 ) ;
#65 = CARTESIAN_POINT ( 'NONE',  ( 0.0000000000000000000, 0.0000000000000000000, 1.500000000000000222 ) ) ;
#66 = DIRECTION ( 'NONE',  ( 1.000000000000000000, 0.0000000000000000000, 0.0000000000000000000 ) ) ;
#67 = CARTESIAN_POINT ( 'NONE',  ( 0.0000000000000000000, 0.0000000000000000000, 1.500000000000000222 ) ) ;
#68 = VECTOR ( 'NONE', #10, 39.37007874015748143 ) ;
#69 = CARTESIAN_POINT ( 'NONE',  ( 3.058555380870515335E-18, 0.0000000000000000000, 0.02497500000000000067 ) ) ;
#70 = EDGE_CURVE ( 'NONE', #279, #227, #248, .T. ) ;
#71 = CARTESIAN_POINT ( 'NONE',  ( 0.0000000000000000000, 0.0000000000000000000, 1.500000000000000222 ) ) ;
#72 = EDGE_LOOP ( 'NONE', ( #277, #29, #192, #176 ) ) ;
#73 = EDGE_CURVE ( 'NONE', #250, #310, #44, .T. ) ;
#74 = PRESENTATION_LAYER_ASSIGNMENT (  '', '', ( #241 ) ) ;
#75 = ORIENTED_EDGE ( 'NONE', *, *, #207, .F. ) ;
#76 =( NAMED_UNIT ( * ) PLANE_ANGLE_UNIT ( ) SI_UNIT ( $, .RADIAN. ) );
#77 = EDGE_LOOP ( 'NONE', ( #283, #252, #120, #244 ) ) ;
#78 = APPLICATION_CONTEXT ( 'automotive_design' ) ;
#79 = DIRECTION ( 'NONE',  ( 1.000000000000000000, 0.0000000000000000000, 0.0000000000000000000 ) ) ;
#80 = ORIENTED_EDGE ( 'NONE', *, *, #85, .F. ) ;
#81 =( NAMED_UNIT ( * ) SI_UNIT ( $, .STERADIAN. ) SOLID_ANGLE_UNIT ( ) );
#82 = ORIENTED_EDGE ( 'NONE', *, *, #115, .F. ) ;
#83 = CARTESIAN_POINT ( 'NONE',  ( 0.02497500000000000067, 3.058555380870514950E-18, -3.058555380870515335E-18 ) ) ;
#84 = CARTESIAN_POINT ( 'NONE',  ( 0.0000000000000000000, 0.0000000000000000000, 1.485000000000000764 ) ) ;
#85 = EDGE_CURVE ( 'NONE', #275, #213, #313, .T. ) ;
#86 = AXIS2_PLACEMENT_3D ( 'NONE', #7, #50, #223 ) ;
#87 = CIRCLE ( 'NONE', #268, 0.06250000000000000000 ) ;
#88 = CARTESIAN_POINT ( 'NONE',  ( 0.06250000000000000000, 7.654042494670956004E-18, 1.500000000000000222 ) ) ;
#89 = PRESENTATION_STYLE_ASSIGNMENT (( #181 ) ) ;
#90 =( LENGTH_UNIT ( ) NAMED_UNIT ( * ) SI_UNIT ( $, .METRE. ) );
#91 = CARTESIAN_POINT ( 'NONE',  ( 0.02497500000000001108, 0.0000000000000000000, 0.07499999999999999722 ) ) ;
#92 = AXIS2_PLACEMENT_3D ( 'NONE', #164, #299, #140 ) ;
#93 = CARTESIAN_POINT ( 'NONE',  ( 0.04750000000000064587, 6.735557395310482421E-18, 1.500000000000000222 ) ) ;
#94 = DIRECTION ( 'NONE',  ( 0.0000000000000000000, 0.0000000000000000000, -1.000000000000000000 ) ) ;
#95 = ORIENTED_EDGE ( 'NONE', *, *, #232, .F. ) ;
#96 = ADVANCED_FACE ( 'NONE', ( #40 ), #60, .T. ) ;
#97 = DIRECTION ( 'NONE',  ( -1.000000000000000000, 0.0000000000000000000, 0.0000000000000000000 ) ) ;
#98 = AXIS2_PLACEMENT_3D ( 'NONE', #185, #289, #182 ) ;
#99 = DIRECTION ( 'NONE',  ( 1.000000000000000000, 0.0000000000000000000, 0.0000000000000000000 ) ) ;
#100 = APPLICATION_PROTOCOL_DEFINITION ( 'draft international standard', 'automotive_design', 1998, #78 ) ;
#101 = FACE_OUTER_BOUND ( 'NONE', #72, .T. ) ;
#102 = AXIS2_PLACEMENT_3D ( 'NONE', #65, #302, #170 ) ;
#103 = AXIS2_PLACEMENT_3D ( 'NONE', #292, #9, #14 ) ;
#104 = PRESENTATION_STYLE_ASSIGNMENT (( #199 ) ) ;
#105 = CARTESIAN_POINT ( 'NONE',  ( 0.0000000000000000000, 0.0000000000000000000, 0.0000000000000000000 ) ) ;
#106 = DIRECTION ( 'NONE',  ( -1.000000000000000000, 0.0000000000000000000, 1.224646799147353454E-16 ) ) ;
#107 = ORIENTED_EDGE ( 'NONE', *, *, #201, .T. ) ;
#108 = CONICAL_SURFACE ( 'NONE', #314, 0.02497500000000000067, 0.1745329251994339192 ) ;
#109 = CARTESIAN_POINT ( 'NONE',  ( 0.04750000000000064587, 5.817072295950006528E-18, 1.500000000000000222 ) ) ;
#110 = DIMENSIONAL_EXPONENTS ( 1.000000000000000000, 0.0000000000000000000, 0.0000000000000000000, 0.0000000000000000000, 0.0000000000000000000, 0.0000000000000000000, 0.0000000000000000000 ) ;
#111 = FACE_OUTER_BOUND ( 'NONE', #52, .T. ) ;
#112 = DIRECTION ( 'NONE',  ( 1.000000000000000000, 0.0000000000000000000, 0.0000000000000000000 ) ) ;
#113 = AXIS2_PLACEMENT_3D ( 'NONE', #117, #210, #317 ) ;
#114 = LINE ( 'NONE', #83, #173 ) ;
#115 = EDGE_CURVE ( 'NONE', #278, #255, #203, .T. ) ;
#116 = SURFACE_STYLE_FILL_AREA ( #158 ) ;
#117 = CARTESIAN_POINT ( 'NONE',  ( 3.058555380870515335E-18, 0.0000000000000000000, 0.02497500000000000067 ) ) ;
#118 = PRODUCT_RELATED_PRODUCT_CATEGORY ( 'part', '', ( #272 ) ) ;
#119 = DIRECTION ( 'NONE',  ( 1.000000000000000000, 0.0000000000000000000, 0.0000000000000000000 ) ) ;
#120 = ORIENTED_EDGE ( 'NONE', *, *, #154, .T. ) ;
#121 = CIRCLE ( 'NONE', #113, 0.02497500000000000067 ) ;
#122 = DIRECTION ( 'NONE',  ( -1.000000000000000000, 0.0000000000000000000, 0.0000000000000000000 ) ) ;
#123 = CYLINDRICAL_SURFACE ( 'NONE', #298, 0.06250000000000000000 ) ;
#124 = DIRECTION ( 'NONE',  ( 1.224646799147353454E-16, 0.0000000000000000000, 1.000000000000000000 ) ) ;
#125 = CARTESIAN_POINT ( 'NONE',  ( 0.0000000000000000000, 0.0000000000000000000, 0.0000000000000000000 ) ) ;
#126 = CARTESIAN_POINT ( 'NONE',  ( -0.02497499999999999373, 3.058555380870514950E-18, 0.07499999999999999722 ) ) ;
#127 = ORIENTED_EDGE ( 'NONE', *, *, #35, .F. ) ;
#128 = AXIS2_PLACEMENT_3D ( 'NONE', #245, #187, #190 ) ;
#129 =( CONVERSION_BASED_UNIT ( 'INCH', #197 ) LENGTH_UNIT ( ) NAMED_UNIT ( #284 ) );
#130 = ORIENTED_EDGE ( 'NONE', *, *, #70, .T. ) ;
#131 = ORIENTED_EDGE ( 'NONE', *, *, #222, .F. ) ;
#132 = EDGE_LOOP ( 'NONE', ( #127, #6, #27, #144 ) ) ;
#133 = DIRECTION ( 'NONE',  ( -1.000000000000000000, 0.0000000000000000000, 0.0000000000000000000 ) ) ;
#134 = CARTESIAN_POINT ( 'NONE',  ( 3.058555380870515335E-18, 0.0000000000000000000, 0.02497500000000000067 ) ) ;
#135 = DIRECTION ( 'NONE',  ( 0.0000000000000000000, 0.0000000000000000000, 1.000000000000000000 ) ) ;
#136 = VECTOR ( 'NONE', #238, 39.37007874015748143 ) ;
#137 = CARTESIAN_POINT ( 'NONE',  ( -0.02497500000000000067, 0.0000000000000000000, 3.058555380870515335E-18 ) ) ;
#138 = DIRECTION ( 'NONE',  ( 0.7071067811865456854, 8.659560562354911904E-17, -0.7071067811865493491 ) ) ;
#139 = DIRECTION ( 'NONE',  ( -1.224646799147353454E-16, -0.0000000000000000000, -1.000000000000000000 ) ) ;
#140 = DIRECTION ( 'NONE',  ( -1.000000000000000000, 0.0000000000000000000, 1.224646799147353454E-16 ) ) ;
#141 = AXIS2_PLACEMENT_3D ( 'NONE', #259, #139, #99 ) ;
#142 = LINE ( 'NONE', #41, #229 ) ;
#143 = ADVANCED_FACE ( 'NONE', ( #111 ), #184, .T. ) ;
#144 = ORIENTED_EDGE ( 'NONE', *, *, #209, .T. ) ;
#145 = AXIS2_PLACEMENT_3D ( 'NONE', #134, #204, #261 ) ;
#146 = LINE ( 'NONE', #126, #166 ) ;
#147 = ORIENTED_EDGE ( 'NONE', *, *, #308, .T. ) ;
#148 = PRODUCT_CONTEXT ( 'NONE', #78, 'mechanical' ) ;
#149 = EDGE_LOOP ( 'NONE', ( #304, #200, #307, #58 ) ) ;
#150 = CIRCLE ( 'NONE', #13, 0.04750000000000064587 ) ;
#151 =( GEOMETRIC_REPRESENTATION_CONTEXT ( 3 ) GLOBAL_UNCERTAINTY_ASSIGNED_CONTEXT ( ( #239 ) ) GLOBAL_UNIT_ASSIGNED_CONTEXT ( ( #51, #177, #254 ) ) REPRESENTATION_CONTEXT ( 'NONE', 'WORKASPACE' ) );
#152 = ORIENTED_EDGE ( 'NONE', *, *, #115, .T. ) ;
#153 = ORIENTED_EDGE ( 'NONE', *, *, #308, .F. ) ;
#154 = EDGE_CURVE ( 'NONE', #227, #278, #63, .T. ) ;
#155 = CARTESIAN_POINT ( 'NONE',  ( -0.06250000000000000000, 0.0000000000000000000, 1.500000000000000222 ) ) ;
#156 =( NAMED_UNIT ( * ) PLANE_ANGLE_UNIT ( ) SI_UNIT ( $, .RADIAN. ) );
#157 = LINE ( 'NONE', #109, #242 ) ;
#158 = FILL_AREA_STYLE ('',( #312 ) ) ;
#159 =( GEOMETRIC_REPRESENTATION_CONTEXT ( 3 ) GLOBAL_UNCERTAINTY_ASSIGNED_CONTEXT ( ( #189 ) ) GLOBAL_UNIT_ASSIGNED_CONTEXT ( ( #31, #156, #215 ) ) REPRESENTATION_CONTEXT ( 'NONE', 'WORKASPACE' ) );
#160 = DIRECTION ( 'NONE',  ( 0.0000000000000000000, 0.0000000000000000000, -1.000000000000000000 ) ) ;
#161 = UNCERTAINTY_MEASURE_WITH_UNIT (LENGTH_MEASURE( 1.000000000000000082E-05 ), #129, 'distance_accuracy_value', 'NONE');
#162 = SPHERICAL_SURFACE ( 'NONE', #17, 0.02497500000000000067 ) ;
#163 = EDGE_CURVE ( 'NONE', #267, #250, #114, .T. ) ;
#164 = CARTESIAN_POINT ( 'NONE',  ( 0.0000000000000000000, 0.0000000000000000000, 0.0000000000000000000 ) ) ;
#165 = CARTESIAN_POINT ( 'NONE',  ( 9.184850993605148746E-18, 0.0000000000000000000, 0.07499999999999999722 ) ) ;
#166 = VECTOR ( 'NONE', #1, 39.37007874015747433 ) ;
#167 = CIRCLE ( 'NONE', #206, 0.06250000000000000000 ) ;
#168 = DIRECTION ( 'NONE',  ( -1.224646799147353454E-16, -0.0000000000000000000, -1.000000000000000000 ) ) ;
#169 = EDGE_CURVE ( 'NONE', #310, #250, #280, .T. ) ;
#170 = DIRECTION ( 'NONE',  ( -1.000000000000000000, 0.0000000000000000000, 0.0000000000000000000 ) ) ;
#171 = SURFACE_STYLE_FILL_AREA ( #57 ) ;
#172 = EDGE_LOOP ( 'NONE', ( #180, #225, #153, #43 ) ) ;
#173 = VECTOR ( 'NONE', #237, 39.37007874015748143 ) ;
#174 = SURFACE_SIDE_STYLE ('',( #171 ) ) ;
#175 = ORIENTED_EDGE ( 'NONE', *, *, #73, .F. ) ;
#176 = ORIENTED_EDGE ( 'NONE', *, *, #56, .F. ) ;
#177 =( NAMED_UNIT ( * ) PLANE_ANGLE_UNIT ( ) SI_UNIT ( $, .RADIAN. ) );
#178 = FACE_OUTER_BOUND ( 'NONE', #77, .T. ) ;
#179 = STYLED_ITEM ( 'NONE', ( #104 ), #297 ) ;
#180 = ORIENTED_EDGE ( 'NONE', *, *, #70, .F. ) ;
#181 = SURFACE_STYLE_USAGE ( .BOTH. , #315 ) ;
#182 = DIRECTION ( 'NONE',  ( 1.000000000000000000, 0.0000000000000000000, 0.0000000000000000000 ) ) ;
#183 = CIRCLE ( 'NONE', #8, 0.02497500000000000067 ) ;
#184 = PLANE ( 'NONE',  #236 ) ;
#185 = CARTESIAN_POINT ( 'NONE',  ( 3.058555380870515335E-18, 0.0000000000000000000, 0.02497500000000000067 ) ) ;
#186 = DIRECTION ( 'NONE',  ( 1.000000000000000000, 0.0000000000000000000, 0.0000000000000000000 ) ) ;
#187 = DIRECTION ( 'NONE',  ( -1.224646799147353454E-16, -0.0000000000000000000, -1.000000000000000000 ) ) ;
#188 = DIRECTION ( 'NONE',  ( 1.000000000000000000, 0.0000000000000000000, 0.0000000000000000000 ) ) ;
#189 = UNCERTAINTY_MEASURE_WITH_UNIT (LENGTH_MEASURE( 1.000000000000000082E-05 ), #31, 'distance_accuracy_value', 'NONE');
#190 = DIRECTION ( 'NONE',  ( -1.000000000000000000, 0.0000000000000000000, 0.0000000000000000000 ) ) ;
#191 = DIRECTION ( 'NONE',  ( -1.224646799147353454E-16, -0.0000000000000000000, -1.000000000000000000 ) ) ;
#192 = ORIENTED_EDGE ( 'NONE', *, *, #73, .T. ) ;
#193 = EDGE_LOOP ( 'NONE', ( #4, #257, #247, #75 ) ) ;
#194 = ORIENTED_EDGE ( 'NONE', *, *, #85, .T. ) ;
#195 = VECTOR ( 'NONE', #36, 39.37007874015748143 ) ;
#196 = ORIENTED_EDGE ( 'NONE', *, *, #209, .F. ) ;
#197 = LENGTH_MEASURE_WITH_UNIT ( LENGTH_MEASURE( 0.02539999999999999897 ), #2 );
#198 = CARTESIAN_POINT ( 'NONE',  ( 0.0000000000000000000, 0.0000000000000000000, 1.500000000000000222 ) ) ;
#199 = SURFACE_STYLE_USAGE ( .BOTH. , #174 ) ;
#200 = ORIENTED_EDGE ( 'NONE', *, *, #300, .T. ) ;
#201 = EDGE_CURVE ( 'NONE', #275, #278, #39, .T. ) ;
#202 = CLOSED_SHELL ( 'NONE', ( #55, #37, #221, #96, #303, #262, #143, #47, #281, #301, #285 ) ) ;
#203 = LINE ( 'NONE', #155, #3 ) ;
#204 = DIRECTION ( 'NONE',  ( 1.224646799147353454E-16, 0.0000000000000000000, 1.000000000000000000 ) ) ;
#205 = MANIFOLD_SOLID_BREP ( 'Fillet1', #202 ) ;
#206 = AXIS2_PLACEMENT_3D ( 'NONE', #214, #94, #188 ) ;
#207 = EDGE_CURVE ( 'NONE', #267, #213, #142, .T. ) ;
#208 = DIRECTION ( 'NONE',  ( 1.000000000000000000, 0.0000000000000000000, 0.0000000000000000000 ) ) ;
#209 = EDGE_CURVE ( 'NONE', #213, #255, #216, .T. ) ;
#210 = DIRECTION ( 'NONE',  ( 1.224646799147353207E-16, 1.000000000000000000, -0.0000000000000000000 ) ) ;
#211 = AXIS2_PLACEMENT_3D ( 'NONE', #84, #160, #208 ) ;
#212 = CARTESIAN_POINT ( 'NONE',  ( -0.06250000000000000000, 0.0000000000000000000, 1.485000000000000764 ) ) ;
#213 = VERTEX_POINT ( 'NONE', #324 ) ;
#214 = CARTESIAN_POINT ( 'NONE',  ( 0.0000000000000000000, 0.0000000000000000000, 1.485000000000000764 ) ) ;
#215 =( NAMED_UNIT ( * ) SI_UNIT ( $, .STERADIAN. ) SOLID_ANGLE_UNIT ( ) );
#216 = CIRCLE ( 'NONE', #141, 0.06250000000000000000 ) ;
#217 = MECHANICAL_DESIGN_GEOMETRIC_PRESENTATION_REPRESENTATION (  '', ( #179 ), #151 ) ;
#218 =( LENGTH_UNIT ( ) NAMED_UNIT ( * ) SI_UNIT ( $, .METRE. ) );
#219 = DIRECTION ( 'NONE',  ( 0.0000000000000000000, 0.0000000000000000000, 1.000000000000000000 ) ) ;
#220 = EDGE_LOOP ( 'NONE', ( #249, #30, #175 ) ) ;
#221 = ADVANCED_FACE ( 'NONE', ( #42 ), #108, .T. ) ;
#222 = EDGE_CURVE ( 'NONE', #255, #213, #87, .T. ) ;
#223 = DIRECTION ( 'NONE',  ( 0.0000000000000000000, 0.0000000000000000000, -1.000000000000000000 ) ) ;
#224 = DIRECTION ( 'NONE',  ( 0.0000000000000000000, 0.0000000000000000000, 1.000000000000000000 ) ) ;
#225 = ORIENTED_EDGE ( 'NONE', *, *, #59, .T. ) ;
#226 = DIRECTION ( 'NONE',  ( 1.000000000000000000, 0.0000000000000000000, 0.0000000000000000000 ) ) ;
#227 = VERTEX_POINT ( 'NONE', #319 ) ;
#228 = EDGE_LOOP ( 'NONE', ( #80, #107, #152, #196 ) ) ;
#229 = VECTOR ( 'NONE', #16, 39.37007874015748143 ) ;
#230 = DIMENSIONAL_EXPONENTS ( 1.000000000000000000, 0.0000000000000000000, 0.0000000000000000000, 0.0000000000000000000, 0.0000000000000000000, 0.0000000000000000000, 0.0000000000000000000 ) ;
#231 = SPHERICAL_SURFACE ( 'NONE', #98, 0.02497500000000000067 ) ;
#232 = EDGE_CURVE ( 'NONE', #53, #310, #121, .T. ) ;
#233 = LINE ( 'NONE', #137, #68 ) ;
#234 = DIRECTION ( 'NONE',  ( 0.0000000000000000000, 0.0000000000000000000, -1.000000000000000000 ) ) ;
#235 = AXIS2_PLACEMENT_3D ( 'NONE', #105, #5, #106 ) ;
#236 = AXIS2_PLACEMENT_3D ( 'NONE', #62, #135, #11 ) ;
#237 = DIRECTION ( 'NONE',  ( -1.224646799147353454E-16, -0.0000000000000000000, -1.000000000000000000 ) ) ;
#238 = DIRECTION ( 'NONE',  ( -0.7071067811865456854, 0.0000000000000000000, -0.7071067811865493491 ) ) ;
#239 = UNCERTAINTY_MEASURE_WITH_UNIT (LENGTH_MEASURE( 1.000000000000000082E-05 ), #51, 'distance_accuracy_value', 'NONE');
#240 = CARTESIAN_POINT ( 'NONE',  ( -0.06249999999999996531, 0.0000000000000000000, 0.2878148502811532783 ) ) ;
#241 = STYLED_ITEM ( 'NONE', ( #89 ), #205 ) ;
#242 = VECTOR ( 'NONE', #138, 39.37007874015748143 ) ;
#243 = FACE_OUTER_BOUND ( 'NONE', #23, .T. ) ;
#244 = ORIENTED_EDGE ( 'NONE', *, *, #201, .F. ) ;
#245 = CARTESIAN_POINT ( 'NONE',  ( 9.184850993605148746E-18, 0.0000000000000000000, 0.07499999999999999722 ) ) ;
#246 = CARTESIAN_POINT ( 'NONE',  ( 9.184850993605148746E-18, 0.0000000000000000000, 0.07499999999999999722 ) ) ;
#247 = ORIENTED_EDGE ( 'NONE', *, *, #222, .T. ) ;
#248 = CIRCLE ( 'NONE', #287, 0.04750000000000064587 ) ;
#249 = ORIENTED_EDGE ( 'NONE', *, *, #20, .F. ) ;
#250 = VERTEX_POINT ( 'NONE', #46 ) ;
#251 = APPLICATION_PROTOCOL_DEFINITION ( 'draft international standard', 'automotive_design', 1998, #33 ) ;
#252 = ORIENTED_EDGE ( 'NONE', *, *, #325, .F. ) ;
#253 = CONICAL_SURFACE ( 'NONE', #64, 0.02497500000000000067, 0.1745329251994339192 ) ;
#254 =( NAMED_UNIT ( * ) SI_UNIT ( $, .STERADIAN. ) SOLID_ANGLE_UNIT ( ) );
#255 = VERTEX_POINT ( 'NONE', #240 ) ;
#256 = PRODUCT_DEFINITION_SHAPE ( 'NONE', 'NONE',  #276 ) ;
#257 = ORIENTED_EDGE ( 'NONE', *, *, #35, .T. ) ;
#258 = LENGTH_MEASURE_WITH_UNIT ( LENGTH_MEASURE( 0.02539999999999999897 ), #90 );
#259 = CARTESIAN_POINT ( 'NONE',  ( 3.524715351438891718E-17, 0.0000000000000000000, 0.2878148502811532783 ) ) ;
#260 = DIRECTION ( 'NONE',  ( 0.0000000000000000000, 0.0000000000000000000, 1.000000000000000000 ) ) ;
#261 = DIRECTION ( 'NONE',  ( -1.000000000000000000, 0.0000000000000000000, 1.709114110150314860E-16 ) ) ;
#262 = ADVANCED_FACE ( 'NONE', ( #21 ), #48, .T. ) ;
#263 = AXIS2_PLACEMENT_3D ( 'NONE', #125, #219, #226 ) ;
#264 = DIRECTION ( 'NONE',  ( -0.0000000000000000000, -0.0000000000000000000, -1.000000000000000000 ) ) ;
#265 = CARTESIAN_POINT ( 'NONE',  ( 9.184850993605148746E-18, 0.0000000000000000000, 0.07499999999999999722 ) ) ;
#266 = DIRECTION ( 'NONE',  ( 1.224646799147353454E-16, 0.0000000000000000000, 1.000000000000000000 ) ) ;
#267 = VERTEX_POINT ( 'NONE', #91 ) ;
#268 = AXIS2_PLACEMENT_3D ( 'NONE', #321, #168, #119 ) ;
#269 = FACE_OUTER_BOUND ( 'NONE', #306, .T. ) ;
#270 = PRODUCT_DEFINITION_CONTEXT ( 'detailed design', #33, 'design' ) ;
#271 = ORIENTED_EDGE ( 'NONE', *, *, #325, .T. ) ;
#272 = PRODUCT ( 'Micro_BMS-050-2X', 'Micro_BMS-050-2X', '', ( #148 ) ) ;
#273 = FACE_OUTER_BOUND ( 'NONE', #132, .T. ) ;
#274 = CARTESIAN_POINT ( 'NONE',  ( -0.02497499999999999373, 5.356298937770736247E-18, 0.07499999999999999722 ) ) ;
#275 = VERTEX_POINT ( 'NONE', #45 ) ;
#276 = PRODUCT_DEFINITION ( 'UNKNOWN', '', #288, #270 ) ;
#277 = ORIENTED_EDGE ( 'NONE', *, *, #291, .T. ) ;
#278 = VERTEX_POINT ( 'NONE', #212 ) ;
#279 = VERTEX_POINT ( 'NONE', #93 ) ;
#280 = CIRCLE ( 'NONE', #103, 0.02497500000000000067 ) ;
#281 = ADVANCED_FACE ( 'NONE', ( #273 ), #253, .T. ) ;
#282 = FILL_AREA_STYLE_COLOUR ( '', #311 ) ;
#283 = ORIENTED_EDGE ( 'NONE', *, *, #59, .F. ) ;
#284 = DIMENSIONAL_EXPONENTS ( 1.000000000000000000, 0.0000000000000000000, 0.0000000000000000000, 0.0000000000000000000, 0.0000000000000000000, 0.0000000000000000000, 0.0000000000000000000 ) ;
#285 = ADVANCED_FACE ( 'NONE', ( #269 ), #162, .T. ) ;
#286 = CARTESIAN_POINT ( 'NONE',  ( 0.0000000000000000000, 0.0000000000000000000, 1.500000000000000222 ) ) ;
#287 = AXIS2_PLACEMENT_3D ( 'NONE', #38, #260, #112 ) ;
#288 = PRODUCT_DEFINITION_FORMATION_WITH_SPECIFIED_SOURCE ( 'ANY', '', #272, .NOT_KNOWN. ) ;
#289 = DIRECTION ( 'NONE',  ( 0.0000000000000000000, 1.000000000000000000, 0.0000000000000000000 ) ) ;
#290 = CARTESIAN_POINT ( 'NONE',  ( -0.04750000000000064587, 0.0000000000000000000, 1.500000000000000222 ) ) ;
#291 = EDGE_CURVE ( 'NONE', #322, #267, #183, .T. ) ;
#292 = CARTESIAN_POINT ( 'NONE',  ( 3.058555380870515335E-18, 0.0000000000000000000, 0.02497500000000000067 ) ) ;
#293 = COLOUR_RGB ( '',0.7921568627450980005, 0.8196078431372548767, 0.9333333333333333481 ) ;
#294 = DIRECTION ( 'NONE',  ( 0.0000000000000000000, 1.000000000000000000, 0.0000000000000000000 ) ) ;
#295 = CARTESIAN_POINT ( 'NONE',  ( -0.02497499999999999720, 0.0000000000000000000, 0.02497500000000000414 ) ) ;
#296 = ORIENTED_EDGE ( 'NONE', *, *, #169, .F. ) ;
#297 = ADVANCED_BREP_SHAPE_REPRESENTATION ( 'Micro_BMS-050-2X', ( #205, #263 ), #318 ) ;
#298 = AXIS2_PLACEMENT_3D ( 'NONE', #67, #18, #122 ) ;
#299 = DIRECTION ( 'NONE',  ( -1.224646799147353454E-16, -0.0000000000000000000, -1.000000000000000000 ) ) ;
#300 = EDGE_CURVE ( 'NONE', #267, #322, #49, .T. ) ;
#301 = ADVANCED_FACE ( 'NONE', ( #19 ), #320, .T. ) ;
#302 = DIRECTION ( 'NONE',  ( -0.0000000000000000000, -0.0000000000000000000, -1.000000000000000000 ) ) ;
#303 = ADVANCED_FACE ( 'NONE', ( #243 ), #123, .T. ) ;
#304 = ORIENTED_EDGE ( 'NONE', *, *, #163, .F. ) ;
#305 = AXIS2_PLACEMENT_3D ( 'NONE', #286, #234, #61 ) ;
#306 = EDGE_LOOP ( 'NONE', ( #95, #309, #296 ) ) ;
#307 = ORIENTED_EDGE ( 'NONE', *, *, #56, .T. ) ;
#308 = EDGE_CURVE ( 'NONE', #278, #275, #167, .T. ) ;
#309 = ORIENTED_EDGE ( 'NONE', *, *, #20, .T. ) ;
#310 = VERTEX_POINT ( 'NONE', #295 ) ;
#311 = COLOUR_RGB ( '',0.7921568627450980005, 0.8196078431372548767, 0.9333333333333333481 ) ;
#312 = FILL_AREA_STYLE_COLOUR ( '', #293 ) ;
#313 = LINE ( 'NONE', #88, #195 ) ;
#314 = AXIS2_PLACEMENT_3D ( 'NONE', #165, #266, #15 ) ;
#315 = SURFACE_SIDE_STYLE ('',( #116 ) ) ;
#316 = CARTESIAN_POINT ( 'NONE',  ( 4.587833071305773195E-18, 0.0000000000000000000, 0.0000000000000000000 ) ) ;
#317 = DIRECTION ( 'NONE',  ( -1.000000000000000000, 1.224646799147353207E-16, 0.0000000000000000000 ) ) ;
#318 =( GEOMETRIC_REPRESENTATION_CONTEXT ( 3 ) GLOBAL_UNCERTAINTY_ASSIGNED_CONTEXT ( ( #161 ) ) GLOBAL_UNIT_ASSIGNED_CONTEXT ( ( #129, #76, #81 ) ) REPRESENTATION_CONTEXT ( 'NONE', 'WORKASPACE' ) );
#319 = CARTESIAN_POINT ( 'NONE',  ( -0.04750000000000064587, 0.0000000000000000000, 1.500000000000000222 ) ) ;
#320 = CYLINDRICAL_SURFACE ( 'NONE', #92, 0.02497500000000000067 ) ;
#321 = CARTESIAN_POINT ( 'NONE',  ( 3.524715351438891718E-17, 0.0000000000000000000, 0.2878148502811532783 ) ) ;
#322 = VERTEX_POINT ( 'NONE', #274 ) ;
#323 = CONICAL_SURFACE ( 'NONE', #26, 0.04750000000000064587, 0.7853981633974457255 ) ;
#324 = CARTESIAN_POINT ( 'NONE',  ( 0.06250000000000002776, 7.654042494670959086E-18, 0.2878148502811532783 ) ) ;
#325 = EDGE_CURVE ( 'NONE', #227, #279, #150, .T. ) ;
ENDSEC;
END-ISO-10303-21;
