ISO-10303-21;
HEADER;
FILE_DESCRIPTION (( 'STEP AP214' ),
    '1' );
FILE_NAME ('82566.STEP',
    '2023-06-23T06:21:53',
    ( '' ),
    ( '' ),
    'SwSTEP 2.0',
    'SolidWorks 2023',
    '' );
FILE_SCHEMA (( 'AUTOMOTIVE_DESIGN' ));
ENDSEC;

DATA;
#1 = AXIS2_PLACEMENT_3D ( 'NONE', #50, #263, #253 ) ;
#2 = EDGE_CURVE ( 'NONE', #214, #206, #64, .T. ) ;
#3 = ORIENTED_EDGE ( 'NONE', *, *, #51, .F. ) ;
#4 = DIRECTION ( 'NONE',  ( -1.000000000000000000, 0.000000000000000000, 0.000000000000000000 ) ) ;
#5 = CYLINDRICAL_SURFACE ( 'NONE', #101, 0.1875000000000000278 ) ;
#6 = EDGE_CURVE ( 'NONE', #53, #103, #287, .T. ) ;
#7 = DIRECTION ( 'NONE',  ( 0.000000000000000000, 0.000000000000000000, 1.000000000000000000 ) ) ;
#8 = AXIS2_PLACEMENT_3D ( 'NONE', #60, #181, #45 ) ;
#9 = CARTESIAN_POINT ( 'NONE',  ( 1.147775343873872857E-34, 0.7500000000000001110, 0.000000000000000000 ) ) ;
#10 = ORIENTED_EDGE ( 'NONE', *, *, #72, .T. ) ;
#11 = UNCERTAINTY_MEASURE_WITH_UNIT (LENGTH_MEASURE( 1.000000000000000082E-05 ), #198, 'distance_accuracy_value', 'NONE');
#12 = CARTESIAN_POINT ( 'NONE',  ( 0.000000000000000000, 0.7500000000000001110, 0.000000000000000000 ) ) ;
#13 = AXIS2_PLACEMENT_3D ( 'NONE', #37, #190, #141 ) ;
#14 = MECHANICAL_DESIGN_GEOMETRIC_PRESENTATION_REPRESENTATION (  '', ( #19 ), #291 ) ;
#15 = SURFACE_SIDE_STYLE ('',( #225 ) ) ;
#16 = DIRECTION ( 'NONE',  ( 3.498990854706726443E-17, 1.000000000000000000, -0.000000000000000000 ) ) ;
#17 = VERTEX_POINT ( 'NONE', #85 ) ;
#18 = SURFACE_STYLE_USAGE ( .BOTH. , #175 ) ;
#19 = STYLED_ITEM ( 'NONE', ( #73 ), #267 ) ;
#20 =( NAMED_UNIT ( * ) PLANE_ANGLE_UNIT ( ) SI_UNIT ( $, .RADIAN. ) );
#21 = LINE ( 'NONE', #297, #231 ) ;
#22 = DIRECTION ( 'NONE',  ( -1.000000000000000000, 0.000000000000000000, 0.000000000000000000 ) ) ;
#23 = DIMENSIONAL_EXPONENTS ( 1.000000000000000000, 0.000000000000000000, 0.000000000000000000, 0.000000000000000000, 0.000000000000000000, 0.000000000000000000, 0.000000000000000000 ) ;
#24 = VERTEX_POINT ( 'NONE', #187 ) ;
#25 = CARTESIAN_POINT ( 'NONE',  ( 0.000000000000000000, 0.7499999999999998890, 0.000000000000000000 ) ) ;
#26 =( GEOMETRIC_REPRESENTATION_CONTEXT ( 3 ) GLOBAL_UNCERTAINTY_ASSIGNED_CONTEXT ( ( #121 ) ) GLOBAL_UNIT_ASSIGNED_CONTEXT ( ( #83, #130, #257 ) ) REPRESENTATION_CONTEXT ( 'NONE', 'WORKASPACE' ) );
#27 =( NAMED_UNIT ( * ) SI_UNIT ( $, .STERADIAN. ) SOLID_ANGLE_UNIT ( ) );
#28 = DIMENSIONAL_EXPONENTS ( 1.000000000000000000, 0.000000000000000000, 0.000000000000000000, 0.000000000000000000, 0.000000000000000000, 0.000000000000000000, 0.000000000000000000 ) ;
#29 = AXIS2_PLACEMENT_3D ( 'NONE', #277, #108, #44 ) ;
#30 = ORIENTED_EDGE ( 'NONE', *, *, #72, .F. ) ;
#31 = APPLICATION_PROTOCOL_DEFINITION ( 'draft international standard', 'automotive_design', 1998, #105 ) ;
#32 = EDGE_CURVE ( 'NONE', #53, #24, #107, .T. ) ;
#33 = EDGE_LOOP ( 'NONE', ( #284, #259, #70, #216 ) ) ;
#34 = PRESENTATION_STYLE_ASSIGNMENT (( #238 ) ) ;
#35 = EDGE_LOOP ( 'NONE', ( #236, #113, #301, #135 ) ) ;
#36 =( NAMED_UNIT ( * ) SI_UNIT ( $, .STERADIAN. ) SOLID_ANGLE_UNIT ( ) );
#37 = CARTESIAN_POINT ( 'NONE',  ( 0.000000000000000000, 0.7500000000000001110, 0.000000000000000000 ) ) ;
#38 = PRODUCT ( '82566', '82566', '', ( #88 ) ) ;
#39 = PRODUCT_DEFINITION_CONTEXT ( 'detailed design', #105, 'design' ) ;
#40 = FILL_AREA_STYLE ('',( #142 ) ) ;
#41 = SURFACE_STYLE_FILL_AREA ( #250 ) ;
#42 = AXIS2_PLACEMENT_3D ( 'NONE', #131, #112, #58 ) ;
#43 = DIMENSIONAL_EXPONENTS ( 1.000000000000000000, 0.000000000000000000, 0.000000000000000000, 0.000000000000000000, 0.000000000000000000, 0.000000000000000000, 0.000000000000000000 ) ;
#44 = DIRECTION ( 'NONE',  ( 0.000000000000000000, 0.000000000000000000, -1.000000000000000000 ) ) ;
#45 = DIRECTION ( 'NONE',  ( 0.000000000000000000, 0.000000000000000000, -1.000000000000000000 ) ) ;
#46 =( NAMED_UNIT ( * ) SI_UNIT ( $, .STERADIAN. ) SOLID_ANGLE_UNIT ( ) );
#47 =( GEOMETRIC_REPRESENTATION_CONTEXT ( 3 ) GLOBAL_UNCERTAINTY_ASSIGNED_CONTEXT ( ( #184 ) ) GLOBAL_UNIT_ASSIGNED_CONTEXT ( ( #256, #20, #27 ) ) REPRESENTATION_CONTEXT ( 'NONE', 'WORKASPACE' ) );
#48 = LINE ( 'NONE', #228, #150 ) ;
#49 = CARTESIAN_POINT ( 'NONE',  ( 6.123233995736772199E-17, 2.500000000000000000, 0.000000000000000000 ) ) ;
#50 = CARTESIAN_POINT ( 'NONE',  ( 0.1875000000000000278, 2.500000000000000000, 0.000000000000000000 ) ) ;
#51 = EDGE_CURVE ( 'NONE', #91, #17, #167, .T. ) ;
#52 = FILL_AREA_STYLE ('',( #261 ) ) ;
#53 = VERTEX_POINT ( 'NONE', #193 ) ;
#54 =( CONVERSION_BASED_UNIT ( 'INCH', #68 ) LENGTH_UNIT ( ) NAMED_UNIT ( #23 ) );
#55 = LENGTH_MEASURE_WITH_UNIT ( LENGTH_MEASURE( 0.02539999999999999897 ), #92 );
#56 = PRESENTATION_LAYER_ASSIGNMENT (  '', '', ( #19 ) ) ;
#57 = DIRECTION ( 'NONE',  ( 0.000000000000000000, 1.000000000000000000, 0.000000000000000000 ) ) ;
#58 = DIRECTION ( 'NONE',  ( -1.000000000000000000, 0.000000000000000000, 0.000000000000000000 ) ) ;
#59 = AXIS2_PLACEMENT_3D ( 'NONE', #152, #99, #296 ) ;
#60 = CARTESIAN_POINT ( 'NONE',  ( 0.000000000000000000, 0.000000000000000000, 0.000000000000000000 ) ) ;
#61 = STYLED_ITEM ( 'NONE', ( #34 ), #199 ) ;
#62 = EDGE_LOOP ( 'NONE', ( #10, #192, #278, #164 ) ) ;
#63 = DIRECTION ( 'NONE',  ( 0.000000000000000000, 0.000000000000000000, -1.000000000000000000 ) ) ;
#64 = CIRCLE ( 'NONE', #244, 0.1875000000000000278 ) ;
#65 = DIRECTION ( 'NONE',  ( 3.498990854706726443E-17, 1.000000000000000000, -0.000000000000000000 ) ) ;
#66 = MECHANICAL_DESIGN_GEOMETRIC_PRESENTATION_REPRESENTATION (  '', ( #100 ), #288 ) ;
#67 = ORIENTED_EDGE ( 'NONE', *, *, #32, .T. ) ;
#68 = LENGTH_MEASURE_WITH_UNIT ( LENGTH_MEASURE( 0.02539999999999999897 ), #265 );
#69 = EDGE_CURVE ( 'NONE', #103, #138, #207, .T. ) ;
#70 = ORIENTED_EDGE ( 'NONE', *, *, #241, .T. ) ;
#71 = AXIS2_PLACEMENT_3D ( 'NONE', #25, #104, #179 ) ;
#72 = EDGE_CURVE ( 'NONE', #17, #91, #155, .T. ) ;
#73 = PRESENTATION_STYLE_ASSIGNMENT (( #251 ) ) ;
#74 = MECHANICAL_DESIGN_GEOMETRIC_PRESENTATION_REPRESENTATION (  '', ( #61 ), #128 ) ;
#75 = MECHANICAL_DESIGN_GEOMETRIC_PRESENTATION_REPRESENTATION (  '', ( #79 ), #122 ) ;
#76 = LENGTH_MEASURE_WITH_UNIT ( LENGTH_MEASURE( 0.02539999999999999897 ), #183 );
#77 = PRODUCT_DEFINITION_FORMATION_WITH_SPECIFIED_SOURCE ( 'ANY', '', #38, .NOT_KNOWN. ) ;
#78 = ORIENTED_EDGE ( 'NONE', *, *, #224, .T. ) ;
#79 = STYLED_ITEM ( 'NONE', ( #119 ), #186 ) ;
#80 = ORIENTED_EDGE ( 'NONE', *, *, #195, .T. ) ;
#81 = PRODUCT_DEFINITION_SHAPE ( 'NONE', 'NONE',  #132 ) ;
#82 = PRODUCT_RELATED_PRODUCT_CATEGORY ( 'part', '', ( #38 ) ) ;
#83 =( CONVERSION_BASED_UNIT ( 'INCH', #299 ) LENGTH_UNIT ( ) NAMED_UNIT ( #123 ) );
#84 = DIRECTION ( 'NONE',  ( -0.000000000000000000, -1.000000000000000000, -0.000000000000000000 ) ) ;
#85 = CARTESIAN_POINT ( 'NONE',  ( 0.000000000000000000, 0.7500000000000001110, -0.1875000000000000278 ) ) ;
#86 =( CONVERSION_BASED_UNIT ( 'INCH', #55 ) LENGTH_UNIT ( ) NAMED_UNIT ( #303 ) );
#87 = COLOUR_RGB ( '',1.000000000000000000, 0.000000000000000000, 0.000000000000000000 ) ;
#88 = PRODUCT_CONTEXT ( 'NONE', #245, 'mechanical' ) ;
#89 = SURFACE_STYLE_FILL_AREA ( #220 ) ;
#90 = EDGE_CURVE ( 'NONE', #138, #24, #272, .T. ) ;
#91 = VERTEX_POINT ( 'NONE', #126 ) ;
#92 =( LENGTH_UNIT ( ) NAMED_UNIT ( * ) SI_UNIT ( $, .METRE. ) );
#93 = CYLINDRICAL_SURFACE ( 'NONE', #59, 0.1874999999999999722 ) ;
#94 = AXIS2_PLACEMENT_3D ( 'NONE', #49, #200, #22 ) ;
#95 = DIRECTION ( 'NONE',  ( 0.000000000000000000, -0.000000000000000000, 1.000000000000000000 ) ) ;
#96 = SURFACE_STYLE_FILL_AREA ( #40 ) ;
#97 = DIRECTION ( 'NONE',  ( -0.000000000000000000, -1.000000000000000000, -0.000000000000000000 ) ) ;
#98 = SURFACE_STYLE_USAGE ( .BOTH. , #15 ) ;
#99 = DIRECTION ( 'NONE',  ( 3.498990854706726443E-17, 1.000000000000000000, -0.000000000000000000 ) ) ;
#100 = STYLED_ITEM ( 'NONE', ( #120 ), #260 ) ;
#101 = AXIS2_PLACEMENT_3D ( 'NONE', #285, #290, #63 ) ;
#102 = PRESENTATION_STYLE_ASSIGNMENT (( #18 ) ) ;
#103 = VERTEX_POINT ( 'NONE', #229 ) ;
#104 = DIRECTION ( 'NONE',  ( 3.498990854706726443E-17, 1.000000000000000000, -0.000000000000000000 ) ) ;
#105 = APPLICATION_CONTEXT ( 'automotive_design' ) ;
#106 =( NAMED_UNIT ( * ) SI_UNIT ( $, .STERADIAN. ) SOLID_ANGLE_UNIT ( ) );
#107 = LINE ( 'NONE', #286, #127 ) ;
#108 = DIRECTION ( 'NONE',  ( 0.000000000000000000, -1.000000000000000000, -0.000000000000000000 ) ) ;
#109 = FILL_AREA_STYLE_COLOUR ( '', #134 ) ;
#110 = CARTESIAN_POINT ( 'NONE',  ( -0.1874999999999999167, 2.500000000000000000, 0.000000000000000000 ) ) ;
#111 = PRESENTATION_STYLE_ASSIGNMENT (( #307 ) ) ;
#112 = DIRECTION ( 'NONE',  ( 3.498990854706726443E-17, 1.000000000000000000, -0.000000000000000000 ) ) ;
#113 = ORIENTED_EDGE ( 'NONE', *, *, #6, .T. ) ;
#114 = AXIS2_PLACEMENT_3D ( 'NONE', #140, #162, #166 ) ;
#115 = SURFACE_SIDE_STYLE ('',( #89 ) ) ;
#116 = ADVANCED_BREP_SHAPE_REPRESENTATION ( '82566', ( #203, #199, #276 ), #26 ) ;
#117 = SURFACE_SIDE_STYLE ('',( #242 ) ) ;
#118 = UNCERTAINTY_MEASURE_WITH_UNIT (LENGTH_MEASURE( 1.000000000000000082E-05 ), #205, 'distance_accuracy_value', 'NONE');
#119 = PRESENTATION_STYLE_ASSIGNMENT (( #219 ) ) ;
#120 = PRESENTATION_STYLE_ASSIGNMENT (( #98 ) ) ;
#121 = UNCERTAINTY_MEASURE_WITH_UNIT (LENGTH_MEASURE( 1.000000000000000082E-05 ), #83, 'distance_accuracy_value', 'NONE');
#122 =( GEOMETRIC_REPRESENTATION_CONTEXT ( 3 ) GLOBAL_UNCERTAINTY_ASSIGNED_CONTEXT ( ( #308 ) ) GLOBAL_UNIT_ASSIGNED_CONTEXT ( ( #54, #221, #36 ) ) REPRESENTATION_CONTEXT ( 'NONE', 'WORKASPACE' ) );
#123 = DIMENSIONAL_EXPONENTS ( 1.000000000000000000, 0.000000000000000000, 0.000000000000000000, 0.000000000000000000, 0.000000000000000000, 0.000000000000000000, 0.000000000000000000 ) ;
#124 = FILL_AREA_STYLE ('',( #109 ) ) ;
#125 = COLOUR_RGB ( '',0.7921568627450980005, 0.8196078431372548767, 0.9333333333333333481 ) ;
#126 = CARTESIAN_POINT ( 'NONE',  ( 2.296212748401287726E-17, 0.7500000000000001110, 0.1875000000000000278 ) ) ;
#127 = VECTOR ( 'NONE', #65, 39.37007874015748143 ) ;
#128 =( GEOMETRIC_REPRESENTATION_CONTEXT ( 3 ) GLOBAL_UNCERTAINTY_ASSIGNED_CONTEXT ( ( #177 ) ) GLOBAL_UNIT_ASSIGNED_CONTEXT ( ( #86, #215, #165 ) ) REPRESENTATION_CONTEXT ( 'NONE', 'WORKASPACE' ) );
#129 = ORIENTED_EDGE ( 'NONE', *, *, #2, .T. ) ;
#130 =( NAMED_UNIT ( * ) PLANE_ANGLE_UNIT ( ) SI_UNIT ( $, .RADIAN. ) );
#131 = CARTESIAN_POINT ( 'NONE',  ( 6.123233995736772199E-17, 2.500000000000000000, 0.000000000000000000 ) ) ;
#132 = PRODUCT_DEFINITION ( 'UNKNOWN', '', #77, #39 ) ;
#133 = CARTESIAN_POINT ( 'NONE',  ( 0.000000000000000000, 0.7500000000000001110, 0.000000000000000000 ) ) ;
#134 = COLOUR_RGB ( '',0.7921568627450980005, 0.8196078431372548767, 0.9333333333333333481 ) ;
#135 = ORIENTED_EDGE ( 'NONE', *, *, #224, .F. ) ;
#136 = FACE_OUTER_BOUND ( 'NONE', #62, .T. ) ;
#137 = EDGE_CURVE ( 'NONE', #103, #53, #227, .T. ) ;
#138 = VERTEX_POINT ( 'NONE', #281 ) ;
#139 = EDGE_LOOP ( 'NONE', ( #283, #159 ) ) ;
#140 = CARTESIAN_POINT ( 'NONE',  ( 0.000000000000000000, 0.000000000000000000, 0.000000000000000000 ) ) ;
#141 = DIRECTION ( 'NONE',  ( 0.000000000000000000, 0.000000000000000000, -1.000000000000000000 ) ) ;
#142 = FILL_AREA_STYLE_COLOUR ( '', #189 ) ;
#143 = UNCERTAINTY_MEASURE_WITH_UNIT (LENGTH_MEASURE( 1.000000000000000082E-05 ), #295, 'distance_accuracy_value', 'NONE');
#144 = AXIS2_PLACEMENT_3D ( 'NONE', #271, #16, #4 ) ;
#145 = AXIS2_PLACEMENT_3D ( 'NONE', #12, #57, #95 ) ;
#146 = FACE_OUTER_BOUND ( 'NONE', #235, .T. ) ;
#147 = PLANE ( 'NONE',  #29 ) ;
#148 = CYLINDRICAL_SURFACE ( 'NONE', #8, 0.1875000000000000278 ) ;
#149 = FILL_AREA_STYLE_COLOUR ( '', #87 ) ;
#150 = VECTOR ( 'NONE', #302, 39.37007874015748143 ) ;
#151 =( GEOMETRIC_REPRESENTATION_CONTEXT ( 3 ) GLOBAL_UNCERTAINTY_ASSIGNED_CONTEXT ( ( #118 ) ) GLOBAL_UNIT_ASSIGNED_CONTEXT ( ( #205, #280, #46 ) ) REPRESENTATION_CONTEXT ( 'NONE', 'WORKASPACE' ) );
#152 = CARTESIAN_POINT ( 'NONE',  ( 6.123233995736772199E-17, 2.500000000000000000, 0.000000000000000000 ) ) ;
#153 = CARTESIAN_POINT ( 'NONE',  ( 6.123233995736772199E-17, 2.500000000000000000, 0.000000000000000000 ) ) ;
#154 = CARTESIAN_POINT ( 'NONE',  ( 0.000000000000000000, 0.000000000000000000, 0.000000000000000000 ) ) ;
#155 = CIRCLE ( 'NONE', #223, 0.1875000000000000278 ) ;
#156 =( LENGTH_UNIT ( ) NAMED_UNIT ( * ) SI_UNIT ( $, .METRE. ) );
#157 = DIRECTION ( 'NONE',  ( 3.498990854706726443E-17, 1.000000000000000000, -0.000000000000000000 ) ) ;
#158 = DIRECTION ( 'NONE',  ( 1.000000000000000000, 0.000000000000000000, 0.000000000000000000 ) ) ;
#159 = ORIENTED_EDGE ( 'NONE', *, *, #6, .F. ) ;
#160 = FACE_OUTER_BOUND ( 'NONE', #194, .T. ) ;
#161 = CLOSED_SHELL ( 'NONE', ( #186, #260, #201, #267 ) ) ;
#162 = DIRECTION ( 'NONE',  ( -0.000000000000000000, -1.000000000000000000, -0.000000000000000000 ) ) ;
#163 = PRESENTATION_LAYER_ASSIGNMENT (  '', '', ( #61 ) ) ;
#164 = ORIENTED_EDGE ( 'NONE', *, *, #241, .F. ) ;
#165 =( NAMED_UNIT ( * ) SI_UNIT ( $, .STERADIAN. ) SOLID_ANGLE_UNIT ( ) );
#166 = DIRECTION ( 'NONE',  ( 0.000000000000000000, 0.000000000000000000, -1.000000000000000000 ) ) ;
#167 = CIRCLE ( 'NONE', #13, 0.1875000000000000278 ) ;
#168 = PRESENTATION_LAYER_ASSIGNMENT (  '', '', ( #266 ) ) ;
#169 = PLANE ( 'NONE',  #191 ) ;
#170 = FACE_OUTER_BOUND ( 'NONE', #33, .T. ) ;
#171 = DIRECTION ( 'NONE',  ( 0.000000000000000000, 0.000000000000000000, -1.000000000000000000 ) ) ;
#172 = STYLED_ITEM ( 'NONE', ( #111 ), #203 ) ;
#173 = VECTOR ( 'NONE', #211, 39.37007874015748143 ) ;
#174 = PLANE ( 'NONE',  #145 ) ;
#175 = SURFACE_SIDE_STYLE ('',( #96 ) ) ;
#176 =( LENGTH_UNIT ( ) NAMED_UNIT ( * ) SI_UNIT ( $, .METRE. ) );
#177 = UNCERTAINTY_MEASURE_WITH_UNIT (LENGTH_MEASURE( 1.000000000000000082E-05 ), #86, 'distance_accuracy_value', 'NONE');
#178 = COLOUR_RGB ( '',1.000000000000000000, 0.000000000000000000, 0.000000000000000000 ) ;
#179 = DIRECTION ( 'NONE',  ( -1.000000000000000000, 0.000000000000000000, 0.000000000000000000 ) ) ;
#180 = DIMENSIONAL_EXPONENTS ( 1.000000000000000000, 0.000000000000000000, 0.000000000000000000, 0.000000000000000000, 0.000000000000000000, 0.000000000000000000, 0.000000000000000000 ) ;
#181 = DIRECTION ( 'NONE',  ( -0.000000000000000000, -1.000000000000000000, -0.000000000000000000 ) ) ;
#182 = ADVANCED_FACE ( 'NONE', ( #234 ), #169, .F. ) ;
#183 =( LENGTH_UNIT ( ) NAMED_UNIT ( * ) SI_UNIT ( $, .METRE. ) );
#184 = UNCERTAINTY_MEASURE_WITH_UNIT (LENGTH_MEASURE( 1.000000000000000082E-05 ), #256, 'distance_accuracy_value', 'NONE');
#185 = EDGE_LOOP ( 'NONE', ( #188, #67, #262, #233 ) ) ;
#186 = ADVANCED_FACE ( 'NONE', ( #136 ), #5, .T. ) ;
#187 = CARTESIAN_POINT ( 'NONE',  ( 0.1875000000000000278, 2.500000000000000000, 2.296212748401287109E-17 ) ) ;
#188 = ORIENTED_EDGE ( 'NONE', *, *, #137, .T. ) ;
#189 = COLOUR_RGB ( '',1.000000000000000000, 0.000000000000000000, 0.000000000000000000 ) ;
#190 = DIRECTION ( 'NONE',  ( -0.000000000000000000, -1.000000000000000000, -0.000000000000000000 ) ) ;
#191 = AXIS2_PLACEMENT_3D ( 'NONE', #9, #239, #217 ) ;
#192 = ORIENTED_EDGE ( 'NONE', *, *, #293, .T. ) ;
#193 = CARTESIAN_POINT ( 'NONE',  ( 0.1875000000000000278, 0.7499999999999998890, 2.296212748401287109E-17 ) ) ;
#194 = EDGE_LOOP ( 'NONE', ( #218, #78 ) ) ;
#195 = EDGE_CURVE ( 'NONE', #206, #214, #305, .T. ) ;
#196 = SURFACE_SIDE_STYLE ('',( #41 ) ) ;
#197 = LENGTH_MEASURE_WITH_UNIT ( LENGTH_MEASURE( 0.02539999999999999897 ), #292 );
#198 =( CONVERSION_BASED_UNIT ( 'INCH', #273 ) LENGTH_UNIT ( ) NAMED_UNIT ( #180 ) );
#199 = MANIFOLD_SOLID_BREP ( 'Revolve - Tool Body (Straight Shanked)', #204 ) ;
#200 = DIRECTION ( 'NONE',  ( 3.498990854706726443E-17, 1.000000000000000000, -0.000000000000000000 ) ) ;
#201 = ADVANCED_FACE ( 'NONE', ( #170 ), #148, .T. ) ;
#202 = SURFACE_SIDE_STYLE ('',( #210 ) ) ;
#203 = MANIFOLD_SOLID_BREP ( 'Revolve - Cutting Edge', #161 ) ;
#204 = CLOSED_SHELL ( 'NONE', ( #300, #182, #252, #243 ) ) ;
#205 =( CONVERSION_BASED_UNIT ( 'INCH', #76 ) LENGTH_UNIT ( ) NAMED_UNIT ( #28 ) );
#206 = VERTEX_POINT ( 'NONE', #247 ) ;
#207 = LINE ( 'NONE', #110, #173 ) ;
#208 = AXIS2_PLACEMENT_3D ( 'NONE', #153, #157, #254 ) ;
#209 = CYLINDRICAL_SURFACE ( 'NONE', #94, 0.1874999999999999722 ) ;
#210 = SURFACE_STYLE_FILL_AREA ( #124 ) ;
#211 = DIRECTION ( 'NONE',  ( 3.498990854706726443E-17, 1.000000000000000000, -0.000000000000000000 ) ) ;
#212 = FACE_OUTER_BOUND ( 'NONE', #35, .T. ) ;
#213 = SHAPE_DEFINITION_REPRESENTATION ( #81, #116 ) ;
#214 = VERTEX_POINT ( 'NONE', #237 ) ;
#215 =( NAMED_UNIT ( * ) PLANE_ANGLE_UNIT ( ) SI_UNIT ( $, .RADIAN. ) );
#216 = ORIENTED_EDGE ( 'NONE', *, *, #195, .F. ) ;
#217 = DIRECTION ( 'NONE',  ( -1.000000000000000000, 3.498990854706726443E-17, 0.000000000000000000 ) ) ;
#218 = ORIENTED_EDGE ( 'NONE', *, *, #90, .T. ) ;
#219 = SURFACE_STYLE_USAGE ( .BOTH. , #115 ) ;
#220 = FILL_AREA_STYLE ('',( #289 ) ) ;
#221 =( NAMED_UNIT ( * ) PLANE_ANGLE_UNIT ( ) SI_UNIT ( $, .RADIAN. ) );
#222 =( NAMED_UNIT ( * ) SI_UNIT ( $, .STERADIAN. ) SOLID_ANGLE_UNIT ( ) );
#223 = AXIS2_PLACEMENT_3D ( 'NONE', #133, #84, #279 ) ;
#224 = EDGE_CURVE ( 'NONE', #24, #138, #270, .T. ) ;
#225 = SURFACE_STYLE_FILL_AREA ( #226 ) ;
#226 = FILL_AREA_STYLE ('',( #149 ) ) ;
#227 = CIRCLE ( 'NONE', #71, 0.1875000000000000278 ) ;
#228 = CARTESIAN_POINT ( 'NONE',  ( 2.296212748401287726E-17, 0.000000000000000000, 0.1875000000000000278 ) ) ;
#229 = CARTESIAN_POINT ( 'NONE',  ( -0.1875000000000000278, 0.7499999999999998890, 0.000000000000000000 ) ) ;
#230 = FACE_OUTER_BOUND ( 'NONE', #185, .T. ) ;
#231 = VECTOR ( 'NONE', #232, 39.37007874015748143 ) ;
#232 = DIRECTION ( 'NONE',  ( -0.000000000000000000, -1.000000000000000000, -0.000000000000000000 ) ) ;
#233 = ORIENTED_EDGE ( 'NONE', *, *, #69, .F. ) ;
#234 = FACE_OUTER_BOUND ( 'NONE', #139, .T. ) ;
#235 = EDGE_LOOP ( 'NONE', ( #30, #3 ) ) ;
#236 = ORIENTED_EDGE ( 'NONE', *, *, #32, .F. ) ;
#237 = CARTESIAN_POINT ( 'NONE',  ( 0.000000000000000000, 0.000000000000000000, -0.1875000000000000278 ) ) ;
#238 = SURFACE_STYLE_USAGE ( .BOTH. , #117 ) ;
#239 = DIRECTION ( 'NONE',  ( 3.498990854706726443E-17, 1.000000000000000000, -0.000000000000000000 ) ) ;
#240 = MECHANICAL_DESIGN_GEOMETRIC_PRESENTATION_REPRESENTATION (  '', ( #172 ), #151 ) ;
#241 = EDGE_CURVE ( 'NONE', #17, #214, #21, .T. ) ;
#242 = SURFACE_STYLE_FILL_AREA ( #52 ) ;
#243 = ADVANCED_FACE ( 'NONE', ( #160 ), #294, .F. ) ;
#244 = AXIS2_PLACEMENT_3D ( 'NONE', #154, #97, #171 ) ;
#245 = APPLICATION_CONTEXT ( 'automotive_design' ) ;
#246 = MECHANICAL_DESIGN_GEOMETRIC_PRESENTATION_REPRESENTATION (  '', ( #266 ), #47 ) ;
#247 = CARTESIAN_POINT ( 'NONE',  ( 2.296212748401287726E-17, 0.000000000000000000, 0.1875000000000000278 ) ) ;
#248 =( NAMED_UNIT ( * ) PLANE_ANGLE_UNIT ( ) SI_UNIT ( $, .RADIAN. ) );
#249 = PRESENTATION_LAYER_ASSIGNMENT (  '', '', ( #79 ) ) ;
#250 = FILL_AREA_STYLE ('',( #269 ) ) ;
#251 = SURFACE_STYLE_USAGE ( .BOTH. , #196 ) ;
#252 = ADVANCED_FACE ( 'NONE', ( #212 ), #93, .T. ) ;
#253 = DIRECTION ( 'NONE',  ( 1.000000000000000000, -3.498990854706726443E-17, 0.000000000000000000 ) ) ;
#254 = DIRECTION ( 'NONE',  ( -1.000000000000000000, 0.000000000000000000, 0.000000000000000000 ) ) ;
#255 = PRESENTATION_LAYER_ASSIGNMENT (  '', '', ( #172 ) ) ;
#256 =( CONVERSION_BASED_UNIT ( 'INCH', #304 ) LENGTH_UNIT ( ) NAMED_UNIT ( #43 ) );
#257 =( NAMED_UNIT ( * ) SI_UNIT ( $, .STERADIAN. ) SOLID_ANGLE_UNIT ( ) );
#258 = CARTESIAN_POINT ( 'NONE',  ( 0.000000000000000000, 0.000000000000000000, 0.000000000000000000 ) ) ;
#259 = ORIENTED_EDGE ( 'NONE', *, *, #51, .T. ) ;
#260 = ADVANCED_FACE ( 'NONE', ( #146 ), #174, .T. ) ;
#261 = FILL_AREA_STYLE_COLOUR ( '', #125 ) ;
#262 = ORIENTED_EDGE ( 'NONE', *, *, #90, .F. ) ;
#263 = DIRECTION ( 'NONE',  ( -3.498990854706726443E-17, -1.000000000000000000, 0.000000000000000000 ) ) ;
#264 = EDGE_LOOP ( 'NONE', ( #129, #80 ) ) ;
#265 =( LENGTH_UNIT ( ) NAMED_UNIT ( * ) SI_UNIT ( $, .METRE. ) );
#266 = STYLED_ITEM ( 'NONE', ( #102 ), #201 ) ;
#267 = ADVANCED_FACE ( 'NONE', ( #268 ), #147, .T. ) ;
#268 = FACE_OUTER_BOUND ( 'NONE', #264, .T. ) ;
#269 = FILL_AREA_STYLE_COLOUR ( '', #178 ) ;
#270 = CIRCLE ( 'NONE', #42, 0.1874999999999999445 ) ;
#271 = CARTESIAN_POINT ( 'NONE',  ( 0.000000000000000000, 0.7499999999999998890, 0.000000000000000000 ) ) ;
#272 = CIRCLE ( 'NONE', #208, 0.1874999999999999445 ) ;
#273 = LENGTH_MEASURE_WITH_UNIT ( LENGTH_MEASURE( 0.02539999999999999897 ), #176 );
#274 =( NAMED_UNIT ( * ) PLANE_ANGLE_UNIT ( ) SI_UNIT ( $, .RADIAN. ) );
#275 = DIMENSIONAL_EXPONENTS ( 1.000000000000000000, 0.000000000000000000, 0.000000000000000000, 0.000000000000000000, 0.000000000000000000, 0.000000000000000000, 0.000000000000000000 ) ;
#276 = AXIS2_PLACEMENT_3D ( 'NONE', #258, #7, #158 ) ;
#277 = CARTESIAN_POINT ( 'NONE',  ( 0.000000000000000000, 0.000000000000000000, 0.000000000000000000 ) ) ;
#278 = ORIENTED_EDGE ( 'NONE', *, *, #2, .F. ) ;
#279 = DIRECTION ( 'NONE',  ( 0.000000000000000000, 0.000000000000000000, -1.000000000000000000 ) ) ;
#280 =( NAMED_UNIT ( * ) PLANE_ANGLE_UNIT ( ) SI_UNIT ( $, .RADIAN. ) );
#281 = CARTESIAN_POINT ( 'NONE',  ( -0.1874999999999998890, 2.500000000000000000, 0.000000000000000000 ) ) ;
#282 = PRESENTATION_LAYER_ASSIGNMENT (  '', '', ( #100 ) ) ;
#283 = ORIENTED_EDGE ( 'NONE', *, *, #137, .F. ) ;
#284 = ORIENTED_EDGE ( 'NONE', *, *, #293, .F. ) ;
#285 = CARTESIAN_POINT ( 'NONE',  ( 0.000000000000000000, 0.000000000000000000, 0.000000000000000000 ) ) ;
#286 = CARTESIAN_POINT ( 'NONE',  ( 0.1875000000000000555, 2.500000000000000000, 2.296212748401286801E-17 ) ) ;
#287 = CIRCLE ( 'NONE', #144, 0.1875000000000000278 ) ;
#288 =( GEOMETRIC_REPRESENTATION_CONTEXT ( 3 ) GLOBAL_UNCERTAINTY_ASSIGNED_CONTEXT ( ( #11 ) ) GLOBAL_UNIT_ASSIGNED_CONTEXT ( ( #198, #274, #222 ) ) REPRESENTATION_CONTEXT ( 'NONE', 'WORKASPACE' ) );
#289 = FILL_AREA_STYLE_COLOUR ( '', #298 ) ;
#290 = DIRECTION ( 'NONE',  ( -0.000000000000000000, -1.000000000000000000, -0.000000000000000000 ) ) ;
#291 =( GEOMETRIC_REPRESENTATION_CONTEXT ( 3 ) GLOBAL_UNCERTAINTY_ASSIGNED_CONTEXT ( ( #143 ) ) GLOBAL_UNIT_ASSIGNED_CONTEXT ( ( #295, #248, #106 ) ) REPRESENTATION_CONTEXT ( 'NONE', 'WORKASPACE' ) );
#292 =( LENGTH_UNIT ( ) NAMED_UNIT ( * ) SI_UNIT ( $, .METRE. ) );
#293 = EDGE_CURVE ( 'NONE', #91, #206, #48, .T. ) ;
#294 = PLANE ( 'NONE',  #1 ) ;
#295 =( CONVERSION_BASED_UNIT ( 'INCH', #197 ) LENGTH_UNIT ( ) NAMED_UNIT ( #275 ) );
#296 = DIRECTION ( 'NONE',  ( -1.000000000000000000, 0.000000000000000000, 0.000000000000000000 ) ) ;
#297 = CARTESIAN_POINT ( 'NONE',  ( 0.000000000000000000, 0.000000000000000000, -0.1875000000000000278 ) ) ;
#298 = COLOUR_RGB ( '',1.000000000000000000, 0.000000000000000000, 0.000000000000000000 ) ;
#299 = LENGTH_MEASURE_WITH_UNIT ( LENGTH_MEASURE( 0.02539999999999999897 ), #306 );
#300 = ADVANCED_FACE ( 'NONE', ( #230 ), #209, .T. ) ;
#301 = ORIENTED_EDGE ( 'NONE', *, *, #69, .T. ) ;
#302 = DIRECTION ( 'NONE',  ( -0.000000000000000000, -1.000000000000000000, -0.000000000000000000 ) ) ;
#303 = DIMENSIONAL_EXPONENTS ( 1.000000000000000000, 0.000000000000000000, 0.000000000000000000, 0.000000000000000000, 0.000000000000000000, 0.000000000000000000, 0.000000000000000000 ) ;
#304 = LENGTH_MEASURE_WITH_UNIT ( LENGTH_MEASURE( 0.02539999999999999897 ), #156 );
#305 = CIRCLE ( 'NONE', #114, 0.1875000000000000278 ) ;
#306 =( LENGTH_UNIT ( ) NAMED_UNIT ( * ) SI_UNIT ( $, .METRE. ) );
#307 = SURFACE_STYLE_USAGE ( .BOTH. , #202 ) ;
#308 = UNCERTAINTY_MEASURE_WITH_UNIT (LENGTH_MEASURE( 1.000000000000000082E-05 ), #54, 'distance_accuracy_value', 'NONE');
#309 = APPLICATION_PROTOCOL_DEFINITION ( 'draft international standard', 'automotive_design', 1998, #245 ) ;
ENDSEC;
END-ISO-10303-21;
