ISO-10303-21;
HEADER;
FILE_DESCRIPTION (( 'STEP AP214' ),
    '1' );
FILE_NAME ('Micro_RSC-250-220.STEP',
    '2021-09-03T17:48:39',
    ( '' ),
    ( '' ),
    'SwSTEP 2.0',
    'SolidWorks 2020',
    '' );
FILE_SCHEMA (( 'AUTOMOTIVE_DESIGN' ));
ENDSEC;

DATA;
#1 = ORIENTED_EDGE ( 'NONE', *, *, #47, .F. ) ;
#2 = DIRECTION ( 'NONE',  ( -1.000000000000000000, 0.0000000000000000000, 0.0000000000000000000 ) ) ;
#3 = ADVANCED_FACE ( 'NONE', ( #107 ), #85, .T. ) ;
#4 = CONICAL_SURFACE ( 'NONE', #239, 0.01000000000000000021, 0.5235987755983003700 ) ;
#5 = CIRCLE ( 'NONE', #65, 0.1250000000000000000 ) ;
#6 = ORIENTED_EDGE ( 'NONE', *, *, #40, .T. ) ;
#7 = ORIENTED_EDGE ( 'NONE', *, *, #76, .T. ) ;
#8 =( LENGTH_UNIT ( ) NAMED_UNIT ( * ) SI_UNIT ( $, .METRE. ) );
#9 = FACE_OUTER_BOUND ( 'NONE', #136, .T. ) ;
#10 = DIRECTION ( 'NONE',  ( -1.000000000000000000, 0.0000000000000000000, 0.0000000000000000000 ) ) ;
#11 = AXIS2_PLACEMENT_3D ( 'NONE', #194, #238, #10 ) ;
#12 = ADVANCED_FACE ( 'NONE', ( #9 ), #84, .F. ) ;
#13 = DIRECTION ( 'NONE',  ( -0.0000000000000000000, -0.0000000000000000000, -1.000000000000000000 ) ) ;
#14 = CARTESIAN_POINT ( 'NONE',  ( 0.0000000000000000000, 0.0000000000000000000, 2.300814157129579929 ) ) ;
#15 = DIRECTION ( 'NONE',  ( 0.0000000000000000000, 0.0000000000000000000, -1.000000000000000000 ) ) ;
#16 = LINE ( 'NONE', #180, #134 ) ;
#17 = DIRECTION ( 'NONE',  ( -0.0000000000000000000, -0.0000000000000000000, -1.000000000000000000 ) ) ;
#18 = VECTOR ( 'NONE', #173, 39.37007874015748854 ) ;
#19 = LINE ( 'NONE', #230, #221 ) ;
#20 = VERTEX_POINT ( 'NONE', #66 ) ;
#21 = APPLICATION_PROTOCOL_DEFINITION ( 'draft international standard', 'automotive_design', 1998, #210 ) ;
#22 =( NAMED_UNIT ( * ) PLANE_ANGLE_UNIT ( ) SI_UNIT ( $, .RADIAN. ) );
#23 = UNCERTAINTY_MEASURE_WITH_UNIT (LENGTH_MEASURE( 1.000000000000000082E-05 ), #114, 'distance_accuracy_value', 'NONE');
#24 = SURFACE_STYLE_USAGE ( .BOTH. , #77 ) ;
#25 = ORIENTED_EDGE ( 'NONE', *, *, #88, .F. ) ;
#26 = LENGTH_MEASURE_WITH_UNIT ( LENGTH_MEASURE( 0.02539999999999999897 ), #73 );
#27 = CARTESIAN_POINT ( 'NONE',  ( 0.1250000000000000000, 1.530808498934191509E-17, 2.500000000000000000 ) ) ;
#28 = CLOSED_SHELL ( 'NONE', ( #155, #172, #102, #147, #198, #12, #68, #3 ) ) ;
#29 = DIRECTION ( 'NONE',  ( 0.0000000000000000000, 0.0000000000000000000, 1.000000000000000000 ) ) ;
#30 = AXIS2_PLACEMENT_3D ( 'NONE', #202, #17, #158 ) ;
#31 = VECTOR ( 'NONE', #41, 39.37007874015748854 ) ;
#32 = ORIENTED_EDGE ( 'NONE', *, *, #100, .F. ) ;
#33 = CARTESIAN_POINT ( 'NONE',  ( -0.01000000000000000021, -1.224646799147353384E-18, 2.500000000000000000 ) ) ;
#34 = FILL_AREA_STYLE ('',( #235 ) ) ;
#35 = CARTESIAN_POINT ( 'NONE',  ( -0.01000000000000000021, 8.266365894244632793E-18, 0.0000000000000000000 ) ) ;
#36 = FACE_OUTER_BOUND ( 'NONE', #121, .T. ) ;
#37 = ORIENTED_EDGE ( 'NONE', *, *, #181, .T. ) ;
#38 = CIRCLE ( 'NONE', #211, 0.01000000000000000021 ) ;
#39 = ORIENTED_EDGE ( 'NONE', *, *, #161, .F. ) ;
#40 = EDGE_CURVE ( 'NONE', #119, #113, #150, .T. ) ;
#41 = DIRECTION ( 'NONE',  ( -0.5000000000000012212, 6.123233995736780827E-17, 0.8660254037844377084 ) ) ;
#42 = LENGTH_MEASURE_WITH_UNIT ( LENGTH_MEASURE( 0.02539999999999999897 ), #8 );
#43 = ORIENTED_EDGE ( 'NONE', *, *, #177, .T. ) ;
#44 = FACE_OUTER_BOUND ( 'NONE', #187, .T. ) ;
#45 = CYLINDRICAL_SURFACE ( 'NONE', #51, 0.1250000000000000000 ) ;
#46 = AXIS2_PLACEMENT_3D ( 'NONE', #219, #91, #231 ) ;
#47 = EDGE_CURVE ( 'NONE', #20, #119, #153, .T. ) ;
#48 = CARTESIAN_POINT ( 'NONE',  ( 0.0000000000000000000, 0.0000000000000000000, 2.500000000000000000 ) ) ;
#49 = DIRECTION ( 'NONE',  ( 1.000000000000000000, 0.0000000000000000000, -0.0000000000000000000 ) ) ;
#50 = FACE_OUTER_BOUND ( 'NONE', #53, .T. ) ;
#51 = AXIS2_PLACEMENT_3D ( 'NONE', #243, #64, #145 ) ;
#52 = DIRECTION ( 'NONE',  ( 0.0000000000000000000, 0.0000000000000000000, 1.000000000000000000 ) ) ;
#53 = EDGE_LOOP ( 'NONE', ( #236, #195, #56, #157 ) ) ;
#54 = DIRECTION ( 'NONE',  ( 0.0000000000000000000, 0.0000000000000000000, -1.000000000000000000 ) ) ;
#55 = EDGE_CURVE ( 'NONE', #97, #20, #105, .T. ) ;
#56 = ORIENTED_EDGE ( 'NONE', *, *, #88, .T. ) ;
#57 =( GEOMETRIC_REPRESENTATION_CONTEXT ( 3 ) GLOBAL_UNCERTAINTY_ASSIGNED_CONTEXT ( ( #23 ) ) GLOBAL_UNIT_ASSIGNED_CONTEXT ( ( #114, #109, #217 ) ) REPRESENTATION_CONTEXT ( 'NONE', 'WORKASPACE' ) );
#58 = ORIENTED_EDGE ( 'NONE', *, *, #204, .T. ) ;
#59 = DIRECTION ( 'NONE',  ( 0.0000000000000000000, 0.0000000000000000000, 1.000000000000000000 ) ) ;
#60 = DIRECTION ( 'NONE',  ( 1.000000000000000000, 0.0000000000000000000, 0.0000000000000000000 ) ) ;
#61 = DIRECTION ( 'NONE',  ( -1.000000000000000000, 0.0000000000000000000, 0.0000000000000000000 ) ) ;
#62 = FACE_OUTER_BOUND ( 'NONE', #72, .T. ) ;
#63 = CARTESIAN_POINT ( 'NONE',  ( 0.0000000000000000000, 0.0000000000000000000, 2.500000000000000000 ) ) ;
#64 = DIRECTION ( 'NONE',  ( -0.0000000000000000000, -0.0000000000000000000, -1.000000000000000000 ) ) ;
#65 = AXIS2_PLACEMENT_3D ( 'NONE', #14, #15, #89 ) ;
#66 = CARTESIAN_POINT ( 'NONE',  ( -0.1250000000000000000, 0.0000000000000000000, 2.300814157129579929 ) ) ;
#67 = CARTESIAN_POINT ( 'NONE',  ( 0.0000000000000000000, 0.0000000000000000000, 2.500000000000000000 ) ) ;
#68 = ADVANCED_FACE ( 'NONE', ( #44 ), #4, .T. ) ;
#69 =( LENGTH_UNIT ( ) NAMED_UNIT ( * ) SI_UNIT ( $, .METRE. ) );
#70 = PRODUCT ( 'Micro_RSC-250-220', 'Micro_RSC-250-220', '', ( #185 ) ) ;
#71 = CARTESIAN_POINT ( 'NONE',  ( -0.1250000000000000000, 0.0000000000000000000, 0.1991858428704201822 ) ) ;
#72 = EDGE_LOOP ( 'NONE', ( #101, #6, #74, #234 ) ) ;
#73 =( LENGTH_UNIT ( ) NAMED_UNIT ( * ) SI_UNIT ( $, .METRE. ) );
#74 = ORIENTED_EDGE ( 'NONE', *, *, #181, .F. ) ;
#75 = SHAPE_DEFINITION_REPRESENTATION ( #193, #132 ) ;
#76 = EDGE_CURVE ( 'NONE', #232, #203, #226, .T. ) ;
#77 = SURFACE_SIDE_STYLE ('',( #182 ) ) ;
#78 = UNCERTAINTY_MEASURE_WITH_UNIT (LENGTH_MEASURE( 1.000000000000000082E-05 ), #96, 'distance_accuracy_value', 'NONE');
#79 = DIRECTION ( 'NONE',  ( -0.0000000000000000000, -0.0000000000000000000, -1.000000000000000000 ) ) ;
#80 = DIRECTION ( 'NONE',  ( 0.0000000000000000000, 0.0000000000000000000, -1.000000000000000000 ) ) ;
#81 =( CONVERSION_BASED_UNIT ( 'INCH', #42 ) LENGTH_UNIT ( ) NAMED_UNIT ( #171 ) );
#82 = PRODUCT_RELATED_PRODUCT_CATEGORY ( 'part', '', ( #70 ) ) ;
#83 = CARTESIAN_POINT ( 'NONE',  ( 0.0000000000000000000, 0.0000000000000000000, 0.0000000000000000000 ) ) ;
#84 = PLANE ( 'NONE',  #148 ) ;
#85 = PLANE ( 'NONE',  #188 ) ;
#86 = COLOUR_RGB ( '',0.7921568627450980005, 0.8196078431372548767, 0.9333333333333333481 ) ;
#87 = PRESENTATION_STYLE_ASSIGNMENT (( #130 ) ) ;
#88 = EDGE_CURVE ( 'NONE', #232, #113, #140, .T. ) ;
#89 = DIRECTION ( 'NONE',  ( -1.000000000000000000, 0.0000000000000000000, 0.0000000000000000000 ) ) ;
#90 = DIMENSIONAL_EXPONENTS ( 1.000000000000000000, 0.0000000000000000000, 0.0000000000000000000, 0.0000000000000000000, 0.0000000000000000000, 0.0000000000000000000, 0.0000000000000000000 ) ;
#91 = DIRECTION ( 'NONE',  ( -0.0000000000000000000, -0.0000000000000000000, -1.000000000000000000 ) ) ;
#92 = VECTOR ( 'NONE', #13, 39.37007874015748143 ) ;
#93 = CARTESIAN_POINT ( 'NONE',  ( 0.0000000000000000000, 0.0000000000000000000, 2.500000000000000000 ) ) ;
#94 = DIRECTION ( 'NONE',  ( 0.0000000000000000000, 0.0000000000000000000, 1.000000000000000000 ) ) ;
#95 = ORIENTED_EDGE ( 'NONE', *, *, #237, .F. ) ;
#96 =( CONVERSION_BASED_UNIT ( 'INCH', #26 ) LENGTH_UNIT ( ) NAMED_UNIT ( #152 ) );
#97 = VERTEX_POINT ( 'NONE', #241 ) ;
#98 = CONICAL_SURFACE ( 'NONE', #139, 0.01000000000000000021, 0.5235987755983003700 ) ;
#99 =( GEOMETRIC_REPRESENTATION_CONTEXT ( 3 ) GLOBAL_UNCERTAINTY_ASSIGNED_CONTEXT ( ( #123 ) ) GLOBAL_UNIT_ASSIGNED_CONTEXT ( ( #81, #22, #137 ) ) REPRESENTATION_CONTEXT ( 'NONE', 'WORKASPACE' ) );
#100 = EDGE_CURVE ( 'NONE', #203, #232, #225, .T. ) ;
#101 = ORIENTED_EDGE ( 'NONE', *, *, #47, .T. ) ;
#102 = ADVANCED_FACE ( 'NONE', ( #62 ), #166, .T. ) ;
#103 = CARTESIAN_POINT ( 'NONE',  ( 0.1250000000000000000, 1.530808498934191509E-17, 0.1991858428704201822 ) ) ;
#104 = CIRCLE ( 'NONE', #46, 0.1250000000000000000 ) ;
#105 = LINE ( 'NONE', #33, #18 ) ;
#106 = AXIS2_PLACEMENT_3D ( 'NONE', #242, #80, #164 ) ;
#107 = FACE_OUTER_BOUND ( 'NONE', #228, .T. ) ;
#108 = DIRECTION ( 'NONE',  ( 1.000000000000000000, 0.0000000000000000000, 0.0000000000000000000 ) ) ;
#109 =( NAMED_UNIT ( * ) PLANE_ANGLE_UNIT ( ) SI_UNIT ( $, .RADIAN. ) );
#110 = CARTESIAN_POINT ( 'NONE',  ( 0.0000000000000000000, 0.0000000000000000000, 0.0000000000000000000 ) ) ;
#111 = PRODUCT_DEFINITION ( 'UNKNOWN', '', #244, #186 ) ;
#112 = CARTESIAN_POINT ( 'NONE',  ( -0.01000000000000000021, 1.224646799147353384E-18, 0.0000000000000000000 ) ) ;
#113 = VERTEX_POINT ( 'NONE', #103 ) ;
#114 =( CONVERSION_BASED_UNIT ( 'INCH', #176 ) LENGTH_UNIT ( ) NAMED_UNIT ( #90 ) );
#115 = ORIENTED_EDGE ( 'NONE', *, *, #204, .F. ) ;
#116 = LINE ( 'NONE', #112, #31 ) ;
#117 =( NAMED_UNIT ( * ) PLANE_ANGLE_UNIT ( ) SI_UNIT ( $, .RADIAN. ) );
#118 = AXIS2_PLACEMENT_3D ( 'NONE', #141, #59, #60 ) ;
#119 = VERTEX_POINT ( 'NONE', #224 ) ;
#120 = CARTESIAN_POINT ( 'NONE',  ( 0.0000000000000000000, 0.0000000000000000000, 0.0000000000000000000 ) ) ;
#121 = EDGE_LOOP ( 'NONE', ( #58, #206, #142, #216 ) ) ;
#122 = CONICAL_SURFACE ( 'NONE', #174, 0.01000000000000000021, 0.5235987755983003700 ) ;
#123 = UNCERTAINTY_MEASURE_WITH_UNIT (LENGTH_MEASURE( 1.000000000000000082E-05 ), #81, 'distance_accuracy_value', 'NONE');
#124 = PRESENTATION_LAYER_ASSIGNMENT (  '', '', ( #247 ) ) ;
#125 = CARTESIAN_POINT ( 'NONE',  ( 0.0000000000000000000, 0.0000000000000000000, 0.0000000000000000000 ) ) ;
#126 = DIRECTION ( 'NONE',  ( 0.0000000000000000000, 0.0000000000000000000, 1.000000000000000000 ) ) ;
#127 = SURFACE_SIDE_STYLE ('',( #233 ) ) ;
#128 = VECTOR ( 'NONE', #144, 39.37007874015748854 ) ;
#129 = MECHANICAL_DESIGN_GEOMETRIC_PRESENTATION_REPRESENTATION (  '', ( #189 ), #57 ) ;
#130 = SURFACE_STYLE_USAGE ( .BOTH. , #127 ) ;
#131 = DIRECTION ( 'NONE',  ( 0.5000000000000012212, 0.0000000000000000000, -0.8660254037844377084 ) ) ;
#132 = ADVANCED_BREP_SHAPE_REPRESENTATION ( 'Micro_RSC-250-220', ( #240, #118 ), #149 ) ;
#133 = ORIENTED_EDGE ( 'NONE', *, *, #237, .T. ) ;
#134 = VECTOR ( 'NONE', #199, 39.37007874015748143 ) ;
#135 = DIRECTION ( 'NONE',  ( 1.000000000000000000, 0.0000000000000000000, 0.0000000000000000000 ) ) ;
#136 = EDGE_LOOP ( 'NONE', ( #7, #227 ) ) ;
#137 =( NAMED_UNIT ( * ) SI_UNIT ( $, .STERADIAN. ) SOLID_ANGLE_UNIT ( ) );
#138 = APPLICATION_PROTOCOL_DEFINITION ( 'draft international standard', 'automotive_design', 1998, #175 ) ;
#139 = AXIS2_PLACEMENT_3D ( 'NONE', #93, #54, #135 ) ;
#140 = LINE ( 'NONE', #190, #128 ) ;
#141 = CARTESIAN_POINT ( 'NONE',  ( 0.0000000000000000000, 0.0000000000000000000, 0.0000000000000000000 ) ) ;
#142 = ORIENTED_EDGE ( 'NONE', *, *, #248, .F. ) ;
#143 =( NAMED_UNIT ( * ) SI_UNIT ( $, .STERADIAN. ) SOLID_ANGLE_UNIT ( ) );
#144 = DIRECTION ( 'NONE',  ( 0.5000000000000012212, 0.0000000000000000000, 0.8660254037844377084 ) ) ;
#145 = DIRECTION ( 'NONE',  ( -1.000000000000000000, 0.0000000000000000000, 0.0000000000000000000 ) ) ;
#146 = PRESENTATION_LAYER_ASSIGNMENT (  '', '', ( #189 ) ) ;
#147 = ADVANCED_FACE ( 'NONE', ( #222 ), #45, .T. ) ;
#148 = AXIS2_PLACEMENT_3D ( 'NONE', #125, #126, #49 ) ;
#149 =( GEOMETRIC_REPRESENTATION_CONTEXT ( 3 ) GLOBAL_UNCERTAINTY_ASSIGNED_CONTEXT ( ( #78 ) ) GLOBAL_UNIT_ASSIGNED_CONTEXT ( ( #96, #117, #143 ) ) REPRESENTATION_CONTEXT ( 'NONE', 'WORKASPACE' ) );
#150 = LINE ( 'NONE', #27, #92 ) ;
#151 = CARTESIAN_POINT ( 'NONE',  ( 0.01000000000000000021, 0.0000000000000000000, 2.500000000000000000 ) ) ;
#152 = DIMENSIONAL_EXPONENTS ( 1.000000000000000000, 0.0000000000000000000, 0.0000000000000000000, 0.0000000000000000000, 0.0000000000000000000, 0.0000000000000000000, 0.0000000000000000000 ) ;
#153 = CIRCLE ( 'NONE', #106, 0.1250000000000000000 ) ;
#154 = AXIS2_PLACEMENT_3D ( 'NONE', #215, #94, #200 ) ;
#155 = ADVANCED_FACE ( 'NONE', ( #36 ), #98, .T. ) ;
#156 = CARTESIAN_POINT ( 'NONE',  ( 0.0000000000000000000, 0.0000000000000000000, 2.500000000000000000 ) ) ;
#157 = ORIENTED_EDGE ( 'NONE', *, *, #161, .T. ) ;
#158 = DIRECTION ( 'NONE',  ( -1.000000000000000000, 0.0000000000000000000, 0.0000000000000000000 ) ) ;
#159 = VERTEX_POINT ( 'NONE', #151 ) ;
#160 = DIRECTION ( 'NONE',  ( -1.000000000000000000, 0.0000000000000000000, 0.0000000000000000000 ) ) ;
#161 = EDGE_CURVE ( 'NONE', #113, #209, #214, .T. ) ;
#162 = PRESENTATION_STYLE_ASSIGNMENT (( #24 ) ) ;
#163 = DIRECTION ( 'NONE',  ( -0.0000000000000000000, -0.0000000000000000000, -1.000000000000000000 ) ) ;
#164 = DIRECTION ( 'NONE',  ( -1.000000000000000000, 0.0000000000000000000, 0.0000000000000000000 ) ) ;
#165 = FILL_AREA_STYLE_COLOUR ( '', #86 ) ;
#166 = CYLINDRICAL_SURFACE ( 'NONE', #11, 0.1250000000000000000 ) ;
#167 = DIRECTION ( 'NONE',  ( 0.0000000000000000000, 0.0000000000000000000, -1.000000000000000000 ) ) ;
#168 = EDGE_CURVE ( 'NONE', #159, #119, #19, .T. ) ;
#169 = AXIS2_PLACEMENT_3D ( 'NONE', #120, #163, #207 ) ;
#170 = MECHANICAL_DESIGN_GEOMETRIC_PRESENTATION_REPRESENTATION (  '', ( #247 ), #99 ) ;
#171 = DIMENSIONAL_EXPONENTS ( 1.000000000000000000, 0.0000000000000000000, 0.0000000000000000000, 0.0000000000000000000, 0.0000000000000000000, 0.0000000000000000000, 0.0000000000000000000 ) ;
#172 = ADVANCED_FACE ( 'NONE', ( #229 ), #122, .T. ) ;
#173 = DIRECTION ( 'NONE',  ( -0.5000000000000012212, -6.123233995736780827E-17, -0.8660254037844377084 ) ) ;
#174 = AXIS2_PLACEMENT_3D ( 'NONE', #110, #52, #249 ) ;
#175 = APPLICATION_CONTEXT ( 'automotive_design' ) ;
#176 = LENGTH_MEASURE_WITH_UNIT ( LENGTH_MEASURE( 0.02539999999999999897 ), #69 );
#177 = EDGE_CURVE ( 'NONE', #20, #209, #16, .T. ) ;
#178 = DIRECTION ( 'NONE',  ( 0.0000000000000000000, 0.0000000000000000000, -1.000000000000000000 ) ) ;
#179 = DIRECTION ( 'NONE',  ( 0.0000000000000000000, 0.0000000000000000000, -1.000000000000000000 ) ) ;
#180 = CARTESIAN_POINT ( 'NONE',  ( -0.1250000000000000000, 0.0000000000000000000, 2.500000000000000000 ) ) ;
#181 = EDGE_CURVE ( 'NONE', #209, #113, #104, .T. ) ;
#182 = SURFACE_STYLE_FILL_AREA ( #220 ) ;
#183 = CONICAL_SURFACE ( 'NONE', #154, 0.01000000000000000021, 0.5235987755983003700 ) ;
#184 = ORIENTED_EDGE ( 'NONE', *, *, #40, .F. ) ;
#185 = PRODUCT_CONTEXT ( 'NONE', #175, 'mechanical' ) ;
#186 = PRODUCT_DEFINITION_CONTEXT ( 'detailed design', #210, 'design' ) ;
#187 = EDGE_LOOP ( 'NONE', ( #205, #133, #223, #1 ) ) ;
#188 = AXIS2_PLACEMENT_3D ( 'NONE', #48, #29, #213 ) ;
#189 = STYLED_ITEM ( 'NONE', ( #87 ), #240 ) ;
#190 = CARTESIAN_POINT ( 'NONE',  ( 0.01000000000000000021, 0.0000000000000000000, 0.0000000000000000000 ) ) ;
#191 = ORIENTED_EDGE ( 'NONE', *, *, #192, .T. ) ;
#192 = EDGE_CURVE ( 'NONE', #203, #209, #116, .T. ) ;
#193 = PRODUCT_DEFINITION_SHAPE ( 'NONE', 'NONE',  #111 ) ;
#194 = CARTESIAN_POINT ( 'NONE',  ( 0.0000000000000000000, 0.0000000000000000000, 2.500000000000000000 ) ) ;
#195 = ORIENTED_EDGE ( 'NONE', *, *, #76, .F. ) ;
#196 = COLOUR_RGB ( '',0.7921568627450980005, 0.8196078431372548767, 0.9333333333333333481 ) ;
#197 = CARTESIAN_POINT ( 'NONE',  ( 0.01000000000000000021, 0.0000000000000000000, 0.0000000000000000000 ) ) ;
#198 = ADVANCED_FACE ( 'NONE', ( #50 ), #183, .T. ) ;
#199 = DIRECTION ( 'NONE',  ( -0.0000000000000000000, -0.0000000000000000000, -1.000000000000000000 ) ) ;
#200 = DIRECTION ( 'NONE',  ( 1.000000000000000000, 0.0000000000000000000, 0.0000000000000000000 ) ) ;
#201 = AXIS2_PLACEMENT_3D ( 'NONE', #156, #179, #160 ) ;
#202 = CARTESIAN_POINT ( 'NONE',  ( 0.0000000000000000000, 0.0000000000000000000, 0.1991858428704201822 ) ) ;
#203 = VERTEX_POINT ( 'NONE', #35 ) ;
#204 = EDGE_CURVE ( 'NONE', #159, #97, #38, .T. ) ;
#205 = ORIENTED_EDGE ( 'NONE', *, *, #55, .F. ) ;
#206 = ORIENTED_EDGE ( 'NONE', *, *, #55, .T. ) ;
#207 = DIRECTION ( 'NONE',  ( -1.000000000000000000, 0.0000000000000000000, 0.0000000000000000000 ) ) ;
#208 = CIRCLE ( 'NONE', #201, 0.01000000000000000021 ) ;
#209 = VERTEX_POINT ( 'NONE', #71 ) ;
#210 = APPLICATION_CONTEXT ( 'automotive_design' ) ;
#211 = AXIS2_PLACEMENT_3D ( 'NONE', #67, #178, #2 ) ;
#212 = EDGE_LOOP ( 'NONE', ( #184, #246, #43, #39 ) ) ;
#213 = DIRECTION ( 'NONE',  ( 1.000000000000000000, 0.0000000000000000000, -0.0000000000000000000 ) ) ;
#214 = CIRCLE ( 'NONE', #30, 0.1250000000000000000 ) ;
#215 = CARTESIAN_POINT ( 'NONE',  ( 0.0000000000000000000, 0.0000000000000000000, 0.0000000000000000000 ) ) ;
#216 = ORIENTED_EDGE ( 'NONE', *, *, #168, .F. ) ;
#217 =( NAMED_UNIT ( * ) SI_UNIT ( $, .STERADIAN. ) SOLID_ANGLE_UNIT ( ) );
#218 = EDGE_LOOP ( 'NONE', ( #32, #191, #37, #25 ) ) ;
#219 = CARTESIAN_POINT ( 'NONE',  ( 0.0000000000000000000, 0.0000000000000000000, 0.1991858428704201822 ) ) ;
#220 = FILL_AREA_STYLE ('',( #165 ) ) ;
#221 = VECTOR ( 'NONE', #131, 39.37007874015748854 ) ;
#222 = FACE_OUTER_BOUND ( 'NONE', #212, .T. ) ;
#223 = ORIENTED_EDGE ( 'NONE', *, *, #168, .T. ) ;
#224 = CARTESIAN_POINT ( 'NONE',  ( 0.1250000000000000000, 1.530808498934191509E-17, 2.300814157129579929 ) ) ;
#225 = CIRCLE ( 'NONE', #169, 0.01000000000000000021 ) ;
#226 = CIRCLE ( 'NONE', #245, 0.01000000000000000021 ) ;
#227 = ORIENTED_EDGE ( 'NONE', *, *, #100, .T. ) ;
#228 = EDGE_LOOP ( 'NONE', ( #115, #95 ) ) ;
#229 = FACE_OUTER_BOUND ( 'NONE', #218, .T. ) ;
#230 = CARTESIAN_POINT ( 'NONE',  ( 0.01000000000000000021, 0.0000000000000000000, 2.500000000000000000 ) ) ;
#231 = DIRECTION ( 'NONE',  ( -1.000000000000000000, 0.0000000000000000000, 0.0000000000000000000 ) ) ;
#232 = VERTEX_POINT ( 'NONE', #197 ) ;
#233 = SURFACE_STYLE_FILL_AREA ( #34 ) ;
#234 = ORIENTED_EDGE ( 'NONE', *, *, #177, .F. ) ;
#235 = FILL_AREA_STYLE_COLOUR ( '', #196 ) ;
#236 = ORIENTED_EDGE ( 'NONE', *, *, #192, .F. ) ;
#237 = EDGE_CURVE ( 'NONE', #97, #159, #208, .T. ) ;
#238 = DIRECTION ( 'NONE',  ( -0.0000000000000000000, -0.0000000000000000000, -1.000000000000000000 ) ) ;
#239 = AXIS2_PLACEMENT_3D ( 'NONE', #63, #167, #108 ) ;
#240 = MANIFOLD_SOLID_BREP ( 'Mirror1', #28 ) ;
#241 = CARTESIAN_POINT ( 'NONE',  ( -0.01000000000000000021, -8.266365894244628170E-18, 2.500000000000000000 ) ) ;
#242 = CARTESIAN_POINT ( 'NONE',  ( 0.0000000000000000000, 0.0000000000000000000, 2.300814157129579929 ) ) ;
#243 = CARTESIAN_POINT ( 'NONE',  ( 0.0000000000000000000, 0.0000000000000000000, 2.500000000000000000 ) ) ;
#244 = PRODUCT_DEFINITION_FORMATION_WITH_SPECIFIED_SOURCE ( 'ANY', '', #70, .NOT_KNOWN. ) ;
#245 = AXIS2_PLACEMENT_3D ( 'NONE', #83, #79, #61 ) ;
#246 = ORIENTED_EDGE ( 'NONE', *, *, #248, .T. ) ;
#247 = STYLED_ITEM ( 'NONE', ( #162 ), #132 ) ;
#248 = EDGE_CURVE ( 'NONE', #119, #20, #5, .T. ) ;
#249 = DIRECTION ( 'NONE',  ( 1.000000000000000000, 0.0000000000000000000, 0.0000000000000000000 ) ) ;
ENDSEC;
END-ISO-10303-21;
