ISO-10303-21;
HEADER;
FILE_DESCRIPTION (( 'STEP AP214' ),
    '1' );
FILE_NAME ('Micro_SFA-218-46.STEP',
    '2021-09-02T03:54:11',
    ( '' ),
    ( '' ),
    'SwSTEP 2.0',
    'SolidWorks 2020',
    '' );
FILE_SCHEMA (( 'AUTOMOTIVE_DESIGN' ));
ENDSEC;

DATA;
#1 = EDGE_LOOP ( 'NONE', ( #172, #166, #269, #137 ) ) ;
#2 = STYLED_ITEM ( 'NONE', ( #251 ), #70 ) ;
#3 =( NAMED_UNIT ( * ) PLANE_ANGLE_UNIT ( ) SI_UNIT ( $, .RADIAN. ) );
#4 = ADVANCED_BREP_SHAPE_REPRESENTATION ( 'Micro_SFA-218-46', ( #70, #188 ), #25 ) ;
#5 = DIRECTION ( 'NONE',  ( -1.224646799147353207E-16, -0.0000000000000000000, -1.000000000000000000 ) ) ;
#6 = ORIENTED_EDGE ( 'NONE', *, *, #267, .T. ) ;
#7 = PRODUCT ( 'Micro_SFA-218-46', 'Micro_SFA-218-46', '', ( #45 ) ) ;
#8 = LINE ( 'NONE', #239, #79 ) ;
#9 = COLOUR_RGB ( '',0.7921568627450980005, 0.8196078431372548767, 0.9333333333333333481 ) ;
#10 = LINE ( 'NONE', #164, #42 ) ;
#11 = VERTEX_POINT ( 'NONE', #57 ) ;
#12 = DIRECTION ( 'NONE',  ( -1.000000000000000000, 0.0000000000000000000, 1.224646799147353207E-16 ) ) ;
#13 = ORIENTED_EDGE ( 'NONE', *, *, #74, .F. ) ;
#14 = CARTESIAN_POINT ( 'NONE',  ( 0.0000000000000000000, 0.0000000000000000000, 2.485000000000000320 ) ) ;
#15 = AXIS2_PLACEMENT_3D ( 'NONE', #142, #71, #141 ) ;
#16 = STYLED_ITEM ( 'NONE', ( #106 ), #4 ) ;
#17 = DIRECTION ( 'NONE',  ( -1.224646799147353207E-16, -0.0000000000000000000, -1.000000000000000000 ) ) ;
#18 = EDGE_LOOP ( 'NONE', ( #207, #283, #258, #109 ) ) ;
#19 = ORIENTED_EDGE ( 'NONE', *, *, #246, .T. ) ;
#20 = CARTESIAN_POINT ( 'NONE',  ( 0.0000000000000000000, 0.0000000000000000000, 0.0000000000000000000 ) ) ;
#21 = EDGE_CURVE ( 'NONE', #220, #244, #150, .T. ) ;
#22 = DIRECTION ( 'NONE',  ( 1.000000000000000000, 0.0000000000000000000, 0.0000000000000000000 ) ) ;
#23 = EDGE_LOOP ( 'NONE', ( #13, #202, #147, #123 ) ) ;
#24 = ADVANCED_FACE ( 'NONE', ( #229 ), #28, .T. ) ;
#25 =( GEOMETRIC_REPRESENTATION_CONTEXT ( 3 ) GLOBAL_UNCERTAINTY_ASSIGNED_CONTEXT ( ( #279 ) ) GLOBAL_UNIT_ASSIGNED_CONTEXT ( ( #199, #107, #43 ) ) REPRESENTATION_CONTEXT ( 'NONE', 'WORKASPACE' ) );
#26 = ORIENTED_EDGE ( 'NONE', *, *, #167, .T. ) ;
#27 = ADVANCED_FACE ( 'NONE', ( #139 ), #247, .T. ) ;
#28 = PLANE ( 'NONE',  #227 ) ;
#29 = AXIS2_PLACEMENT_3D ( 'NONE', #75, #5, #253 ) ;
#30 = CIRCLE ( 'NONE', #119, 0.1092905999999999878 ) ;
#31 = FACE_OUTER_BOUND ( 'NONE', #95, .T. ) ;
#32 = FILL_AREA_STYLE_COLOUR ( '', #9 ) ;
#33 = PRODUCT_DEFINITION_CONTEXT ( 'detailed design', #208, 'design' ) ;
#34 = SHAPE_DEFINITION_REPRESENTATION ( #183, #4 ) ;
#35 = DIRECTION ( 'NONE',  ( 0.0000000000000000000, 0.0000000000000000000, 1.000000000000000000 ) ) ;
#36 = CARTESIAN_POINT ( 'NONE',  ( 0.1092906000000000849, 0.0000000000000000000, 0.7500000000000001110 ) ) ;
#37 = AXIS2_PLACEMENT_3D ( 'NONE', #234, #35, #118 ) ;
#38 = CARTESIAN_POINT ( 'NONE',  ( 0.1250000000000001110, 1.530808498934192742E-17, 0.8390924346171020343 ) ) ;
#39 = DIRECTION ( 'NONE',  ( -1.000000000000000000, 0.0000000000000000000, 0.0000000000000000000 ) ) ;
#40 = DIRECTION ( 'NONE',  ( 1.000000000000000000, 0.0000000000000000000, 0.0000000000000000000 ) ) ;
#41 = ORIENTED_EDGE ( 'NONE', *, *, #74, .T. ) ;
#42 = VECTOR ( 'NONE', #165, 39.37007874015748143 ) ;
#43 =( NAMED_UNIT ( * ) SI_UNIT ( $, .STERADIAN. ) SOLID_ANGLE_UNIT ( ) );
#44 = ORIENTED_EDGE ( 'NONE', *, *, #287, .F. ) ;
#45 = PRODUCT_CONTEXT ( 'NONE', #104, 'mechanical' ) ;
#46 = PRODUCT_DEFINITION_FORMATION_WITH_SPECIFIED_SOURCE ( 'ANY', '', #7, .NOT_KNOWN. ) ;
#47 = AXIS2_PLACEMENT_3D ( 'NONE', #260, #60, #12 ) ;
#48 = CARTESIAN_POINT ( 'NONE',  ( 0.1092905999999999878, 1.338423834668937173E-17, -1.338423834668937173E-17 ) ) ;
#49 = EDGE_CURVE ( 'NONE', #63, #226, #88, .T. ) ;
#50 = EDGE_LOOP ( 'NONE', ( #216, #26 ) ) ;
#51 = DIRECTION ( 'NONE',  ( -0.0000000000000000000, -0.0000000000000000000, -1.000000000000000000 ) ) ;
#52 = CYLINDRICAL_SURFACE ( 'NONE', #54, 0.1092905999999999878 ) ;
#53 = EDGE_LOOP ( 'NONE', ( #193, #19, #135, #127 ) ) ;
#54 = AXIS2_PLACEMENT_3D ( 'NONE', #181, #184, #117 ) ;
#55 = VECTOR ( 'NONE', #243, 39.37007874015748143 ) ;
#56 = CARTESIAN_POINT ( 'NONE',  ( -0.1249999999999999029, 0.0000000000000000000, 0.8390924346171020343 ) ) ;
#57 = CARTESIAN_POINT ( 'NONE',  ( 0.1100000000000001948, 1.438959988998141146E-17, 2.500000000000000000 ) ) ;
#58 = ADVANCED_FACE ( 'NONE', ( #160 ), #52, .T. ) ;
#59 = CARTESIAN_POINT ( 'NONE',  ( -0.1100000000000001948, 0.0000000000000000000, 2.500000000000000000 ) ) ;
#60 = DIRECTION ( 'NONE',  ( -1.224646799147353207E-16, -0.0000000000000000000, -1.000000000000000000 ) ) ;
#61 = AXIS2_PLACEMENT_3D ( 'NONE', #120, #169, #263 ) ;
#62 = DIRECTION ( 'NONE',  ( 0.1736481776669314414, 0.0000000000000000000, 0.9848077530122077983 ) ) ;
#63 = VERTEX_POINT ( 'NONE', #56 ) ;
#64 = ADVANCED_FACE ( 'NONE', ( #114 ), #257, .T. ) ;
#65 = DIRECTION ( 'NONE',  ( -1.000000000000000000, 0.0000000000000000000, 1.224646799147353207E-16 ) ) ;
#66 = DIRECTION ( 'NONE',  ( 1.000000000000000000, 0.0000000000000000000, 0.0000000000000000000 ) ) ;
#67 = LENGTH_MEASURE_WITH_UNIT ( LENGTH_MEASURE( 0.02539999999999999897 ), #177 );
#68 = SURFACE_STYLE_FILL_AREA ( #294 ) ;
#69 = CARTESIAN_POINT ( 'NONE',  ( 0.0000000000000000000, 0.0000000000000000000, 2.485000000000000320 ) ) ;
#70 = MANIFOLD_SOLID_BREP ( 'Cut-Revolve1', #77 ) ;
#71 = DIRECTION ( 'NONE',  ( 1.224646799147353207E-16, 0.0000000000000000000, 1.000000000000000000 ) ) ;
#72 = ADVANCED_FACE ( 'NONE', ( #31 ), #277, .T. ) ;
#73 =( NAMED_UNIT ( * ) SI_UNIT ( $, .STERADIAN. ) SOLID_ANGLE_UNIT ( ) );
#74 = EDGE_CURVE ( 'NONE', #244, #63, #10, .T. ) ;
#75 = CARTESIAN_POINT ( 'NONE',  ( 1.027591864242593897E-16, 0.0000000000000000000, 0.8390924346171020343 ) ) ;
#76 = EDGE_CURVE ( 'NONE', #276, #293, #280, .T. ) ;
#77 = CLOSED_SHELL ( 'NONE', ( #58, #108, #230, #121, #72, #24, #64, #27, #237, #240 ) ) ;
#78 = DIRECTION ( 'NONE',  ( -1.224646799147353207E-16, -0.0000000000000000000, -1.000000000000000000 ) ) ;
#79 = VECTOR ( 'NONE', #62, 39.37007874015748143 ) ;
#80 = CARTESIAN_POINT ( 'NONE',  ( 1.639096465029840193E-33, 0.0000000000000000000, 1.338423834668937173E-17 ) ) ;
#81 = FACE_OUTER_BOUND ( 'NONE', #1, .T. ) ;
#82 = EDGE_CURVE ( 'NONE', #285, #11, #144, .T. ) ;
#83 = DIRECTION ( 'NONE',  ( -0.7071067811865499042, 0.0000000000000000000, -0.7071067811865451302 ) ) ;
#84 = MECHANICAL_DESIGN_GEOMETRIC_PRESENTATION_REPRESENTATION (  '', ( #2 ), #194 ) ;
#85 = CARTESIAN_POINT ( 'NONE',  ( 0.1092905999999999878, 1.338423834668937173E-17, 0.0000000000000000000 ) ) ;
#86 = FACE_OUTER_BOUND ( 'NONE', #128, .T. ) ;
#87 = EDGE_LOOP ( 'NONE', ( #261, #6, #180, #249 ) ) ;
#88 = CIRCLE ( 'NONE', #29, 0.1250000000000000000 ) ;
#89 = EDGE_LOOP ( 'NONE', ( #90, #41, #175, #298 ) ) ;
#90 = ORIENTED_EDGE ( 'NONE', *, *, #200, .F. ) ;
#91 = ORIENTED_EDGE ( 'NONE', *, *, #265, .T. ) ;
#92 = ORIENTED_EDGE ( 'NONE', *, *, #76, .T. ) ;
#93 = CARTESIAN_POINT ( 'NONE',  ( 9.184850993605150903E-17, 0.0000000000000000000, 0.7500000000000001110 ) ) ;
#94 = FILL_AREA_STYLE ('',( #32 ) ) ;
#95 = EDGE_LOOP ( 'NONE', ( #222, #92, #91, #214 ) ) ;
#96 = UNCERTAINTY_MEASURE_WITH_UNIT (LENGTH_MEASURE( 1.000000000000000082E-05 ), #254, 'distance_accuracy_value', 'NONE');
#97 = MECHANICAL_DESIGN_GEOMETRIC_PRESENTATION_REPRESENTATION (  '', ( #16 ), #212 ) ;
#98 = DIRECTION ( 'NONE',  ( -0.0000000000000000000, -0.0000000000000000000, -1.000000000000000000 ) ) ;
#99 = DIRECTION ( 'NONE',  ( 0.7071067811865499042, 8.659560562354961208E-17, -0.7071067811865451302 ) ) ;
#100 = PLANE ( 'NONE',  #37 ) ;
#101 = ORIENTED_EDGE ( 'NONE', *, *, #162, .F. ) ;
#102 = DIRECTION ( 'NONE',  ( 1.000000000000000000, 0.0000000000000000000, 0.0000000000000000000 ) ) ;
#103 = AXIS2_PLACEMENT_3D ( 'NONE', #289, #125, #39 ) ;
#104 = APPLICATION_CONTEXT ( 'automotive_design' ) ;
#105 = FACE_OUTER_BOUND ( 'NONE', #153, .T. ) ;
#106 = PRESENTATION_STYLE_ASSIGNMENT (( #296 ) ) ;
#107 =( NAMED_UNIT ( * ) PLANE_ANGLE_UNIT ( ) SI_UNIT ( $, .RADIAN. ) );
#108 = ADVANCED_FACE ( 'NONE', ( #122 ), #223, .T. ) ;
#109 = ORIENTED_EDGE ( 'NONE', *, *, #76, .F. ) ;
#110 = CARTESIAN_POINT ( 'NONE',  ( -0.1100000000000001948, 0.0000000000000000000, 2.500000000000000000 ) ) ;
#111 = AXIS2_PLACEMENT_3D ( 'NONE', #299, #274, #273 ) ;
#112 = AXIS2_PLACEMENT_3D ( 'NONE', #197, #284, #217 ) ;
#113 = ORIENTED_EDGE ( 'NONE', *, *, #232, .T. ) ;
#114 = FACE_OUTER_BOUND ( 'NONE', #18, .T. ) ;
#115 = VECTOR ( 'NONE', #51, 39.37007874015748143 ) ;
#116 = VERTEX_POINT ( 'NONE', #85 ) ;
#117 = DIRECTION ( 'NONE',  ( -1.000000000000000000, 0.0000000000000000000, 1.224646799147353207E-16 ) ) ;
#118 = DIRECTION ( 'NONE',  ( 1.000000000000000000, 0.0000000000000000000, -0.0000000000000000000 ) ) ;
#119 = AXIS2_PLACEMENT_3D ( 'NONE', #80, #235, #65 ) ;
#120 = CARTESIAN_POINT ( 'NONE',  ( 0.0000000000000000000, 0.0000000000000000000, 2.500000000000000000 ) ) ;
#121 = ADVANCED_FACE ( 'NONE', ( #288 ), #146, .T. ) ;
#122 = FACE_OUTER_BOUND ( 'NONE', #89, .T. ) ;
#123 = ORIENTED_EDGE ( 'NONE', *, *, #176, .T. ) ;
#124 = DIMENSIONAL_EXPONENTS ( 1.000000000000000000, 0.0000000000000000000, 0.0000000000000000000, 0.0000000000000000000, 0.0000000000000000000, 0.0000000000000000000, 0.0000000000000000000 ) ;
#125 = DIRECTION ( 'NONE',  ( 0.0000000000000000000, 0.0000000000000000000, -1.000000000000000000 ) ) ;
#126 = DIRECTION ( 'NONE',  ( 0.0000000000000000000, 0.0000000000000000000, -1.000000000000000000 ) ) ;
#127 = ORIENTED_EDGE ( 'NONE', *, *, #265, .F. ) ;
#128 = EDGE_LOOP ( 'NONE', ( #113, #132 ) ) ;
#129 = FILL_AREA_STYLE_COLOUR ( '', #145 ) ;
#130 = DIRECTION ( 'NONE',  ( -1.224646799147353207E-16, -0.0000000000000000000, -1.000000000000000000 ) ) ;
#131 = AXIS2_PLACEMENT_3D ( 'NONE', #93, #78, #159 ) ;
#132 = ORIENTED_EDGE ( 'NONE', *, *, #205, .T. ) ;
#133 = LINE ( 'NONE', #48, #224 ) ;
#134 = CARTESIAN_POINT ( 'NONE',  ( -0.1092905999999999878, 0.0000000000000000000, 1.338423834668937173E-17 ) ) ;
#135 = ORIENTED_EDGE ( 'NONE', *, *, #49, .F. ) ;
#136 = PRESENTATION_LAYER_ASSIGNMENT (  '', '', ( #16 ) ) ;
#137 = ORIENTED_EDGE ( 'NONE', *, *, #205, .F. ) ;
#138 = DIRECTION ( 'NONE',  ( 0.0000000000000000000, 0.0000000000000000000, 1.000000000000000000 ) ) ;
#139 = FACE_OUTER_BOUND ( 'NONE', #23, .T. ) ;
#140 = VECTOR ( 'NONE', #201, 39.37007874015748143 ) ;
#141 = DIRECTION ( 'NONE',  ( 1.000000000000000000, 0.0000000000000000000, 0.0000000000000000000 ) ) ;
#142 = CARTESIAN_POINT ( 'NONE',  ( 9.184850993605150903E-17, 0.0000000000000000000, 0.7500000000000001110 ) ) ;
#143 = DIRECTION ( 'NONE',  ( 1.224646799147353207E-16, 0.0000000000000000000, 1.000000000000000000 ) ) ;
#144 = CIRCLE ( 'NONE', #211, 0.1100000000000001948 ) ;
#145 = COLOUR_RGB ( '',0.7921568627450980005, 0.8196078431372548767, 0.9333333333333333481 ) ;
#146 = CYLINDRICAL_SURFACE ( 'NONE', #61, 0.1250000000000000000 ) ;
#147 = ORIENTED_EDGE ( 'NONE', *, *, #156, .T. ) ;
#148 = DIRECTION ( 'NONE',  ( 0.0000000000000000000, 0.0000000000000000000, 1.000000000000000000 ) ) ;
#149 = LINE ( 'NONE', #171, #203 ) ;
#150 = CIRCLE ( 'NONE', #131, 0.1092905999999999878 ) ;
#151 =( CONVERSION_BASED_UNIT ( 'INCH', #272 ) LENGTH_UNIT ( ) NAMED_UNIT ( #241 ) );
#152 = AXIS2_PLACEMENT_3D ( 'NONE', #69, #245, #22 ) ;
#153 = EDGE_LOOP ( 'NONE', ( #191, #266, #44, #101 ) ) ;
#154 = AXIS2_PLACEMENT_3D ( 'NONE', #282, #238, #259 ) ;
#155 = CARTESIAN_POINT ( 'NONE',  ( -0.1250000000000000000, 0.0000000000000000000, 2.500000000000000000 ) ) ;
#156 = EDGE_CURVE ( 'NONE', #220, #226, #8, .T. ) ;
#157 = SURFACE_STYLE_FILL_AREA ( #94 ) ;
#158 = AXIS2_PLACEMENT_3D ( 'NONE', #170, #148, #192 ) ;
#159 = DIRECTION ( 'NONE',  ( -1.000000000000000000, 0.0000000000000000000, 0.0000000000000000000 ) ) ;
#160 = FACE_OUTER_BOUND ( 'NONE', #87, .T. ) ;
#161 =( LENGTH_UNIT ( ) NAMED_UNIT ( * ) SI_UNIT ( $, .METRE. ) );
#162 = EDGE_CURVE ( 'NONE', #285, #293, #218, .T. ) ;
#163 = UNCERTAINTY_MEASURE_WITH_UNIT (LENGTH_MEASURE( 1.000000000000000082E-05 ), #151, 'distance_accuracy_value', 'NONE');
#164 = CARTESIAN_POINT ( 'NONE',  ( -0.1092905999999999045, 1.338423834668937173E-17, 0.7500000000000001110 ) ) ;
#165 = DIRECTION ( 'NONE',  ( -0.1736481776669312194, 2.126576849575783625E-17, 0.9848077530122077983 ) ) ;
#166 = ORIENTED_EDGE ( 'NONE', *, *, #21, .T. ) ;
#167 = EDGE_CURVE ( 'NONE', #11, #285, #291, .T. ) ;
#168 = CIRCLE ( 'NONE', #154, 0.1092905999999999878 ) ;
#169 = DIRECTION ( 'NONE',  ( -0.0000000000000000000, -0.0000000000000000000, -1.000000000000000000 ) ) ;
#170 = CARTESIAN_POINT ( 'NONE',  ( 0.0000000000000000000, 0.0000000000000000000, 2.500000000000000000 ) ) ;
#171 = CARTESIAN_POINT ( 'NONE',  ( 0.1100000000000001948, 1.347111479062090784E-17, 2.500000000000000000 ) ) ;
#172 = ORIENTED_EDGE ( 'NONE', *, *, #267, .F. ) ;
#173 = CIRCLE ( 'NONE', #152, 0.1250000000000000000 ) ;
#174 = LINE ( 'NONE', #221, #140 ) ;
#175 = ORIENTED_EDGE ( 'NONE', *, *, #49, .T. ) ;
#176 = EDGE_CURVE ( 'NONE', #226, #63, #275, .T. ) ;
#177 =( LENGTH_UNIT ( ) NAMED_UNIT ( * ) SI_UNIT ( $, .METRE. ) );
#178 = PRESENTATION_LAYER_ASSIGNMENT (  '', '', ( #2 ) ) ;
#179 = VECTOR ( 'NONE', #83, 39.37007874015748143 ) ;
#180 = ORIENTED_EDGE ( 'NONE', *, *, #232, .F. ) ;
#181 = CARTESIAN_POINT ( 'NONE',  ( 0.0000000000000000000, 0.0000000000000000000, 0.0000000000000000000 ) ) ;
#182 = CONICAL_SURFACE ( 'NONE', #103, 0.1100000000000001948, 0.7853981633974517207 ) ;
#183 = PRODUCT_DEFINITION_SHAPE ( 'NONE', 'NONE',  #255 ) ;
#184 = DIRECTION ( 'NONE',  ( -1.224646799147353207E-16, -0.0000000000000000000, -1.000000000000000000 ) ) ;
#185 = DIRECTION ( 'NONE',  ( 1.000000000000000000, 0.0000000000000000000, 0.0000000000000000000 ) ) ;
#186 = SURFACE_STYLE_USAGE ( .BOTH. , #209 ) ;
#187 = AXIS2_PLACEMENT_3D ( 'NONE', #14, #126, #196 ) ;
#188 = AXIS2_PLACEMENT_3D ( 'NONE', #20, #195, #185 ) ;
#189 = CARTESIAN_POINT ( 'NONE',  ( 1.027591864242593897E-16, 0.0000000000000000000, 0.8390924346171020343 ) ) ;
#190 = CARTESIAN_POINT ( 'NONE',  ( -0.1092905999999999878, 0.0000000000000000000, 2.676847669337874346E-17 ) ) ;
#191 = ORIENTED_EDGE ( 'NONE', *, *, #167, .F. ) ;
#192 = DIRECTION ( 'NONE',  ( 1.000000000000000000, 0.0000000000000000000, 0.0000000000000000000 ) ) ;
#193 = ORIENTED_EDGE ( 'NONE', *, *, #287, .T. ) ;
#194 =( GEOMETRIC_REPRESENTATION_CONTEXT ( 3 ) GLOBAL_UNCERTAINTY_ASSIGNED_CONTEXT ( ( #96 ) ) GLOBAL_UNIT_ASSIGNED_CONTEXT ( ( #254, #3, #73 ) ) REPRESENTATION_CONTEXT ( 'NONE', 'WORKASPACE' ) );
#195 = DIRECTION ( 'NONE',  ( 0.0000000000000000000, 0.0000000000000000000, 1.000000000000000000 ) ) ;
#196 = DIRECTION ( 'NONE',  ( 1.000000000000000000, 0.0000000000000000000, 0.0000000000000000000 ) ) ;
#197 = CARTESIAN_POINT ( 'NONE',  ( 1.639096465029840193E-33, 0.0000000000000000000, 1.338423834668937173E-17 ) ) ;
#198 = LINE ( 'NONE', #155, #115 ) ;
#199 =( CONVERSION_BASED_UNIT ( 'INCH', #67 ) LENGTH_UNIT ( ) NAMED_UNIT ( #278 ) );
#200 = EDGE_CURVE ( 'NONE', #244, #220, #168, .T. ) ;
#201 = DIRECTION ( 'NONE',  ( -0.0000000000000000000, -0.0000000000000000000, -1.000000000000000000 ) ) ;
#202 = ORIENTED_EDGE ( 'NONE', *, *, #21, .F. ) ;
#203 = VECTOR ( 'NONE', #99, 39.37007874015748143 ) ;
#204 = CARTESIAN_POINT ( 'NONE',  ( 0.0000000000000000000, 0.0000000000000000000, 2.500000000000000000 ) ) ;
#205 = EDGE_CURVE ( 'NONE', #116, #219, #30, .T. ) ;
#206 = LENGTH_MEASURE_WITH_UNIT ( LENGTH_MEASURE( 0.02539999999999999897 ), #161 );
#207 = ORIENTED_EDGE ( 'NONE', *, *, #228, .F. ) ;
#208 = APPLICATION_CONTEXT ( 'automotive_design' ) ;
#209 = SURFACE_SIDE_STYLE ('',( #157 ) ) ;
#210 = CARTESIAN_POINT ( 'NONE',  ( -0.1092905999999999045, 1.434616166801564572E-17, 0.7500000000000001110 ) ) ;
#211 = AXIS2_PLACEMENT_3D ( 'NONE', #262, #286, #40 ) ;
#212 =( GEOMETRIC_REPRESENTATION_CONTEXT ( 3 ) GLOBAL_UNCERTAINTY_ASSIGNED_CONTEXT ( ( #163 ) ) GLOBAL_UNIT_ASSIGNED_CONTEXT ( ( #151, #292, #270 ) ) REPRESENTATION_CONTEXT ( 'NONE', 'WORKASPACE' ) );
#213 = DIRECTION ( 'NONE',  ( -1.000000000000000000, 0.0000000000000000000, 0.0000000000000000000 ) ) ;
#214 = ORIENTED_EDGE ( 'NONE', *, *, #176, .F. ) ;
#215 = CYLINDRICAL_SURFACE ( 'NONE', #47, 0.1092905999999999878 ) ;
#216 = ORIENTED_EDGE ( 'NONE', *, *, #82, .T. ) ;
#217 = DIRECTION ( 'NONE',  ( -1.000000000000000000, 0.0000000000000000000, 1.224646799147353207E-16 ) ) ;
#218 = LINE ( 'NONE', #59, #179 ) ;
#219 = VERTEX_POINT ( 'NONE', #190 ) ;
#220 = VERTEX_POINT ( 'NONE', #36 ) ;
#221 = CARTESIAN_POINT ( 'NONE',  ( 0.1250000000000000000, 1.530808498934191509E-17, 2.500000000000000000 ) ) ;
#222 = ORIENTED_EDGE ( 'NONE', *, *, #246, .F. ) ;
#223 = CONICAL_SURFACE ( 'NONE', #281, 0.1092905999999999878, 0.1745329251994339470 ) ;
#224 = VECTOR ( 'NONE', #130, 39.37007874015748143 ) ;
#225 = LINE ( 'NONE', #134, #55 ) ;
#226 = VERTEX_POINT ( 'NONE', #38 ) ;
#227 = AXIS2_PLACEMENT_3D ( 'NONE', #204, #138, #256 ) ;
#228 = EDGE_CURVE ( 'NONE', #11, #276, #149, .T. ) ;
#229 = FACE_OUTER_BOUND ( 'NONE', #50, .T. ) ;
#230 = ADVANCED_FACE ( 'NONE', ( #105 ), #182, .T. ) ;
#231 = CARTESIAN_POINT ( 'NONE',  ( 0.0000000000000000000, 0.0000000000000000000, 2.500000000000000000 ) ) ;
#232 = EDGE_CURVE ( 'NONE', #219, #116, #271, .T. ) ;
#233 = APPLICATION_PROTOCOL_DEFINITION ( 'draft international standard', 'automotive_design', 1998, #208 ) ;
#234 = CARTESIAN_POINT ( 'NONE',  ( 0.0000000000000000000, 0.0000000000000000000, 0.0000000000000000000 ) ) ;
#235 = DIRECTION ( 'NONE',  ( -1.224646799147353207E-16, -0.0000000000000000000, -1.000000000000000000 ) ) ;
#236 = AXIS2_PLACEMENT_3D ( 'NONE', #231, #98, #213 ) ;
#237 = ADVANCED_FACE ( 'NONE', ( #81 ), #215, .T. ) ;
#238 = DIRECTION ( 'NONE',  ( -1.224646799147353207E-16, -0.0000000000000000000, -1.000000000000000000 ) ) ;
#239 = CARTESIAN_POINT ( 'NONE',  ( 0.1092906000000000849, 0.0000000000000000000, 0.7500000000000001110 ) ) ;
#240 = ADVANCED_FACE ( 'NONE', ( #86 ), #100, .F. ) ;
#241 = DIMENSIONAL_EXPONENTS ( 1.000000000000000000, 0.0000000000000000000, 0.0000000000000000000, 0.0000000000000000000, 0.0000000000000000000, 0.0000000000000000000, 0.0000000000000000000 ) ;
#242 = PRODUCT_RELATED_PRODUCT_CATEGORY ( 'part', '', ( #7 ) ) ;
#243 = DIRECTION ( 'NONE',  ( -1.224646799147353207E-16, -0.0000000000000000000, -1.000000000000000000 ) ) ;
#244 = VERTEX_POINT ( 'NONE', #210 ) ;
#245 = DIRECTION ( 'NONE',  ( 0.0000000000000000000, 0.0000000000000000000, -1.000000000000000000 ) ) ;
#246 = EDGE_CURVE ( 'NONE', #276, #226, #174, .T. ) ;
#247 = CONICAL_SURFACE ( 'NONE', #15, 0.1092905999999999878, 0.1745329251994339470 ) ;
#248 = APPLICATION_PROTOCOL_DEFINITION ( 'draft international standard', 'automotive_design', 1998, #104 ) ;
#249 = ORIENTED_EDGE ( 'NONE', *, *, #295, .F. ) ;
#250 = CARTESIAN_POINT ( 'NONE',  ( -0.1250000000000000000, 0.0000000000000000000, 2.485000000000000320 ) ) ;
#251 = PRESENTATION_STYLE_ASSIGNMENT (( #186 ) ) ;
#252 = AXIS2_PLACEMENT_3D ( 'NONE', #189, #17, #66 ) ;
#253 = DIRECTION ( 'NONE',  ( 1.000000000000000000, 0.0000000000000000000, 0.0000000000000000000 ) ) ;
#254 =( CONVERSION_BASED_UNIT ( 'INCH', #206 ) LENGTH_UNIT ( ) NAMED_UNIT ( #124 ) );
#255 = PRODUCT_DEFINITION ( 'UNKNOWN', '', #46, #33 ) ;
#256 = DIRECTION ( 'NONE',  ( 1.000000000000000000, 0.0000000000000000000, -0.0000000000000000000 ) ) ;
#257 = CONICAL_SURFACE ( 'NONE', #111, 0.1100000000000001948, 0.7853981633974517207 ) ;
#258 = ORIENTED_EDGE ( 'NONE', *, *, #162, .T. ) ;
#259 = DIRECTION ( 'NONE',  ( -1.000000000000000000, 0.0000000000000000000, 0.0000000000000000000 ) ) ;
#260 = CARTESIAN_POINT ( 'NONE',  ( 0.0000000000000000000, 0.0000000000000000000, 0.0000000000000000000 ) ) ;
#261 = ORIENTED_EDGE ( 'NONE', *, *, #200, .T. ) ;
#262 = CARTESIAN_POINT ( 'NONE',  ( 0.0000000000000000000, 0.0000000000000000000, 2.500000000000000000 ) ) ;
#263 = DIRECTION ( 'NONE',  ( -1.000000000000000000, 0.0000000000000000000, 0.0000000000000000000 ) ) ;
#264 = CARTESIAN_POINT ( 'NONE',  ( 9.184850993605150903E-17, 0.0000000000000000000, 0.7500000000000001110 ) ) ;
#265 = EDGE_CURVE ( 'NONE', #293, #63, #198, .T. ) ;
#266 = ORIENTED_EDGE ( 'NONE', *, *, #228, .T. ) ;
#267 = EDGE_CURVE ( 'NONE', #220, #116, #133, .T. ) ;
#268 = CARTESIAN_POINT ( 'NONE',  ( 0.1250000000000000000, 1.530808498934191509E-17, 2.485000000000000320 ) ) ;
#269 = ORIENTED_EDGE ( 'NONE', *, *, #295, .T. ) ;
#270 =( NAMED_UNIT ( * ) SI_UNIT ( $, .STERADIAN. ) SOLID_ANGLE_UNIT ( ) );
#271 = CIRCLE ( 'NONE', #112, 0.1092905999999999878 ) ;
#272 = LENGTH_MEASURE_WITH_UNIT ( LENGTH_MEASURE( 0.02539999999999999897 ), #290 );
#273 = DIRECTION ( 'NONE',  ( -1.000000000000000000, 0.0000000000000000000, 0.0000000000000000000 ) ) ;
#274 = DIRECTION ( 'NONE',  ( 0.0000000000000000000, 0.0000000000000000000, -1.000000000000000000 ) ) ;
#275 = CIRCLE ( 'NONE', #252, 0.1250000000000000000 ) ;
#276 = VERTEX_POINT ( 'NONE', #268 ) ;
#277 = CYLINDRICAL_SURFACE ( 'NONE', #236, 0.1250000000000000000 ) ;
#278 = DIMENSIONAL_EXPONENTS ( 1.000000000000000000, 0.0000000000000000000, 0.0000000000000000000, 0.0000000000000000000, 0.0000000000000000000, 0.0000000000000000000, 0.0000000000000000000 ) ;
#279 = UNCERTAINTY_MEASURE_WITH_UNIT (LENGTH_MEASURE( 1.000000000000000082E-05 ), #199, 'distance_accuracy_value', 'NONE');
#280 = CIRCLE ( 'NONE', #187, 0.1250000000000000000 ) ;
#281 = AXIS2_PLACEMENT_3D ( 'NONE', #264, #143, #102 ) ;
#282 = CARTESIAN_POINT ( 'NONE',  ( 9.184850993605150903E-17, 0.0000000000000000000, 0.7500000000000001110 ) ) ;
#283 = ORIENTED_EDGE ( 'NONE', *, *, #82, .F. ) ;
#284 = DIRECTION ( 'NONE',  ( -1.224646799147353207E-16, -0.0000000000000000000, -1.000000000000000000 ) ) ;
#285 = VERTEX_POINT ( 'NONE', #110 ) ;
#286 = DIRECTION ( 'NONE',  ( 0.0000000000000000000, 0.0000000000000000000, 1.000000000000000000 ) ) ;
#287 = EDGE_CURVE ( 'NONE', #293, #276, #173, .T. ) ;
#288 = FACE_OUTER_BOUND ( 'NONE', #53, .T. ) ;
#289 = CARTESIAN_POINT ( 'NONE',  ( 0.0000000000000000000, 0.0000000000000000000, 2.500000000000000000 ) ) ;
#290 =( LENGTH_UNIT ( ) NAMED_UNIT ( * ) SI_UNIT ( $, .METRE. ) );
#291 = CIRCLE ( 'NONE', #158, 0.1100000000000001948 ) ;
#292 =( NAMED_UNIT ( * ) PLANE_ANGLE_UNIT ( ) SI_UNIT ( $, .RADIAN. ) );
#293 = VERTEX_POINT ( 'NONE', #250 ) ;
#294 = FILL_AREA_STYLE ('',( #129 ) ) ;
#295 = EDGE_CURVE ( 'NONE', #244, #219, #225, .T. ) ;
#296 = SURFACE_STYLE_USAGE ( .BOTH. , #297 ) ;
#297 = SURFACE_SIDE_STYLE ('',( #68 ) ) ;
#298 = ORIENTED_EDGE ( 'NONE', *, *, #156, .F. ) ;
#299 = CARTESIAN_POINT ( 'NONE',  ( 0.0000000000000000000, 0.0000000000000000000, 2.500000000000000000 ) ) ;
ENDSEC;
END-ISO-10303-21;
