ISO-10303-21;
HEADER;
FILE_DESCRIPTION (( 'STEP AP214' ),
    '1' );
FILE_NAME ('Micro_GEM-500-2X.STEP',
    '2021-09-01T20:46:13',
    ( '' ),
    ( '' ),
    'SwSTEP 2.0',
    'SolidWorks 2020',
    '' );
FILE_SCHEMA (( 'AUTOMOTIVE_DESIGN' ));
ENDSEC;

DATA;
#1 = UNCERTAINTY_MEASURE_WITH_UNIT (LENGTH_MEASURE( 1.000000000000000082E-05 ), #36, 'distance_accuracy_value', 'NONE');
#2 = AXIS2_PLACEMENT_3D ( 'NONE', #161, #22, #249 ) ;
#3 = ORIENTED_EDGE ( 'NONE', *, *, #240, .F. ) ;
#4 = LINE ( 'NONE', #235, #191 ) ;
#5 = ORIENTED_EDGE ( 'NONE', *, *, #168, .T. ) ;
#6 = LENGTH_MEASURE_WITH_UNIT ( LENGTH_MEASURE( 0.02539999999999999897 ), #172 );
#7 = ADVANCED_BREP_SHAPE_REPRESENTATION ( 'Micro_GEM-500-2X', ( #48, #279 ), #247 ) ;
#8 = AXIS2_PLACEMENT_3D ( 'NONE', #114, #207, #293 ) ;
#9 = EDGE_LOOP ( 'NONE', ( #94, #46 ) ) ;
#10 = AXIS2_PLACEMENT_3D ( 'NONE', #20, #185, #186 ) ;
#11 = ORIENTED_EDGE ( 'NONE', *, *, #168, .F. ) ;
#12 = ADVANCED_FACE ( 'NONE', ( #268 ), #83, .T. ) ;
#13 = PRODUCT_CONTEXT ( 'NONE', #78, 'mechanical' ) ;
#14 = ORIENTED_EDGE ( 'NONE', *, *, #136, .T. ) ;
#15 = EDGE_LOOP ( 'NONE', ( #3, #237, #192, #29 ) ) ;
#16 = DIRECTION ( 'NONE',  ( -0.7071067811865402453, 0.0000000000000000000, -0.7071067811865546782 ) ) ;
#17 = VECTOR ( 'NONE', #125, 39.37007874015748143 ) ;
#18 = VECTOR ( 'NONE', #140, 39.37007874015748143 ) ;
#19 = AXIS2_PLACEMENT_3D ( 'NONE', #288, #289, #156 ) ;
#20 = CARTESIAN_POINT ( 'NONE',  ( 3.745650057197990990E-33, 0.0000000000000000000, 3.058555380870515566E-17 ) ) ;
#21 = DIRECTION ( 'NONE',  ( -1.000000000000000000, 0.0000000000000000000, 0.0000000000000000000 ) ) ;
#22 = DIRECTION ( 'NONE',  ( 0.0000000000000000000, 0.0000000000000000000, 1.000000000000000000 ) ) ;
#23 = UNCERTAINTY_MEASURE_WITH_UNIT (LENGTH_MEASURE( 1.000000000000000082E-05 ), #299, 'distance_accuracy_value', 'NONE');
#24 = CONICAL_SURFACE ( 'NONE', #19, 0.2350000000000011524, 0.7853981633974380649 ) ;
#25 = FACE_OUTER_BOUND ( 'NONE', #266, .T. ) ;
#26 = EDGE_CURVE ( 'NONE', #269, #194, #107, .T. ) ;
#27 = AXIS2_PLACEMENT_3D ( 'NONE', #198, #244, #154 ) ;
#28 = DIRECTION ( 'NONE',  ( -1.224646799147353454E-16, -0.0000000000000000000, -1.000000000000000000 ) ) ;
#29 = ORIENTED_EDGE ( 'NONE', *, *, #42, .F. ) ;
#30 = APPLICATION_PROTOCOL_DEFINITION ( 'draft international standard', 'automotive_design', 1998, #78 ) ;
#31 = ORIENTED_EDGE ( 'NONE', *, *, #178, .F. ) ;
#32 = AXIS2_PLACEMENT_3D ( 'NONE', #137, #108, #163 ) ;
#33 =( NAMED_UNIT ( * ) PLANE_ANGLE_UNIT ( ) SI_UNIT ( $, .RADIAN. ) );
#34 = CIRCLE ( 'NONE', #151, 0.2500000000000000000 ) ;
#35 = ORIENTED_EDGE ( 'NONE', *, *, #187, .T. ) ;
#36 =( CONVERSION_BASED_UNIT ( 'INCH', #126 ) LENGTH_UNIT ( ) NAMED_UNIT ( #181 ) );
#37 = DIRECTION ( 'NONE',  ( 0.0000000000000000000, 0.0000000000000000000, -1.000000000000000000 ) ) ;
#38 = CARTESIAN_POINT ( 'NONE',  ( 1.224646799147353454E-16, 0.0000000000000000000, 1.000000000000000000 ) ) ;
#39 = VECTOR ( 'NONE', #16, 39.37007874015748854 ) ;
#40 = DIRECTION ( 'NONE',  ( 1.224646799147353454E-16, 0.0000000000000000000, 1.000000000000000000 ) ) ;
#41 = CARTESIAN_POINT ( 'NONE',  ( 0.2497500000000001386, 0.0000000000000000000, 1.000000000000000000 ) ) ;
#42 = EDGE_CURVE ( 'NONE', #260, #269, #139, .T. ) ;
#43 = LINE ( 'NONE', #84, #171 ) ;
#44 = AXIS2_PLACEMENT_3D ( 'NONE', #38, #298, #226 ) ;
#45 = DIRECTION ( 'NONE',  ( -1.224646799147353454E-16, -0.0000000000000000000, -1.000000000000000000 ) ) ;
#46 = ORIENTED_EDGE ( 'NONE', *, *, #178, .T. ) ;
#47 = DIRECTION ( 'NONE',  ( -0.0000000000000000000, -0.0000000000000000000, -1.000000000000000000 ) ) ;
#48 = MANIFOLD_SOLID_BREP ( 'Cut-Revolve1', #202 ) ;
#49 = VERTEX_POINT ( 'NONE', #102 ) ;
#50 = CARTESIAN_POINT ( 'NONE',  ( 1.226383128429217700E-16, 0.0000000000000000000, 1.001417820454904462 ) ) ;
#51 = EDGE_LOOP ( 'NONE', ( #129, #72, #167, #220 ) ) ;
#52 = CARTESIAN_POINT ( 'NONE',  ( -0.2500000000000000000, 0.0000000000000000000, 2.985000000000001208 ) ) ;
#53 = CARTESIAN_POINT ( 'NONE',  ( 1.226383128429217700E-16, 0.0000000000000000000, 1.001417820454904462 ) ) ;
#54 = ORIENTED_EDGE ( 'NONE', *, *, #42, .T. ) ;
#55 = CIRCLE ( 'NONE', #236, 0.2497499999999999998 ) ;
#56 = CARTESIAN_POINT ( 'NONE',  ( 0.0000000000000000000, 0.0000000000000000000, 0.0000000000000000000 ) ) ;
#57 = FILL_AREA_STYLE ('',( #201 ) ) ;
#58 = CARTESIAN_POINT ( 'NONE',  ( 0.2497500000000001386, 0.0000000000000000000, 1.000000000000000000 ) ) ;
#59 = AXIS2_PLACEMENT_3D ( 'NONE', #63, #37, #231 ) ;
#60 = VERTEX_POINT ( 'NONE', #58 ) ;
#61 = DIMENSIONAL_EXPONENTS ( 1.000000000000000000, 0.0000000000000000000, 0.0000000000000000000, 0.0000000000000000000, 0.0000000000000000000, 0.0000000000000000000, 0.0000000000000000000 ) ;
#62 = DIRECTION ( 'NONE',  ( -1.000000000000000000, 0.0000000000000000000, 0.0000000000000000000 ) ) ;
#63 = CARTESIAN_POINT ( 'NONE',  ( 0.0000000000000000000, 0.0000000000000000000, 2.985000000000001208 ) ) ;
#64 = CARTESIAN_POINT ( 'NONE',  ( 0.0000000000000000000, 0.0000000000000000000, 3.000000000000000444 ) ) ;
#65 = ADVANCED_FACE ( 'NONE', ( #199 ), #24, .T. ) ;
#66 = CIRCLE ( 'NONE', #2, 0.2350000000000011524 ) ;
#67 = DIRECTION ( 'NONE',  ( -0.0000000000000000000, -0.0000000000000000000, -1.000000000000000000 ) ) ;
#68 = ADVANCED_FACE ( 'NONE', ( #246 ), #99, .T. ) ;
#69 = CARTESIAN_POINT ( 'NONE',  ( -0.2350000000000011524, 0.0000000000000000000, 3.000000000000000444 ) ) ;
#70 = CARTESIAN_POINT ( 'NONE',  ( -0.2497499999999999998, 0.0000000000000000000, 3.058555380870515566E-17 ) ) ;
#71 = CARTESIAN_POINT ( 'NONE',  ( 0.0000000000000000000, 0.0000000000000000000, 3.000000000000000444 ) ) ;
#72 = ORIENTED_EDGE ( 'NONE', *, *, #245, .T. ) ;
#73 = ORIENTED_EDGE ( 'NONE', *, *, #245, .F. ) ;
#74 = SURFACE_STYLE_USAGE ( .BOTH. , #76 ) ;
#75 = EDGE_LOOP ( 'NONE', ( #290, #203, #5, #101 ) ) ;
#76 = SURFACE_SIDE_STYLE ('',( #97 ) ) ;
#77 = ORIENTED_EDGE ( 'NONE', *, *, #110, .F. ) ;
#78 = APPLICATION_CONTEXT ( 'automotive_design' ) ;
#79 = VECTOR ( 'NONE', #162, 39.37007874015748143 ) ;
#80 = ORIENTED_EDGE ( 'NONE', *, *, #233, .T. ) ;
#81 = DIRECTION ( 'NONE',  ( 0.0000000000000000000, 0.0000000000000000000, 1.000000000000000000 ) ) ;
#82 = ORIENTED_EDGE ( 'NONE', *, *, #291, .F. ) ;
#83 = CYLINDRICAL_SURFACE ( 'NONE', #275, 0.2497499999999999998 ) ;
#84 = CARTESIAN_POINT ( 'NONE',  ( 0.2497499999999999998, 3.058555380870514950E-17, -3.058555380870515566E-17 ) ) ;
#85 = CARTESIAN_POINT ( 'NONE',  ( 0.2497499999999999998, 3.058555380870514950E-17, 0.0000000000000000000 ) ) ;
#86 = FACE_OUTER_BOUND ( 'NONE', #75, .T. ) ;
#87 = DIRECTION ( 'NONE',  ( -1.224646799147353454E-16, -0.0000000000000000000, -1.000000000000000000 ) ) ;
#88 = FACE_OUTER_BOUND ( 'NONE', #234, .T. ) ;
#89 = EDGE_CURVE ( 'NONE', #106, #60, #285, .T. ) ;
#90 = DIRECTION ( 'NONE',  ( 1.000000000000000000, 0.0000000000000000000, 0.0000000000000000000 ) ) ;
#91 = CARTESIAN_POINT ( 'NONE',  ( 0.2500000000000000000, 3.061616997868382402E-17, 2.985000000000001208 ) ) ;
#92 = CIRCLE ( 'NONE', #10, 0.2497499999999999998 ) ;
#93 = LENGTH_MEASURE_WITH_UNIT ( LENGTH_MEASURE( 0.02539999999999999897 ), #166 );
#94 = ORIENTED_EDGE ( 'NONE', *, *, #255, .T. ) ;
#95 =( NAMED_UNIT ( * ) SI_UNIT ( $, .STERADIAN. ) SOLID_ANGLE_UNIT ( ) );
#96 = EDGE_LOOP ( 'NONE', ( #216, #80, #175, #82 ) ) ;
#97 = SURFACE_STYLE_FILL_AREA ( #259 ) ;
#98 = ORIENTED_EDGE ( 'NONE', *, *, #294, .T. ) ;
#99 = CONICAL_SURFACE ( 'NONE', #145, 0.2350000000000011524, 0.7853981633974380649 ) ;
#100 = ORIENTED_EDGE ( 'NONE', *, *, #233, .F. ) ;
#101 = ORIENTED_EDGE ( 'NONE', *, *, #283, .T. ) ;
#102 = CARTESIAN_POINT ( 'NONE',  ( -0.2350000000000011524, 0.0000000000000000000, 3.000000000000000444 ) ) ;
#103 = CARTESIAN_POINT ( 'NONE',  ( 0.0000000000000000000, 0.0000000000000000000, 0.0000000000000000000 ) ) ;
#104 =( NAMED_UNIT ( * ) SI_UNIT ( $, .STERADIAN. ) SOLID_ANGLE_UNIT ( ) );
#105 = ADVANCED_FACE ( 'NONE', ( #253 ), #209, .F. ) ;
#106 = VERTEX_POINT ( 'NONE', #225 ) ;
#107 = LINE ( 'NONE', #177, #17 ) ;
#108 = DIRECTION ( 'NONE',  ( -1.224646799147353454E-16, -0.0000000000000000000, -1.000000000000000000 ) ) ;
#109 = CARTESIAN_POINT ( 'NONE',  ( 0.0000000000000000000, 0.0000000000000000000, 3.000000000000000444 ) ) ;
#110 = EDGE_CURVE ( 'NONE', #49, #269, #296, .T. ) ;
#111 = PLANE ( 'NONE',  #222 ) ;
#112 = DIRECTION ( 'NONE',  ( 1.224646799147353454E-16, 0.0000000000000000000, 1.000000000000000000 ) ) ;
#113 =( GEOMETRIC_REPRESENTATION_CONTEXT ( 3 ) GLOBAL_UNCERTAINTY_ASSIGNED_CONTEXT ( ( #23 ) ) GLOBAL_UNIT_ASSIGNED_CONTEXT ( ( #299, #116, #149 ) ) REPRESENTATION_CONTEXT ( 'NONE', 'WORKASPACE' ) );
#114 = CARTESIAN_POINT ( 'NONE',  ( 0.0000000000000000000, 0.0000000000000000000, 3.000000000000000444 ) ) ;
#115 = ADVANCED_FACE ( 'NONE', ( #134 ), #273, .T. ) ;
#116 =( NAMED_UNIT ( * ) PLANE_ANGLE_UNIT ( ) SI_UNIT ( $, .RADIAN. ) );
#117 = LINE ( 'NONE', #122, #119 ) ;
#118 = EDGE_LOOP ( 'NONE', ( #121, #174, #160, #77 ) ) ;
#119 = VECTOR ( 'NONE', #47, 39.37007874015748143 ) ;
#120 = PRESENTATION_STYLE_ASSIGNMENT (( #74 ) ) ;
#121 = ORIENTED_EDGE ( 'NONE', *, *, #187, .F. ) ;
#122 = CARTESIAN_POINT ( 'NONE',  ( 0.2500000000000000000, 3.061616997868382402E-17, 3.000000000000000444 ) ) ;
#123 = DIRECTION ( 'NONE',  ( 1.000000000000000000, 0.0000000000000000000, 0.0000000000000000000 ) ) ;
#124 = APPLICATION_PROTOCOL_DEFINITION ( 'draft international standard', 'automotive_design', 1998, #281 ) ;
#125 = DIRECTION ( 'NONE',  ( -0.0000000000000000000, -0.0000000000000000000, -1.000000000000000000 ) ) ;
#126 = LENGTH_MEASURE_WITH_UNIT ( LENGTH_MEASURE( 0.02539999999999999897 ), #173 );
#127 = DIRECTION ( 'NONE',  ( 1.000000000000000000, 0.0000000000000000000, 0.0000000000000000000 ) ) ;
#128 = AXIS2_PLACEMENT_3D ( 'NONE', #109, #252, #21 ) ;
#129 = ORIENTED_EDGE ( 'NONE', *, *, #148, .T. ) ;
#130 = PRODUCT_DEFINITION ( 'UNKNOWN', '', #197, #232 ) ;
#131 = VERTEX_POINT ( 'NONE', #179 ) ;
#132 = DIRECTION ( 'NONE',  ( 0.0000000000000000000, 0.0000000000000000000, 1.000000000000000000 ) ) ;
#133 = CIRCLE ( 'NONE', #59, 0.2500000000000000000 ) ;
#134 = FACE_OUTER_BOUND ( 'NONE', #170, .T. ) ;
#135 = DIRECTION ( 'NONE',  ( -1.224646799147353454E-16, -0.0000000000000000000, -1.000000000000000000 ) ) ;
#136 = EDGE_CURVE ( 'NONE', #49, #224, #292, .T. ) ;
#137 = CARTESIAN_POINT ( 'NONE',  ( 0.0000000000000000000, 0.0000000000000000000, 0.0000000000000000000 ) ) ;
#138 = CARTESIAN_POINT ( 'NONE',  ( 0.0000000000000000000, 0.0000000000000000000, 0.0000000000000000000 ) ) ;
#139 = CIRCLE ( 'NONE', #27, 0.2500000000000000000 ) ;
#140 = DIRECTION ( 'NONE',  ( -1.224646799147353454E-16, -0.0000000000000000000, -1.000000000000000000 ) ) ;
#141 = DIRECTION ( 'NONE',  ( -1.224646799147353454E-16, -0.0000000000000000000, -1.000000000000000000 ) ) ;
#142 = VERTEX_POINT ( 'NONE', #85 ) ;
#143 = CARTESIAN_POINT ( 'NONE',  ( 0.2350000000000011524, 2.877919977996294002E-17, 3.000000000000000444 ) ) ;
#144 = ORIENTED_EDGE ( 'NONE', *, *, #283, .F. ) ;
#145 = AXIS2_PLACEMENT_3D ( 'NONE', #270, #211, #276 ) ;
#146 = CARTESIAN_POINT ( 'NONE',  ( 3.745650057197990990E-33, 0.0000000000000000000, 3.058555380870515566E-17 ) ) ;
#147 = EDGE_CURVE ( 'NONE', #60, #106, #251, .T. ) ;
#148 = EDGE_CURVE ( 'NONE', #269, #260, #133, .T. ) ;
#149 =( NAMED_UNIT ( * ) SI_UNIT ( $, .STERADIAN. ) SOLID_ANGLE_UNIT ( ) );
#150 = SURFACE_STYLE_FILL_AREA ( #57 ) ;
#151 = AXIS2_PLACEMENT_3D ( 'NONE', #53, #141, #123 ) ;
#152 = CONICAL_SURFACE ( 'NONE', #183, 0.2497499999999999998, 0.1745329251994339192 ) ;
#153 = MECHANICAL_DESIGN_GEOMETRIC_PRESENTATION_REPRESENTATION (  '', ( #159 ), #113 ) ;
#154 = DIRECTION ( 'NONE',  ( 1.000000000000000000, 0.0000000000000000000, 0.0000000000000000000 ) ) ;
#155 = SURFACE_SIDE_STYLE ('',( #150 ) ) ;
#156 = DIRECTION ( 'NONE',  ( -1.000000000000000000, 0.0000000000000000000, 0.0000000000000000000 ) ) ;
#157 = ADVANCED_FACE ( 'NONE', ( #25 ), #221, .T. ) ;
#158 = COLOUR_RGB ( '',0.7921568627450980005, 0.8196078431372548767, 0.9333333333333333481 ) ;
#159 = STYLED_ITEM ( 'NONE', ( #120 ), #7 ) ;
#160 = ORIENTED_EDGE ( 'NONE', *, *, #148, .F. ) ;
#161 = CARTESIAN_POINT ( 'NONE',  ( 0.0000000000000000000, 0.0000000000000000000, 3.000000000000000444 ) ) ;
#162 = DIRECTION ( 'NONE',  ( 0.1736481776669314137, 0.0000000000000000000, 0.9848077530122077983 ) ) ;
#163 = DIRECTION ( 'NONE',  ( -1.000000000000000000, 0.0000000000000000000, 1.224646799147353700E-16 ) ) ;
#164 = DIRECTION ( 'NONE',  ( 1.000000000000000000, 0.0000000000000000000, -0.0000000000000000000 ) ) ;
#165 = CYLINDRICAL_SURFACE ( 'NONE', #128, 0.2500000000000000000 ) ;
#166 =( LENGTH_UNIT ( ) NAMED_UNIT ( * ) SI_UNIT ( $, .METRE. ) );
#167 = ORIENTED_EDGE ( 'NONE', *, *, #263, .F. ) ;
#168 = EDGE_CURVE ( 'NONE', #60, #241, #212, .T. ) ;
#169 = DIRECTION ( 'NONE',  ( 0.7071067811865402453, 8.659560562354845344E-17, -0.7071067811865546782 ) ) ;
#170 = EDGE_LOOP ( 'NONE', ( #100, #287, #214, #31 ) ) ;
#171 = VECTOR ( 'NONE', #135, 39.37007874015748143 ) ;
#172 =( LENGTH_UNIT ( ) NAMED_UNIT ( * ) SI_UNIT ( $, .METRE. ) );
#173 =( LENGTH_UNIT ( ) NAMED_UNIT ( * ) SI_UNIT ( $, .METRE. ) );
#174 = ORIENTED_EDGE ( 'NONE', *, *, #240, .T. ) ;
#175 = ORIENTED_EDGE ( 'NONE', *, *, #255, .F. ) ;
#176 = DIRECTION ( 'NONE',  ( -1.000000000000000000, 0.0000000000000000000, 1.224646799147353700E-16 ) ) ;
#177 = CARTESIAN_POINT ( 'NONE',  ( -0.2500000000000000000, 0.0000000000000000000, 3.000000000000000444 ) ) ;
#178 = EDGE_CURVE ( 'NONE', #142, #131, #92, .T. ) ;
#179 = CARTESIAN_POINT ( 'NONE',  ( -0.2497499999999999998, 0.0000000000000000000, 6.117110761741031132E-17 ) ) ;
#180 = FACE_OUTER_BOUND ( 'NONE', #51, .T. ) ;
#181 = DIMENSIONAL_EXPONENTS ( 1.000000000000000000, 0.0000000000000000000, 0.0000000000000000000, 0.0000000000000000000, 0.0000000000000000000, 0.0000000000000000000, 0.0000000000000000000 ) ;
#182 = CARTESIAN_POINT ( 'NONE',  ( 1.224646799147353454E-16, 0.0000000000000000000, 1.000000000000000000 ) ) ;
#183 = AXIS2_PLACEMENT_3D ( 'NONE', #182, #40, #254 ) ;
#184 = PRESENTATION_LAYER_ASSIGNMENT (  '', '', ( #159 ) ) ;
#185 = DIRECTION ( 'NONE',  ( -1.224646799147353454E-16, -0.0000000000000000000, -1.000000000000000000 ) ) ;
#186 = DIRECTION ( 'NONE',  ( -1.000000000000000000, 0.0000000000000000000, 1.224646799147353700E-16 ) ) ;
#187 = EDGE_CURVE ( 'NONE', #224, #49, #66, .T. ) ;
#188 = DIRECTION ( 'NONE',  ( -1.000000000000000000, 0.0000000000000000000, 1.224646799147353700E-16 ) ) ;
#189 = DIMENSIONAL_EXPONENTS ( 1.000000000000000000, 0.0000000000000000000, 0.0000000000000000000, 0.0000000000000000000, 0.0000000000000000000, 0.0000000000000000000, 0.0000000000000000000 ) ;
#190 = LINE ( 'NONE', #70, #18 ) ;
#191 = VECTOR ( 'NONE', #239, 39.37007874015747433 ) ;
#192 = ORIENTED_EDGE ( 'NONE', *, *, #110, .T. ) ;
#193 = CARTESIAN_POINT ( 'NONE',  ( 0.2500000000000001110, 3.061616997868383634E-17, 1.001417820454904462 ) ) ;
#194 = VERTEX_POINT ( 'NONE', #295 ) ;
#195 = DIRECTION ( 'NONE',  ( 1.000000000000000000, 0.0000000000000000000, -0.0000000000000000000 ) ) ;
#196 =( GEOMETRIC_REPRESENTATION_CONTEXT ( 3 ) GLOBAL_UNCERTAINTY_ASSIGNED_CONTEXT ( ( #1 ) ) GLOBAL_UNIT_ASSIGNED_CONTEXT ( ( #36, #33, #104 ) ) REPRESENTATION_CONTEXT ( 'NONE', 'WORKASPACE' ) );
#197 = PRODUCT_DEFINITION_FORMATION_WITH_SPECIFIED_SOURCE ( 'ANY', '', #248, .NOT_KNOWN. ) ;
#198 = CARTESIAN_POINT ( 'NONE',  ( 0.0000000000000000000, 0.0000000000000000000, 2.985000000000001208 ) ) ;
#199 = FACE_OUTER_BOUND ( 'NONE', #118, .T. ) ;
#200 = AXIS2_PLACEMENT_3D ( 'NONE', #277, #112, #228 ) ;
#201 = FILL_AREA_STYLE_COLOUR ( '', #215 ) ;
#202 = CLOSED_SHELL ( 'NONE', ( #12, #157, #65, #210, #205, #238, #68, #230, #115, #105 ) ) ;
#203 = ORIENTED_EDGE ( 'NONE', *, *, #147, .F. ) ;
#204 = PRODUCT_DEFINITION_SHAPE ( 'NONE', 'NONE',  #130 ) ;
#205 = ADVANCED_FACE ( 'NONE', ( #88 ), #274, .T. ) ;
#206 = AXIS2_PLACEMENT_3D ( 'NONE', #272, #87, #62 ) ;
#207 = DIRECTION ( 'NONE',  ( 0.0000000000000000000, 0.0000000000000000000, 1.000000000000000000 ) ) ;
#208 = CARTESIAN_POINT ( 'NONE',  ( 0.2350000000000011524, 2.969768487932338510E-17, 3.000000000000000444 ) ) ;
#209 = PLANE ( 'NONE',  #271 ) ;
#210 = ADVANCED_FACE ( 'NONE', ( #180 ), #165, .T. ) ;
#211 = DIRECTION ( 'NONE',  ( 0.0000000000000000000, 0.0000000000000000000, -1.000000000000000000 ) ) ;
#212 = LINE ( 'NONE', #41, #79 ) ;
#213 =( CONVERSION_BASED_UNIT ( 'INCH', #93 ) LENGTH_UNIT ( ) NAMED_UNIT ( #61 ) );
#214 = ORIENTED_EDGE ( 'NONE', *, *, #291, .T. ) ;
#215 = COLOUR_RGB ( '',0.7921568627450980005, 0.8196078431372548767, 0.9333333333333333481 ) ;
#216 = ORIENTED_EDGE ( 'NONE', *, *, #89, .T. ) ;
#217 = DIRECTION ( 'NONE',  ( 0.0000000000000000000, 0.0000000000000000000, 1.000000000000000000 ) ) ;
#218 = ORIENTED_EDGE ( 'NONE', *, *, #263, .T. ) ;
#219 = PRODUCT_RELATED_PRODUCT_CATEGORY ( 'part', '', ( #248 ) ) ;
#220 = ORIENTED_EDGE ( 'NONE', *, *, #26, .F. ) ;
#221 = CONICAL_SURFACE ( 'NONE', #200, 0.2497499999999999998, 0.1745329251994339192 ) ;
#222 = AXIS2_PLACEMENT_3D ( 'NONE', #71, #217, #195 ) ;
#223 = PRESENTATION_STYLE_ASSIGNMENT (( #264 ) ) ;
#224 = VERTEX_POINT ( 'NONE', #208 ) ;
#225 = CARTESIAN_POINT ( 'NONE',  ( -0.2497499999999998888, 3.060086189369449292E-17, 1.000000000000000000 ) ) ;
#226 = DIRECTION ( 'NONE',  ( -1.000000000000000000, 0.0000000000000000000, 0.0000000000000000000 ) ) ;
#227 = FACE_OUTER_BOUND ( 'NONE', #262, .T. ) ;
#228 = DIRECTION ( 'NONE',  ( 1.000000000000000000, 0.0000000000000000000, 0.0000000000000000000 ) ) ;
#229 = PRESENTATION_LAYER_ASSIGNMENT (  '', '', ( #256 ) ) ;
#230 = ADVANCED_FACE ( 'NONE', ( #86 ), #152, .T. ) ;
#231 = DIRECTION ( 'NONE',  ( 1.000000000000000000, 0.0000000000000000000, 0.0000000000000000000 ) ) ;
#232 = PRODUCT_DEFINITION_CONTEXT ( 'detailed design', #281, 'design' ) ;
#233 = EDGE_CURVE ( 'NONE', #60, #142, #43, .T. ) ;
#234 = EDGE_LOOP ( 'NONE', ( #73, #54, #284, #144 ) ) ;
#235 = CARTESIAN_POINT ( 'NONE',  ( -0.2497499999999998888, 3.058555380870514950E-17, 1.000000000000000000 ) ) ;
#236 = AXIS2_PLACEMENT_3D ( 'NONE', #146, #28, #188 ) ;
#237 = ORIENTED_EDGE ( 'NONE', *, *, #136, .F. ) ;
#238 = ADVANCED_FACE ( 'NONE', ( #227 ), #111, .T. ) ;
#239 = DIRECTION ( 'NONE',  ( -0.1736481776669312194, 2.126576849575783625E-17, 0.9848077530122080203 ) ) ;
#240 = EDGE_CURVE ( 'NONE', #224, #260, #258, .T. ) ;
#241 = VERTEX_POINT ( 'NONE', #193 ) ;
#242 = AXIS2_PLACEMENT_3D ( 'NONE', #64, #67, #250 ) ;
#243 = DIRECTION ( 'NONE',  ( -1.224646799147353454E-16, -0.0000000000000000000, -1.000000000000000000 ) ) ;
#244 = DIRECTION ( 'NONE',  ( 0.0000000000000000000, 0.0000000000000000000, -1.000000000000000000 ) ) ;
#245 = EDGE_CURVE ( 'NONE', #260, #241, #117, .T. ) ;
#246 = FACE_OUTER_BOUND ( 'NONE', #15, .T. ) ;
#247 =( GEOMETRIC_REPRESENTATION_CONTEXT ( 3 ) GLOBAL_UNCERTAINTY_ASSIGNED_CONTEXT ( ( #267 ) ) GLOBAL_UNIT_ASSIGNED_CONTEXT ( ( #213, #280, #95 ) ) REPRESENTATION_CONTEXT ( 'NONE', 'WORKASPACE' ) );
#248 = PRODUCT ( 'Micro_GEM-500-2X', 'Micro_GEM-500-2X', '', ( #13 ) ) ;
#249 = DIRECTION ( 'NONE',  ( 1.000000000000000000, 0.0000000000000000000, 0.0000000000000000000 ) ) ;
#250 = DIRECTION ( 'NONE',  ( -1.000000000000000000, 0.0000000000000000000, 0.0000000000000000000 ) ) ;
#251 = CIRCLE ( 'NONE', #206, 0.2497499999999999998 ) ;
#252 = DIRECTION ( 'NONE',  ( -0.0000000000000000000, -0.0000000000000000000, -1.000000000000000000 ) ) ;
#253 = FACE_OUTER_BOUND ( 'NONE', #9, .T. ) ;
#254 = DIRECTION ( 'NONE',  ( 1.000000000000000000, 0.0000000000000000000, 0.0000000000000000000 ) ) ;
#255 = EDGE_CURVE ( 'NONE', #131, #142, #55, .T. ) ;
#256 = STYLED_ITEM ( 'NONE', ( #223 ), #48 ) ;
#257 = ORIENTED_EDGE ( 'NONE', *, *, #89, .F. ) ;
#258 = LINE ( 'NONE', #143, #278 ) ;
#259 = FILL_AREA_STYLE ('',( #282 ) ) ;
#260 = VERTEX_POINT ( 'NONE', #91 ) ;
#261 = CIRCLE ( 'NONE', #297, 0.2500000000000000000 ) ;
#262 = EDGE_LOOP ( 'NONE', ( #14, #35 ) ) ;
#263 = EDGE_CURVE ( 'NONE', #194, #241, #34, .T. ) ;
#264 = SURFACE_STYLE_USAGE ( .BOTH. , #155 ) ;
#265 = MECHANICAL_DESIGN_GEOMETRIC_PRESENTATION_REPRESENTATION (  '', ( #256 ), #196 ) ;
#266 = EDGE_LOOP ( 'NONE', ( #257, #98, #218, #11 ) ) ;
#267 = UNCERTAINTY_MEASURE_WITH_UNIT (LENGTH_MEASURE( 1.000000000000000082E-05 ), #213, 'distance_accuracy_value', 'NONE');
#268 = FACE_OUTER_BOUND ( 'NONE', #96, .T. ) ;
#269 = VERTEX_POINT ( 'NONE', #52 ) ;
#270 = CARTESIAN_POINT ( 'NONE',  ( 0.0000000000000000000, 0.0000000000000000000, 3.000000000000000444 ) ) ;
#271 = AXIS2_PLACEMENT_3D ( 'NONE', #138, #132, #164 ) ;
#272 = CARTESIAN_POINT ( 'NONE',  ( 1.224646799147353454E-16, 0.0000000000000000000, 1.000000000000000000 ) ) ;
#273 = CYLINDRICAL_SURFACE ( 'NONE', #32, 0.2497499999999999998 ) ;
#274 = CYLINDRICAL_SURFACE ( 'NONE', #242, 0.2500000000000000000 ) ;
#275 = AXIS2_PLACEMENT_3D ( 'NONE', #56, #243, #176 ) ;
#276 = DIRECTION ( 'NONE',  ( -1.000000000000000000, 0.0000000000000000000, 0.0000000000000000000 ) ) ;
#277 = CARTESIAN_POINT ( 'NONE',  ( 1.224646799147353454E-16, 0.0000000000000000000, 1.000000000000000000 ) ) ;
#278 = VECTOR ( 'NONE', #169, 39.37007874015748854 ) ;
#279 = AXIS2_PLACEMENT_3D ( 'NONE', #103, #81, #127 ) ;
#280 =( NAMED_UNIT ( * ) PLANE_ANGLE_UNIT ( ) SI_UNIT ( $, .RADIAN. ) );
#281 = APPLICATION_CONTEXT ( 'automotive_design' ) ;
#282 = FILL_AREA_STYLE_COLOUR ( '', #158 ) ;
#283 = EDGE_CURVE ( 'NONE', #241, #194, #261, .T. ) ;
#284 = ORIENTED_EDGE ( 'NONE', *, *, #26, .T. ) ;
#285 = CIRCLE ( 'NONE', #44, 0.2497499999999999998 ) ;
#286 = SHAPE_DEFINITION_REPRESENTATION ( #204, #7 ) ;
#287 = ORIENTED_EDGE ( 'NONE', *, *, #147, .T. ) ;
#288 = CARTESIAN_POINT ( 'NONE',  ( 0.0000000000000000000, 0.0000000000000000000, 3.000000000000000444 ) ) ;
#289 = DIRECTION ( 'NONE',  ( 0.0000000000000000000, 0.0000000000000000000, -1.000000000000000000 ) ) ;
#290 = ORIENTED_EDGE ( 'NONE', *, *, #294, .F. ) ;
#291 = EDGE_CURVE ( 'NONE', #106, #131, #190, .T. ) ;
#292 = CIRCLE ( 'NONE', #8, 0.2350000000000011524 ) ;
#293 = DIRECTION ( 'NONE',  ( 1.000000000000000000, 0.0000000000000000000, 0.0000000000000000000 ) ) ;
#294 = EDGE_CURVE ( 'NONE', #106, #194, #4, .T. ) ;
#295 = CARTESIAN_POINT ( 'NONE',  ( -0.2499999999999998612, 0.0000000000000000000, 1.001417820454904462 ) ) ;
#296 = LINE ( 'NONE', #69, #39 ) ;
#297 = AXIS2_PLACEMENT_3D ( 'NONE', #50, #45, #90 ) ;
#298 = DIRECTION ( 'NONE',  ( -1.224646799147353454E-16, -0.0000000000000000000, -1.000000000000000000 ) ) ;
#299 =( CONVERSION_BASED_UNIT ( 'INCH', #6 ) LENGTH_UNIT ( ) NAMED_UNIT ( #189 ) );
ENDSEC;
END-ISO-10303-21;
