ISO-10303-21;
HEADER;
FILE_DESCRIPTION (( 'STEP AP214' ),
    '1' );
FILE_NAME ('Micro_SFAM-200050.STEP',
    '2021-09-02T04:30:32',
    ( '' ),
    ( '' ),
    'SwSTEP 2.0',
    'SolidWorks 2020',
    '' );
FILE_SCHEMA (( 'AUTOMOTIVE_DESIGN' ));
ENDSEC;

DATA;
#1 = FACE_OUTER_BOUND ( 'NONE', #71, .T. ) ;
#2 = CIRCLE ( 'NONE', #270, 0.3937009999999999676 ) ;
#3 = ADVANCED_FACE ( 'NONE', ( #98 ), #56, .T. ) ;
#4 = EDGE_LOOP ( 'NONE', ( #35, #94, #127, #33 ) ) ;
#5 = ORIENTED_EDGE ( 'NONE', *, *, #77, .F. ) ;
#6 = VERTEX_POINT ( 'NONE', #217 ) ;
#7 = CARTESIAN_POINT ( 'NONE',  ( 0.0000000000000000000, 0.0000000000000000000, 3.937007999999999619 ) ) ;
#8 = AXIS2_PLACEMENT_3D ( 'NONE', #57, #92, #49 ) ;
#9 = DIRECTION ( 'NONE',  ( 1.224646799147353207E-16, 0.0000000000000000000, 1.000000000000000000 ) ) ;
#10 = EDGE_LOOP ( 'NONE', ( #169, #239, #284, #122 ) ) ;
#11 = MANIFOLD_SOLID_BREP ( 'Cut-Revolve1', #55 ) ;
#12 =( NAMED_UNIT ( * ) PLANE_ANGLE_UNIT ( ) SI_UNIT ( $, .RADIAN. ) );
#13 =( NAMED_UNIT ( * ) SI_UNIT ( $, .STERADIAN. ) SOLID_ANGLE_UNIT ( ) );
#14 = DIRECTION ( 'NONE',  ( 0.0000000000000000000, 0.0000000000000000000, -1.000000000000000000 ) ) ;
#15 = ADVANCED_FACE ( 'NONE', ( #200 ), #141, .T. ) ;
#16 = LINE ( 'NONE', #108, #160 ) ;
#17 = CARTESIAN_POINT ( 'NONE',  ( 0.3937009999999999676, 4.821446694711121291E-17, 3.937007999999999619 ) ) ;
#18 = VECTOR ( 'NONE', #298, 39.37007874015748143 ) ;
#19 = SURFACE_STYLE_FILL_AREA ( #107 ) ;
#20 = ADVANCED_FACE ( 'NONE', ( #279 ), #29, .T. ) ;
#21 =( LENGTH_UNIT ( ) NAMED_UNIT ( * ) SI_UNIT ( $, .METRE. ) );
#22 = EDGE_CURVE ( 'NONE', #280, #53, #232, .T. ) ;
#23 = CARTESIAN_POINT ( 'NONE',  ( 2.413456501007157566E-16, 0.0000000000000000000, 1.970736789323664695 ) ) ;
#24 = CARTESIAN_POINT ( 'NONE',  ( 0.3933072990000003322, 0.0000000000000000000, 1.968503999999999809 ) ) ;
#25 = VECTOR ( 'NONE', #268, 39.37007874015748143 ) ;
#26 = LINE ( 'NONE', #119, #34 ) ;
#27 = PRODUCT_DEFINITION_CONTEXT ( 'detailed design', #74, 'design' ) ;
#28 = CARTESIAN_POINT ( 'NONE',  ( 0.3937009999999999676, 4.821446694711121291E-17, 3.922007999999999495 ) ) ;
#29 = CONICAL_SURFACE ( 'NONE', #256, 0.3933072990000000546, 0.1745329251994338915 ) ;
#30 = CARTESIAN_POINT ( 'NONE',  ( -0.3933072989999999991, 0.0000000000000000000, 9.633250496032820680E-17 ) ) ;
#31 = PLANE ( 'NONE',  #213 ) ;
#32 = ORIENTED_EDGE ( 'NONE', *, *, #206, .F. ) ;
#33 = ORIENTED_EDGE ( 'NONE', *, *, #112, .F. ) ;
#34 = VECTOR ( 'NONE', #90, 39.37007874015748143 ) ;
#35 = ORIENTED_EDGE ( 'NONE', *, *, #248, .T. ) ;
#36 = EDGE_CURVE ( 'NONE', #6, #257, #16, .T. ) ;
#37 = ORIENTED_EDGE ( 'NONE', *, *, #238, .T. ) ;
#38 = EDGE_LOOP ( 'NONE', ( #50, #240, #167, #237 ) ) ;
#39 = FILL_AREA_STYLE_COLOUR ( '', #277 ) ;
#40 = DIRECTION ( 'NONE',  ( 1.000000000000000000, 0.0000000000000000000, 0.0000000000000000000 ) ) ;
#41 = AXIS2_PLACEMENT_3D ( 'NONE', #177, #151, #227 ) ;
#42 = APPLICATION_PROTOCOL_DEFINITION ( 'draft international standard', 'automotive_design', 1998, #74 ) ;
#43 = STYLED_ITEM ( 'NONE', ( #110 ), #11 ) ;
#44 = CARTESIAN_POINT ( 'NONE',  ( 0.0000000000000000000, 0.0000000000000000000, 3.937007999999999619 ) ) ;
#45 = PRESENTATION_STYLE_ASSIGNMENT (( #148 ) ) ;
#46 = DIMENSIONAL_EXPONENTS ( 1.000000000000000000, 0.0000000000000000000, 0.0000000000000000000, 0.0000000000000000000, 0.0000000000000000000, 0.0000000000000000000, 0.0000000000000000000 ) ;
#47 = DIRECTION ( 'NONE',  ( 1.000000000000000000, 0.0000000000000000000, 0.0000000000000000000 ) ) ;
#48 = AXIS2_PLACEMENT_3D ( 'NONE', #176, #175, #226 ) ;
#49 = DIRECTION ( 'NONE',  ( -1.000000000000000000, 0.0000000000000000000, 0.0000000000000000000 ) ) ;
#50 = ORIENTED_EDGE ( 'NONE', *, *, #121, .F. ) ;
#51 = CARTESIAN_POINT ( 'NONE',  ( 0.0000000000000000000, 0.0000000000000000000, 0.0000000000000000000 ) ) ;
#52 = ORIENTED_EDGE ( 'NONE', *, *, #77, .T. ) ;
#53 = VERTEX_POINT ( 'NONE', #30 ) ;
#54 = DIRECTION ( 'NONE',  ( -1.224646799147353207E-16, -0.0000000000000000000, -1.000000000000000000 ) ) ;
#55 = CLOSED_SHELL ( 'NONE', ( #3, #70, #128, #68, #196, #273, #15, #20, #161, #95 ) ) ;
#56 = CYLINDRICAL_SURFACE ( 'NONE', #99, 0.3933072990000000546 ) ;
#57 = CARTESIAN_POINT ( 'NONE',  ( 0.0000000000000000000, 0.0000000000000000000, 3.937007999999999619 ) ) ;
#58 = PRESENTATION_LAYER_ASSIGNMENT (  '', '', ( #156 ) ) ;
#59 = CARTESIAN_POINT ( 'NONE',  ( 0.0000000000000000000, 0.0000000000000000000, 0.0000000000000000000 ) ) ;
#60 = PRODUCT_CONTEXT ( 'NONE', #258, 'mechanical' ) ;
#61 = PRODUCT ( 'Micro_SFAM-200050', 'Micro_SFAM-200050', '', ( #60 ) ) ;
#62 = UNCERTAINTY_MEASURE_WITH_UNIT (LENGTH_MEASURE( 1.000000000000000082E-05 ), #84, 'distance_accuracy_value', 'NONE');
#63 = LINE ( 'NONE', #79, #25 ) ;
#64 = DIRECTION ( 'NONE',  ( -0.0000000000000000000, -0.0000000000000000000, -1.000000000000000000 ) ) ;
#65 = VECTOR ( 'NONE', #91, 39.37007874015748143 ) ;
#66 = DIRECTION ( 'NONE',  ( 0.0000000000000000000, 0.0000000000000000000, 1.000000000000000000 ) ) ;
#67 = DIRECTION ( 'NONE',  ( 0.0000000000000000000, 0.0000000000000000000, 1.000000000000000000 ) ) ;
#68 = ADVANCED_FACE ( 'NONE', ( #166 ), #216, .T. ) ;
#69 = CARTESIAN_POINT ( 'NONE',  ( -0.3937009999999999676, 0.0000000000000000000, 3.937007999999999619 ) ) ;
#70 = ADVANCED_FACE ( 'NONE', ( #1 ), #87, .T. ) ;
#71 = EDGE_LOOP ( 'NONE', ( #171, #187, #37, #126 ) ) ;
#72 = EDGE_LOOP ( 'NONE', ( #32, #189, #184, #253 ) ) ;
#73 = VERTEX_POINT ( 'NONE', #137 ) ;
#74 = APPLICATION_CONTEXT ( 'automotive_design' ) ;
#75 = VERTEX_POINT ( 'NONE', #28 ) ;
#76 = FILL_AREA_STYLE ('',( #286 ) ) ;
#77 = EDGE_CURVE ( 'NONE', #53, #280, #88, .T. ) ;
#78 =( CONVERSION_BASED_UNIT ( 'INCH', #288 ) LENGTH_UNIT ( ) NAMED_UNIT ( #117 ) );
#79 = CARTESIAN_POINT ( 'NONE',  ( 0.3933072990000003322, 0.0000000000000000000, 1.968503999999999809 ) ) ;
#80 = AXIS2_PLACEMENT_3D ( 'NONE', #150, #224, #40 ) ;
#81 = CYLINDRICAL_SURFACE ( 'NONE', #41, 0.3933072990000000546 ) ;
#82 = VECTOR ( 'NONE', #209, 39.37007874015748143 ) ;
#83 = DIRECTION ( 'NONE',  ( -1.224646799147353207E-16, -0.0000000000000000000, -1.000000000000000000 ) ) ;
#84 =( CONVERSION_BASED_UNIT ( 'INCH', #130 ) LENGTH_UNIT ( ) NAMED_UNIT ( #46 ) );
#85 =( LENGTH_UNIT ( ) NAMED_UNIT ( * ) SI_UNIT ( $, .METRE. ) );
#86 =( CONVERSION_BASED_UNIT ( 'INCH', #131 ) LENGTH_UNIT ( ) NAMED_UNIT ( #269 ) );
#87 = CONICAL_SURFACE ( 'NONE', #221, 0.3933072990000000546, 0.1745329251994338915 ) ;
#88 = CIRCLE ( 'NONE', #219, 0.3933072989999999991 ) ;
#89 = DIRECTION ( 'NONE',  ( 1.000000000000000000, 0.0000000000000000000, 0.0000000000000000000 ) ) ;
#90 = DIRECTION ( 'NONE',  ( -1.224646799147353207E-16, -0.0000000000000000000, -1.000000000000000000 ) ) ;
#91 = DIRECTION ( 'NONE',  ( -1.224646799147353207E-16, -0.0000000000000000000, -1.000000000000000000 ) ) ;
#92 = DIRECTION ( 'NONE',  ( -0.0000000000000000000, -0.0000000000000000000, -1.000000000000000000 ) ) ;
#93 = CIRCLE ( 'NONE', #223, 0.3937009999999999676 ) ;
#94 = ORIENTED_EDGE ( 'NONE', *, *, #205, .T. ) ;
#95 = ADVANCED_FACE ( 'NONE', ( #178 ), #31, .F. ) ;
#96 = ORIENTED_EDGE ( 'NONE', *, *, #185, .T. ) ;
#97 = EDGE_CURVE ( 'NONE', #220, #280, #26, .T. ) ;
#98 = FACE_OUTER_BOUND ( 'NONE', #262, .T. ) ;
#99 = AXIS2_PLACEMENT_3D ( 'NONE', #51, #54, #145 ) ;
#100 = ORIENTED_EDGE ( 'NONE', *, *, #285, .T. ) ;
#101 = CIRCLE ( 'NONE', #48, 0.3933072990000000546 ) ;
#102 = COLOUR_RGB ( '',0.7921568627450980005, 0.8196078431372548767, 0.9333333333333333481 ) ;
#103 = ORIENTED_EDGE ( 'NONE', *, *, #179, .T. ) ;
#104 = EDGE_CURVE ( 'NONE', #165, #53, #276, .T. ) ;
#105 =( NAMED_UNIT ( * ) SI_UNIT ( $, .STERADIAN. ) SOLID_ANGLE_UNIT ( ) );
#106 = DIRECTION ( 'NONE',  ( 0.7071067811865492381, 8.659560562354953812E-17, -0.7071067811865459074 ) ) ;
#107 = FILL_AREA_STYLE ('',( #39 ) ) ;
#108 = CARTESIAN_POINT ( 'NONE',  ( -0.3787009999999996768, 0.0000000000000000000, 3.937007999999999619 ) ) ;
#109 = CARTESIAN_POINT ( 'NONE',  ( -0.3933072989999998326, 4.816625248016410956E-17, 1.968503999999999809 ) ) ;
#110 = PRESENTATION_STYLE_ASSIGNMENT (( #152 ) ) ;
#111 = DIRECTION ( 'NONE',  ( -1.000000000000000000, 0.0000000000000000000, 0.0000000000000000000 ) ) ;
#112 = EDGE_CURVE ( 'NONE', #257, #214, #204, .T. ) ;
#113 = UNCERTAINTY_MEASURE_WITH_UNIT (LENGTH_MEASURE( 1.000000000000000082E-05 ), #86, 'distance_accuracy_value', 'NONE');
#114 = DIRECTION ( 'NONE',  ( 0.0000000000000000000, 0.0000000000000000000, -1.000000000000000000 ) ) ;
#115 = CYLINDRICAL_SURFACE ( 'NONE', #247, 0.3937009999999999676 ) ;
#116 = CARTESIAN_POINT ( 'NONE',  ( -0.3933072990000000546, 0.0000000000000000000, 4.816625248016410956E-17 ) ) ;
#117 = DIMENSIONAL_EXPONENTS ( 1.000000000000000000, 0.0000000000000000000, 0.0000000000000000000, 0.0000000000000000000, 0.0000000000000000000, 0.0000000000000000000, 0.0000000000000000000 ) ;
#118 = ADVANCED_BREP_SHAPE_REPRESENTATION ( 'Micro_SFAM-200050', ( #11, #266 ), #123 ) ;
#119 = CARTESIAN_POINT ( 'NONE',  ( 0.3933072990000000546, 4.816625248016410956E-17, -4.816625248016410956E-17 ) ) ;
#120 = CONICAL_SURFACE ( 'NONE', #168, 0.3787009999999996768, 0.7853981633974506105 ) ;
#121 = EDGE_CURVE ( 'NONE', #146, #6, #195, .T. ) ;
#122 = ORIENTED_EDGE ( 'NONE', *, *, #185, .F. ) ;
#123 =( GEOMETRIC_REPRESENTATION_CONTEXT ( 3 ) GLOBAL_UNCERTAINTY_ASSIGNED_CONTEXT ( ( #113 ) ) GLOBAL_UNIT_ASSIGNED_CONTEXT ( ( #86, #250, #13 ) ) REPRESENTATION_CONTEXT ( 'NONE', 'WORKASPACE' ) );
#124 = ORIENTED_EDGE ( 'NONE', *, *, #104, .F. ) ;
#125 = AXIS2_PLACEMENT_3D ( 'NONE', #180, #147, #241 ) ;
#126 = ORIENTED_EDGE ( 'NONE', *, *, #287, .F. ) ;
#127 = ORIENTED_EDGE ( 'NONE', *, *, #238, .F. ) ;
#128 = ADVANCED_FACE ( 'NONE', ( #138 ), #120, .T. ) ;
#129 = EDGE_LOOP ( 'NONE', ( #261, #143, #263, #235 ) ) ;
#130 = LENGTH_MEASURE_WITH_UNIT ( LENGTH_MEASURE( 0.02539999999999999897 ), #21 );
#131 = LENGTH_MEASURE_WITH_UNIT ( LENGTH_MEASURE( 0.02539999999999999897 ), #85 );
#132 = DIRECTION ( 'NONE',  ( 0.0000000000000000000, 0.0000000000000000000, -1.000000000000000000 ) ) ;
#133 = DIRECTION ( 'NONE',  ( 1.000000000000000000, 0.0000000000000000000, 0.0000000000000000000 ) ) ;
#134 = SHAPE_DEFINITION_REPRESENTATION ( #154, #118 ) ;
#135 = FACE_OUTER_BOUND ( 'NONE', #259, .T. ) ;
#136 = DIRECTION ( 'NONE',  ( 1.000000000000000000, 0.0000000000000000000, 0.0000000000000000000 ) ) ;
#137 = CARTESIAN_POINT ( 'NONE',  ( 0.3937010000000002452, 4.821446694711123756E-17, 1.970736789323664695 ) ) ;
#138 = FACE_OUTER_BOUND ( 'NONE', #38, .T. ) ;
#139 = DIRECTION ( 'NONE',  ( -0.7071067811865492381, 0.0000000000000000000, -0.7071067811865459074 ) ) ;
#140 = DIRECTION ( 'NONE',  ( 0.0000000000000000000, 0.0000000000000000000, 1.000000000000000000 ) ) ;
#141 = CONICAL_SURFACE ( 'NONE', #229, 0.3787009999999996768, 0.7853981633974506105 ) ;
#142 = SURFACE_STYLE_FILL_AREA ( #76 ) ;
#143 = ORIENTED_EDGE ( 'NONE', *, *, #170, .T. ) ;
#144 = ORIENTED_EDGE ( 'NONE', *, *, #121, .T. ) ;
#145 = DIRECTION ( 'NONE',  ( -1.000000000000000000, 0.0000000000000000000, 1.224646799147353207E-16 ) ) ;
#146 = VERTEX_POINT ( 'NONE', #290 ) ;
#147 = DIRECTION ( 'NONE',  ( -1.224646799147353207E-16, -0.0000000000000000000, -1.000000000000000000 ) ) ;
#148 = SURFACE_STYLE_USAGE ( .BOTH. , #293 ) ;
#149 = PRODUCT_DEFINITION_FORMATION_WITH_SPECIFIED_SOURCE ( 'ANY', '', #61, .NOT_KNOWN. ) ;
#150 = CARTESIAN_POINT ( 'NONE',  ( 0.0000000000000000000, 0.0000000000000000000, 3.937007999999999619 ) ) ;
#151 = DIRECTION ( 'NONE',  ( -1.224646799147353207E-16, -0.0000000000000000000, -1.000000000000000000 ) ) ;
#152 = SURFACE_STYLE_USAGE ( .BOTH. , #234 ) ;
#153 = CARTESIAN_POINT ( 'NONE',  ( 0.0000000000000000000, 0.0000000000000000000, 3.922007999999999495 ) ) ;
#154 = PRODUCT_DEFINITION_SHAPE ( 'NONE', 'NONE',  #233 ) ;
#155 = CARTESIAN_POINT ( 'NONE',  ( 2.413456501007157566E-16, 0.0000000000000000000, 1.970736789323664695 ) ) ;
#156 = STYLED_ITEM ( 'NONE', ( #45 ), #118 ) ;
#157 = EDGE_CURVE ( 'NONE', #146, #75, #264, .T. ) ;
#158 =( GEOMETRIC_REPRESENTATION_CONTEXT ( 3 ) GLOBAL_UNCERTAINTY_ASSIGNED_CONTEXT ( ( #62 ) ) GLOBAL_UNIT_ASSIGNED_CONTEXT ( ( #84, #193, #105 ) ) REPRESENTATION_CONTEXT ( 'NONE', 'WORKASPACE' ) );
#159 = DIRECTION ( 'NONE',  ( 1.000000000000000000, 0.0000000000000000000, 0.0000000000000000000 ) ) ;
#160 = VECTOR ( 'NONE', #139, 39.37007874015748143 ) ;
#161 = ADVANCED_FACE ( 'NONE', ( #192 ), #81, .T. ) ;
#162 = CARTESIAN_POINT ( 'NONE',  ( 0.0000000000000000000, 0.0000000000000000000, 0.0000000000000000000 ) ) ;
#163 = ORIENTED_EDGE ( 'NONE', *, *, #295, .F. ) ;
#164 = ORIENTED_EDGE ( 'NONE', *, *, #205, .F. ) ;
#165 = VERTEX_POINT ( 'NONE', #292 ) ;
#166 = FACE_OUTER_BOUND ( 'NONE', #4, .T. ) ;
#167 = ORIENTED_EDGE ( 'NONE', *, *, #248, .F. ) ;
#168 = AXIS2_PLACEMENT_3D ( 'NONE', #283, #14, #172 ) ;
#169 = ORIENTED_EDGE ( 'NONE', *, *, #157, .F. ) ;
#170 = EDGE_CURVE ( 'NONE', #220, #165, #236, .T. ) ;
#171 = ORIENTED_EDGE ( 'NONE', *, *, #179, .F. ) ;
#172 = DIRECTION ( 'NONE',  ( -1.000000000000000000, 0.0000000000000000000, 0.0000000000000000000 ) ) ;
#173 = AXIS2_PLACEMENT_3D ( 'NONE', #275, #267, #222 ) ;
#174 = LINE ( 'NONE', #109, #188 ) ;
#175 = DIRECTION ( 'NONE',  ( -1.224646799147353207E-16, -0.0000000000000000000, -1.000000000000000000 ) ) ;
#176 = CARTESIAN_POINT ( 'NONE',  ( 2.410722122708761257E-16, 0.0000000000000000000, 1.968503999999999809 ) ) ;
#177 = CARTESIAN_POINT ( 'NONE',  ( 0.0000000000000000000, 0.0000000000000000000, 0.0000000000000000000 ) ) ;
#178 = FACE_OUTER_BOUND ( 'NONE', #186, .T. ) ;
#179 = EDGE_CURVE ( 'NONE', #165, #220, #101, .T. ) ;
#180 = CARTESIAN_POINT ( 'NONE',  ( 5.898664692675622805E-33, 0.0000000000000000000, 4.816625248016410340E-17 ) ) ;
#181 = DIRECTION ( 'NONE',  ( -1.000000000000000000, 0.0000000000000000000, 1.224646799147353207E-16 ) ) ;
#182 = DIRECTION ( 'NONE',  ( -1.000000000000000000, 0.0000000000000000000, 0.0000000000000000000 ) ) ;
#183 = AXIS2_PLACEMENT_3D ( 'NONE', #153, #132, #201 ) ;
#184 = ORIENTED_EDGE ( 'NONE', *, *, #287, .T. ) ;
#185 = EDGE_CURVE ( 'NONE', #75, #257, #208, .T. ) ;
#186 = EDGE_LOOP ( 'NONE', ( #52, #282 ) ) ;
#187 = ORIENTED_EDGE ( 'NONE', *, *, #206, .T. ) ;
#188 = VECTOR ( 'NONE', #291, 39.37007874015747433 ) ;
#189 = ORIENTED_EDGE ( 'NONE', *, *, #170, .F. ) ;
#190 =( GEOMETRIC_REPRESENTATION_CONTEXT ( 3 ) GLOBAL_UNCERTAINTY_ASSIGNED_CONTEXT ( ( #289 ) ) GLOBAL_UNIT_ASSIGNED_CONTEXT ( ( #78, #12, #260 ) ) REPRESENTATION_CONTEXT ( 'NONE', 'WORKASPACE' ) );
#191 = CARTESIAN_POINT ( 'NONE',  ( 0.0000000000000000000, 0.0000000000000000000, 3.922007999999999495 ) ) ;
#192 = FACE_OUTER_BOUND ( 'NONE', #129, .T. ) ;
#193 =( NAMED_UNIT ( * ) PLANE_ANGLE_UNIT ( ) SI_UNIT ( $, .RADIAN. ) );
#194 = FACE_OUTER_BOUND ( 'NONE', #211, .T. ) ;
#195 = CIRCLE ( 'NONE', #297, 0.3787009999999996768 ) ;
#196 = ADVANCED_FACE ( 'NONE', ( #194 ), #115, .T. ) ;
#197 = CARTESIAN_POINT ( 'NONE',  ( 0.0000000000000000000, 0.0000000000000000000, 3.937007999999999619 ) ) ;
#198 = DIRECTION ( 'NONE',  ( 1.000000000000000000, 0.0000000000000000000, 0.0000000000000000000 ) ) ;
#199 = PLANE ( 'NONE',  #242 ) ;
#200 = FACE_OUTER_BOUND ( 'NONE', #10, .T. ) ;
#201 = DIRECTION ( 'NONE',  ( 1.000000000000000000, 0.0000000000000000000, 0.0000000000000000000 ) ) ;
#202 = MECHANICAL_DESIGN_GEOMETRIC_PRESENTATION_REPRESENTATION (  '', ( #43 ), #190 ) ;
#203 = DIRECTION ( 'NONE',  ( 1.224646799147353207E-16, 0.0000000000000000000, 1.000000000000000000 ) ) ;
#204 = LINE ( 'NONE', #69, #82 ) ;
#205 = EDGE_CURVE ( 'NONE', #75, #73, #225, .T. ) ;
#206 = EDGE_CURVE ( 'NONE', #165, #214, #174, .T. ) ;
#207 = DIRECTION ( 'NONE',  ( 1.000000000000000000, 0.0000000000000000000, 0.0000000000000000000 ) ) ;
#208 = CIRCLE ( 'NONE', #183, 0.3937009999999999676 ) ;
#209 = DIRECTION ( 'NONE',  ( -0.0000000000000000000, -0.0000000000000000000, -1.000000000000000000 ) ) ;
#210 = PRODUCT_RELATED_PRODUCT_CATEGORY ( 'part', '', ( #61 ) ) ;
#211 = EDGE_LOOP ( 'NONE', ( #164, #96, #281, #163 ) ) ;
#212 = CIRCLE ( 'NONE', #254, 0.3937009999999999676 ) ;
#213 = AXIS2_PLACEMENT_3D ( 'NONE', #162, #67, #252 ) ;
#214 = VERTEX_POINT ( 'NONE', #271 ) ;
#215 = ORIENTED_EDGE ( 'NONE', *, *, #97, .T. ) ;
#216 = CYLINDRICAL_SURFACE ( 'NONE', #8, 0.3937009999999999676 ) ;
#217 = CARTESIAN_POINT ( 'NONE',  ( -0.3787009999999996768, 0.0000000000000000000, 3.937007999999999619 ) ) ;
#218 = CARTESIAN_POINT ( 'NONE',  ( 2.410722122708761257E-16, 0.0000000000000000000, 1.968503999999999809 ) ) ;
#219 = AXIS2_PLACEMENT_3D ( 'NONE', #278, #228, #181 ) ;
#220 = VERTEX_POINT ( 'NONE', #24 ) ;
#221 = AXIS2_PLACEMENT_3D ( 'NONE', #231, #203, #47 ) ;
#222 = DIRECTION ( 'NONE',  ( -1.000000000000000000, 0.0000000000000000000, 0.0000000000000000000 ) ) ;
#223 = AXIS2_PLACEMENT_3D ( 'NONE', #191, #114, #136 ) ;
#224 = DIRECTION ( 'NONE',  ( 0.0000000000000000000, 0.0000000000000000000, 1.000000000000000000 ) ) ;
#225 = LINE ( 'NONE', #17, #18 ) ;
#226 = DIRECTION ( 'NONE',  ( -1.000000000000000000, 0.0000000000000000000, 0.0000000000000000000 ) ) ;
#227 = DIRECTION ( 'NONE',  ( -1.000000000000000000, 0.0000000000000000000, 1.224646799147353207E-16 ) ) ;
#228 = DIRECTION ( 'NONE',  ( -1.224646799147353207E-16, -0.0000000000000000000, -1.000000000000000000 ) ) ;
#229 = AXIS2_PLACEMENT_3D ( 'NONE', #7, #296, #182 ) ;
#230 = VECTOR ( 'NONE', #106, 39.37007874015748143 ) ;
#231 = CARTESIAN_POINT ( 'NONE',  ( 2.410722122708761257E-16, 0.0000000000000000000, 1.968503999999999809 ) ) ;
#232 = CIRCLE ( 'NONE', #125, 0.3933072989999999991 ) ;
#233 = PRODUCT_DEFINITION ( 'UNKNOWN', '', #149, #27 ) ;
#234 = SURFACE_SIDE_STYLE ('',( #142 ) ) ;
#235 = ORIENTED_EDGE ( 'NONE', *, *, #22, .F. ) ;
#236 = CIRCLE ( 'NONE', #173, 0.3933072990000000546 ) ;
#237 = ORIENTED_EDGE ( 'NONE', *, *, #36, .F. ) ;
#238 = EDGE_CURVE ( 'NONE', #214, #73, #212, .T. ) ;
#239 = ORIENTED_EDGE ( 'NONE', *, *, #285, .F. ) ;
#240 = ORIENTED_EDGE ( 'NONE', *, *, #157, .T. ) ;
#241 = DIRECTION ( 'NONE',  ( -1.000000000000000000, 0.0000000000000000000, 1.224646799147353207E-16 ) ) ;
#242 = AXIS2_PLACEMENT_3D ( 'NONE', #197, #66, #243 ) ;
#243 = DIRECTION ( 'NONE',  ( 1.000000000000000000, 0.0000000000000000000, -0.0000000000000000000 ) ) ;
#244 = DIRECTION ( 'NONE',  ( 0.0000000000000000000, 0.0000000000000000000, 1.000000000000000000 ) ) ;
#245 = CARTESIAN_POINT ( 'NONE',  ( -0.3937009999999999676, 0.0000000000000000000, 3.922007999999999495 ) ) ;
#246 = APPLICATION_PROTOCOL_DEFINITION ( 'draft international standard', 'automotive_design', 1998, #258 ) ;
#247 = AXIS2_PLACEMENT_3D ( 'NONE', #44, #64, #111 ) ;
#248 = EDGE_CURVE ( 'NONE', #257, #75, #93, .T. ) ;
#249 =( LENGTH_UNIT ( ) NAMED_UNIT ( * ) SI_UNIT ( $, .METRE. ) );
#250 =( NAMED_UNIT ( * ) PLANE_ANGLE_UNIT ( ) SI_UNIT ( $, .RADIAN. ) );
#251 = CIRCLE ( 'NONE', #80, 0.3787009999999996768 ) ;
#252 = DIRECTION ( 'NONE',  ( 1.000000000000000000, 0.0000000000000000000, -0.0000000000000000000 ) ) ;
#253 = ORIENTED_EDGE ( 'NONE', *, *, #295, .T. ) ;
#254 = AXIS2_PLACEMENT_3D ( 'NONE', #23, #83, #89 ) ;
#255 = MECHANICAL_DESIGN_GEOMETRIC_PRESENTATION_REPRESENTATION (  '', ( #156 ), #158 ) ;
#256 = AXIS2_PLACEMENT_3D ( 'NONE', #218, #9, #207 ) ;
#257 = VERTEX_POINT ( 'NONE', #245 ) ;
#258 = APPLICATION_CONTEXT ( 'automotive_design' ) ;
#259 = EDGE_LOOP ( 'NONE', ( #100, #144 ) ) ;
#260 =( NAMED_UNIT ( * ) SI_UNIT ( $, .STERADIAN. ) SOLID_ANGLE_UNIT ( ) );
#261 = ORIENTED_EDGE ( 'NONE', *, *, #97, .F. ) ;
#262 = EDGE_LOOP ( 'NONE', ( #103, #215, #5, #124 ) ) ;
#263 = ORIENTED_EDGE ( 'NONE', *, *, #104, .T. ) ;
#264 = LINE ( 'NONE', #265, #230 ) ;
#265 = CARTESIAN_POINT ( 'NONE',  ( 0.3787009999999996768, 4.637749674839012554E-17, 3.937007999999999619 ) ) ;
#266 = AXIS2_PLACEMENT_3D ( 'NONE', #59, #244, #198 ) ;
#267 = DIRECTION ( 'NONE',  ( -1.224646799147353207E-16, -0.0000000000000000000, -1.000000000000000000 ) ) ;
#268 = DIRECTION ( 'NONE',  ( 0.1736481776669313859, 0.0000000000000000000, 0.9848077530122077983 ) ) ;
#269 = DIMENSIONAL_EXPONENTS ( 1.000000000000000000, 0.0000000000000000000, 0.0000000000000000000, 0.0000000000000000000, 0.0000000000000000000, 0.0000000000000000000, 0.0000000000000000000 ) ;
#270 = AXIS2_PLACEMENT_3D ( 'NONE', #155, #294, #133 ) ;
#271 = CARTESIAN_POINT ( 'NONE',  ( -0.3937009999999996901, 0.0000000000000000000, 1.970736789323664695 ) ) ;
#272 = PRESENTATION_LAYER_ASSIGNMENT (  '', '', ( #43 ) ) ;
#273 = ADVANCED_FACE ( 'NONE', ( #135 ), #199, .T. ) ;
#274 = CARTESIAN_POINT ( 'NONE',  ( 0.3933072989999999991, 4.816625248016410340E-17, 7.582401355855259480E-33 ) ) ;
#275 = CARTESIAN_POINT ( 'NONE',  ( 2.410722122708761257E-16, 0.0000000000000000000, 1.968503999999999809 ) ) ;
#276 = LINE ( 'NONE', #116, #65 ) ;
#277 = COLOUR_RGB ( '',0.7921568627450980005, 0.8196078431372548767, 0.9333333333333333481 ) ;
#278 = CARTESIAN_POINT ( 'NONE',  ( 5.898664692675622805E-33, 0.0000000000000000000, 4.816625248016410340E-17 ) ) ;
#279 = FACE_OUTER_BOUND ( 'NONE', #72, .T. ) ;
#280 = VERTEX_POINT ( 'NONE', #274 ) ;
#281 = ORIENTED_EDGE ( 'NONE', *, *, #112, .T. ) ;
#282 = ORIENTED_EDGE ( 'NONE', *, *, #22, .T. ) ;
#283 = CARTESIAN_POINT ( 'NONE',  ( 0.0000000000000000000, 0.0000000000000000000, 3.937007999999999619 ) ) ;
#284 = ORIENTED_EDGE ( 'NONE', *, *, #36, .T. ) ;
#285 = EDGE_CURVE ( 'NONE', #6, #146, #251, .T. ) ;
#286 = FILL_AREA_STYLE_COLOUR ( '', #102 ) ;
#287 = EDGE_CURVE ( 'NONE', #220, #73, #63, .T. ) ;
#288 = LENGTH_MEASURE_WITH_UNIT ( LENGTH_MEASURE( 0.02539999999999999897 ), #249 );
#289 = UNCERTAINTY_MEASURE_WITH_UNIT (LENGTH_MEASURE( 1.000000000000000082E-05 ), #78, 'distance_accuracy_value', 'NONE');
#290 = CARTESIAN_POINT ( 'NONE',  ( 0.3787009999999996768, 4.729598184775066306E-17, 3.937007999999999619 ) ) ;
#291 = DIRECTION ( 'NONE',  ( -0.1736481776669311916, 2.126576849575783316E-17, 0.9848077530122080203 ) ) ;
#292 = CARTESIAN_POINT ( 'NONE',  ( -0.3933072989999998326, 4.819035971363765816E-17, 1.968503999999999809 ) ) ;
#293 = SURFACE_SIDE_STYLE ('',( #19 ) ) ;
#294 = DIRECTION ( 'NONE',  ( -1.224646799147353207E-16, -0.0000000000000000000, -1.000000000000000000 ) ) ;
#295 = EDGE_CURVE ( 'NONE', #73, #214, #2, .T. ) ;
#296 = DIRECTION ( 'NONE',  ( 0.0000000000000000000, 0.0000000000000000000, -1.000000000000000000 ) ) ;
#297 = AXIS2_PLACEMENT_3D ( 'NONE', #299, #140, #159 ) ;
#298 = DIRECTION ( 'NONE',  ( -0.0000000000000000000, -0.0000000000000000000, -1.000000000000000000 ) ) ;
#299 = CARTESIAN_POINT ( 'NONE',  ( 0.0000000000000000000, 0.0000000000000000000, 3.937007999999999619 ) ) ;
ENDSEC;
END-ISO-10303-21;
