ISO-10303-21;
HEADER;
FILE_DESCRIPTION (( 'STEP AP214' ),
    '1' );
FILE_NAME ('44272W.STEP',
    '2023-06-22T19:53:13',
    ( '' ),
    ( '' ),
    'SwSTEP 2.0',
    'SolidWorks 2023',
    '' );
FILE_SCHEMA (( 'AUTOMOTIVE_DESIGN' ));
ENDSEC;

DATA;
#1 = CARTESIAN_POINT ( 'NONE',  ( 0.2500000000000000000, 3.000000000000000444, 3.061616997868383634E-17 ) ) ;
#2 = DIRECTION ( 'NONE',  ( 0.000000000000000000, 1.000000000000000000, 0.000000000000000000 ) ) ;
#3 = EDGE_LOOP ( 'NONE', ( #102, #72 ) ) ;
#4 = VERTEX_POINT ( 'NONE', #273 ) ;
#5 = DIRECTION ( 'NONE',  ( -3.061616997868386099E-17, 1.000000000000000000, -0.000000000000000000 ) ) ;
#6 = DIRECTION ( 'NONE',  ( 0.000000000000000000, -0.000000000000000000, 1.000000000000000000 ) ) ;
#7 = EDGE_CURVE ( 'NONE', #144, #140, #96, .T. ) ;
#8 = ORIENTED_EDGE ( 'NONE', *, *, #179, .F. ) ;
#9 = PRODUCT_DEFINITION ( 'UNKNOWN', '', #160, #212 ) ;
#10 = FILL_AREA_STYLE_COLOUR ( '', #270 ) ;
#11 = MECHANICAL_DESIGN_GEOMETRIC_PRESENTATION_REPRESENTATION (  '', ( #175 ), #47 ) ;
#12 = DIRECTION ( 'NONE',  ( -3.061616997868386099E-17, 1.000000000000000000, -0.000000000000000000 ) ) ;
#13 = LINE ( 'NONE', #112, #41 ) ;
#14 = DIRECTION ( 'NONE',  ( -1.000000000000000000, 0.000000000000000000, 0.000000000000000000 ) ) ;
#15 = EDGE_CURVE ( 'NONE', #151, #4, #162, .T. ) ;
#16 = LENGTH_MEASURE_WITH_UNIT ( LENGTH_MEASURE( 0.02539999999999999897 ), #303 );
#17 = CARTESIAN_POINT ( 'NONE',  ( 0.2500000000000000555, 1.000000000000000000, 3.061616997868384251E-17 ) ) ;
#18 = VECTOR ( 'NONE', #277, 39.37007874015748143 ) ;
#19 = STYLED_ITEM ( 'NONE', ( #127 ), #49 ) ;
#20 = STYLED_ITEM ( 'NONE', ( #294 ), #276 ) ;
#21 = EDGE_LOOP ( 'NONE', ( #31, #8 ) ) ;
#22 =( NAMED_UNIT ( * ) SI_UNIT ( $, .STERADIAN. ) SOLID_ANGLE_UNIT ( ) );
#23 =( NAMED_UNIT ( * ) PLANE_ANGLE_UNIT ( ) SI_UNIT ( $, .RADIAN. ) );
#24 = ORIENTED_EDGE ( 'NONE', *, *, #179, .T. ) ;
#25 = CLOSED_SHELL ( 'NONE', ( #163, #276, #216, #49 ) ) ;
#26 = LENGTH_MEASURE_WITH_UNIT ( LENGTH_MEASURE( 0.02539999999999999897 ), #147 );
#27 = SURFACE_STYLE_FILL_AREA ( #81 ) ;
#28 = DIRECTION ( 'NONE',  ( -0.000000000000000000, -1.000000000000000000, -0.000000000000000000 ) ) ;
#29 = PRESENTATION_LAYER_ASSIGNMENT (  '', '', ( #175 ) ) ;
#30 =( GEOMETRIC_REPRESENTATION_CONTEXT ( 3 ) GLOBAL_UNCERTAINTY_ASSIGNED_CONTEXT ( ( #136 ) ) GLOBAL_UNIT_ASSIGNED_CONTEXT ( ( #115, #219, #38 ) ) REPRESENTATION_CONTEXT ( 'NONE', 'WORKASPACE' ) );
#31 = ORIENTED_EDGE ( 'NONE', *, *, #66, .F. ) ;
#32 = FILL_AREA_STYLE ('',( #195 ) ) ;
#33 = DIRECTION ( 'NONE',  ( 0.000000000000000000, 0.000000000000000000, -1.000000000000000000 ) ) ;
#34 = PRODUCT ( '44272W', '44272W', '', ( #152 ) ) ;
#35 = MECHANICAL_DESIGN_GEOMETRIC_PRESENTATION_REPRESENTATION (  '', ( #20 ), #183 ) ;
#36 = DIMENSIONAL_EXPONENTS ( 1.000000000000000000, 0.000000000000000000, 0.000000000000000000, 0.000000000000000000, 0.000000000000000000, 0.000000000000000000, 0.000000000000000000 ) ;
#37 = FILL_AREA_STYLE_COLOUR ( '', #206 ) ;
#38 =( NAMED_UNIT ( * ) SI_UNIT ( $, .STERADIAN. ) SOLID_ANGLE_UNIT ( ) );
#39 = UNCERTAINTY_MEASURE_WITH_UNIT (LENGTH_MEASURE( 1.000000000000000082E-05 ), #109, 'distance_accuracy_value', 'NONE');
#40 = AXIS2_PLACEMENT_3D ( 'NONE', #306, #119, #92 ) ;
#41 = VECTOR ( 'NONE', #214, 39.37007874015748143 ) ;
#42 = DIRECTION ( 'NONE',  ( -1.000000000000000000, -3.061616997868386099E-17, 0.000000000000000000 ) ) ;
#43 = DIRECTION ( 'NONE',  ( 0.000000000000000000, 0.000000000000000000, -1.000000000000000000 ) ) ;
#44 = ORIENTED_EDGE ( 'NONE', *, *, #77, .T. ) ;
#45 = APPLICATION_PROTOCOL_DEFINITION ( 'draft international standard', 'automotive_design', 1998, #228 ) ;
#46 = MECHANICAL_DESIGN_GEOMETRIC_PRESENTATION_REPRESENTATION (  '', ( #94 ), #30 ) ;
#47 =( GEOMETRIC_REPRESENTATION_CONTEXT ( 3 ) GLOBAL_UNCERTAINTY_ASSIGNED_CONTEXT ( ( #185 ) ) GLOBAL_UNIT_ASSIGNED_CONTEXT ( ( #161, #283, #156 ) ) REPRESENTATION_CONTEXT ( 'NONE', 'WORKASPACE' ) );
#48 = ORIENTED_EDGE ( 'NONE', *, *, #246, .F. ) ;
#49 = ADVANCED_FACE ( 'NONE', ( #157 ), #258, .T. ) ;
#50 = PLANE ( 'NONE',  #95 ) ;
#51 = EDGE_LOOP ( 'NONE', ( #74, #181 ) ) ;
#52 = CARTESIAN_POINT ( 'NONE',  ( 7.582401355855259480E-33, 1.000000000000000000, 0.000000000000000000 ) ) ;
#53 =( LENGTH_UNIT ( ) NAMED_UNIT ( * ) SI_UNIT ( $, .METRE. ) );
#54 = AXIS2_PLACEMENT_3D ( 'NONE', #217, #165, #259 ) ;
#55 = UNCERTAINTY_MEASURE_WITH_UNIT (LENGTH_MEASURE( 1.000000000000000082E-05 ), #226, 'distance_accuracy_value', 'NONE');
#56 = CARTESIAN_POINT ( 'NONE',  ( 7.582401355855259480E-33, 1.000000000000000000, 0.000000000000000000 ) ) ;
#57 = CARTESIAN_POINT ( 'NONE',  ( -6.123233995736772199E-17, 3.000000000000000444, 0.000000000000000000 ) ) ;
#58 = CYLINDRICAL_SURFACE ( 'NONE', #40, 0.2500000000000000000 ) ;
#59 =( GEOMETRIC_REPRESENTATION_CONTEXT ( 3 ) GLOBAL_UNCERTAINTY_ASSIGNED_CONTEXT ( ( #39 ) ) GLOBAL_UNIT_ASSIGNED_CONTEXT ( ( #109, #298, #79 ) ) REPRESENTATION_CONTEXT ( 'NONE', 'WORKASPACE' ) );
#60 = DIMENSIONAL_EXPONENTS ( 1.000000000000000000, 0.000000000000000000, 0.000000000000000000, 0.000000000000000000, 0.000000000000000000, 0.000000000000000000, 0.000000000000000000 ) ;
#61 = COLOUR_RGB ( '',1.000000000000000000, 0.000000000000000000, 0.000000000000000000 ) ;
#62 = EDGE_CURVE ( 'NONE', #140, #144, #129, .T. ) ;
#63 =( LENGTH_UNIT ( ) NAMED_UNIT ( * ) SI_UNIT ( $, .METRE. ) );
#64 = SURFACE_SIDE_STYLE ('',( #300 ) ) ;
#65 = CARTESIAN_POINT ( 'NONE',  ( 1.171687330204578822E-34, 1.000000000000000000, 0.000000000000000000 ) ) ;
#66 = EDGE_CURVE ( 'NONE', #229, #296, #218, .T. ) ;
#67 = FILL_AREA_STYLE ('',( #37 ) ) ;
#68 = LENGTH_MEASURE_WITH_UNIT ( LENGTH_MEASURE( 0.02539999999999999897 ), #264 );
#69 = DIRECTION ( 'NONE',  ( -1.000000000000000000, 0.000000000000000000, 0.000000000000000000 ) ) ;
#70 = ORIENTED_EDGE ( 'NONE', *, *, #225, .F. ) ;
#71 = DIRECTION ( 'NONE',  ( 1.000000000000000000, 0.000000000000000000, 0.000000000000000000 ) ) ;
#72 = ORIENTED_EDGE ( 'NONE', *, *, #7, .F. ) ;
#73 = MECHANICAL_DESIGN_GEOMETRIC_PRESENTATION_REPRESENTATION (  '', ( #19 ), #59 ) ;
#74 = ORIENTED_EDGE ( 'NONE', *, *, #246, .T. ) ;
#75 = STYLED_ITEM ( 'NONE', ( #282 ), #200 ) ;
#76 =( NAMED_UNIT ( * ) PLANE_ANGLE_UNIT ( ) SI_UNIT ( $, .RADIAN. ) );
#77 = EDGE_CURVE ( 'NONE', #4, #151, #291, .T. ) ;
#78 = CARTESIAN_POINT ( 'NONE',  ( 0.2500000000000000555, 3.000000000000000444, 0.000000000000000000 ) ) ;
#79 =( NAMED_UNIT ( * ) SI_UNIT ( $, .STERADIAN. ) SOLID_ANGLE_UNIT ( ) );
#80 = STYLED_ITEM ( 'NONE', ( #166 ), #216 ) ;
#81 = FILL_AREA_STYLE ('',( #10 ) ) ;
#82 = SURFACE_STYLE_USAGE ( .BOTH. , #274 ) ;
#83 = LINE ( 'NONE', #130, #279 ) ;
#84 = SURFACE_STYLE_USAGE ( .BOTH. , #64 ) ;
#85 = FACE_OUTER_BOUND ( 'NONE', #292, .T. ) ;
#86 = VECTOR ( 'NONE', #198, 39.37007874015748143 ) ;
#87 = SURFACE_STYLE_FILL_AREA ( #90 ) ;
#88 = AXIS2_PLACEMENT_3D ( 'NONE', #269, #5, #143 ) ;
#89 = SURFACE_STYLE_FILL_AREA ( #67 ) ;
#90 = FILL_AREA_STYLE ('',( #158 ) ) ;
#91 = ADVANCED_BREP_SHAPE_REPRESENTATION ( '44272W', ( #203, #200, #287 ), #272 ) ;
#92 = DIRECTION ( 'NONE',  ( 0.000000000000000000, 0.000000000000000000, -1.000000000000000000 ) ) ;
#93 = DIRECTION ( 'NONE',  ( -3.061616997868386099E-17, 1.000000000000000000, -0.000000000000000000 ) ) ;
#94 = STYLED_ITEM ( 'NONE', ( #199 ), #163 ) ;
#95 = AXIS2_PLACEMENT_3D ( 'NONE', #78, #105, #293 ) ;
#96 = CIRCLE ( 'NONE', #295, 0.2500000000000000555 ) ;
#97 = PLANE ( 'NONE',  #231 ) ;
#98 = AXIS2_PLACEMENT_3D ( 'NONE', #288, #265, #43 ) ;
#99 = APPLICATION_PROTOCOL_DEFINITION ( 'draft international standard', 'automotive_design', 1998, #117 ) ;
#100 = EDGE_CURVE ( 'NONE', #296, #171, #83, .T. ) ;
#101 =( NAMED_UNIT ( * ) SI_UNIT ( $, .STERADIAN. ) SOLID_ANGLE_UNIT ( ) );
#102 = ORIENTED_EDGE ( 'NONE', *, *, #62, .F. ) ;
#103 = DIRECTION ( 'NONE',  ( 0.000000000000000000, 0.000000000000000000, 1.000000000000000000 ) ) ;
#104 = AXIS2_PLACEMENT_3D ( 'NONE', #52, #186, #275 ) ;
#105 = DIRECTION ( 'NONE',  ( 3.061616997868386099E-17, -1.000000000000000000, 0.000000000000000000 ) ) ;
#106 = ORIENTED_EDGE ( 'NONE', *, *, #15, .T. ) ;
#107 = CARTESIAN_POINT ( 'NONE',  ( 0.000000000000000000, 0.000000000000000000, 0.000000000000000000 ) ) ;
#108 = DIRECTION ( 'NONE',  ( 0.000000000000000000, -1.000000000000000000, -0.000000000000000000 ) ) ;
#109 =( CONVERSION_BASED_UNIT ( 'INCH', #208 ) LENGTH_UNIT ( ) NAMED_UNIT ( #305 ) );
#110 = CIRCLE ( 'NONE', #54, 0.2500000000000000000 ) ;
#111 = CARTESIAN_POINT ( 'NONE',  ( -0.2500000000000000555, 1.000000000000000000, 0.000000000000000000 ) ) ;
#112 = CARTESIAN_POINT ( 'NONE',  ( -0.2500000000000001110, 3.000000000000000444, 0.000000000000000000 ) ) ;
#113 = ORIENTED_EDGE ( 'NONE', *, *, #15, .F. ) ;
#114 = CARTESIAN_POINT ( 'NONE',  ( 0.000000000000000000, 0.000000000000000000, -0.2500000000000000000 ) ) ;
#115 =( CONVERSION_BASED_UNIT ( 'INCH', #68 ) LENGTH_UNIT ( ) NAMED_UNIT ( #153 ) );
#116 = DIMENSIONAL_EXPONENTS ( 1.000000000000000000, 0.000000000000000000, 0.000000000000000000, 0.000000000000000000, 0.000000000000000000, 0.000000000000000000, 0.000000000000000000 ) ;
#117 = APPLICATION_CONTEXT ( 'automotive_design' ) ;
#118 = MECHANICAL_DESIGN_GEOMETRIC_PRESENTATION_REPRESENTATION (  '', ( #75 ), #221 ) ;
#119 = DIRECTION ( 'NONE',  ( -0.000000000000000000, -1.000000000000000000, -0.000000000000000000 ) ) ;
#120 = CYLINDRICAL_SURFACE ( 'NONE', #88, 0.2500000000000000555 ) ;
#121 = ORIENTED_EDGE ( 'NONE', *, *, #169, .F. ) ;
#122 = CARTESIAN_POINT ( 'NONE',  ( 0.000000000000000000, 1.000000000000000000, 0.000000000000000000 ) ) ;
#123 = ORIENTED_EDGE ( 'NONE', *, *, #100, .T. ) ;
#124 =( CONVERSION_BASED_UNIT ( 'INCH', #26 ) LENGTH_UNIT ( ) NAMED_UNIT ( #262 ) );
#125 = EDGE_LOOP ( 'NONE', ( #121, #173, #180, #113 ) ) ;
#126 = CARTESIAN_POINT ( 'NONE',  ( 3.061616997868383634E-17, 1.000000000000000000, 0.2500000000000000555 ) ) ;
#127 = PRESENTATION_STYLE_ASSIGNMENT (( #233 ) ) ;
#128 = DIRECTION ( 'NONE',  ( -1.000000000000000000, 0.000000000000000000, 0.000000000000000000 ) ) ;
#129 = CIRCLE ( 'NONE', #104, 0.2500000000000000555 ) ;
#130 = CARTESIAN_POINT ( 'NONE',  ( 3.061616997868383018E-17, 0.000000000000000000, 0.2500000000000000000 ) ) ;
#131 = PRODUCT_DEFINITION_SHAPE ( 'NONE', 'NONE',  #9 ) ;
#132 = DIRECTION ( 'NONE',  ( -0.000000000000000000, -1.000000000000000000, -0.000000000000000000 ) ) ;
#133 = AXIS2_PLACEMENT_3D ( 'NONE', #235, #28, #154 ) ;
#134 = SURFACE_STYLE_FILL_AREA ( #256 ) ;
#135 = CARTESIAN_POINT ( 'NONE',  ( -6.123233995736772199E-17, 3.000000000000000444, 0.000000000000000000 ) ) ;
#136 = UNCERTAINTY_MEASURE_WITH_UNIT (LENGTH_MEASURE( 1.000000000000000082E-05 ), #115, 'distance_accuracy_value', 'NONE');
#137 = PRESENTATION_LAYER_ASSIGNMENT (  '', '', ( #94 ) ) ;
#138 = FACE_OUTER_BOUND ( 'NONE', #139, .T. ) ;
#139 = EDGE_LOOP ( 'NONE', ( #44, #106 ) ) ;
#140 = VERTEX_POINT ( 'NONE', #111 ) ;
#141 = MECHANICAL_DESIGN_GEOMETRIC_PRESENTATION_REPRESENTATION (  '', ( #80 ), #197 ) ;
#142 = DIRECTION ( 'NONE',  ( -0.000000000000000000, -1.000000000000000000, -0.000000000000000000 ) ) ;
#143 = DIRECTION ( 'NONE',  ( -1.000000000000000000, 0.000000000000000000, 0.000000000000000000 ) ) ;
#144 = VERTEX_POINT ( 'NONE', #17 ) ;
#145 = FILL_AREA_STYLE ('',( #209 ) ) ;
#146 = ORIENTED_EDGE ( 'NONE', *, *, #77, .F. ) ;
#147 =( LENGTH_UNIT ( ) NAMED_UNIT ( * ) SI_UNIT ( $, .METRE. ) );
#148 =( CONVERSION_BASED_UNIT ( 'INCH', #248 ) LENGTH_UNIT ( ) NAMED_UNIT ( #60 ) );
#149 = AXIS2_PLACEMENT_3D ( 'NONE', #135, #12, #128 ) ;
#150 = PRESENTATION_LAYER_ASSIGNMENT (  '', '', ( #20 ) ) ;
#151 = VERTEX_POINT ( 'NONE', #213 ) ;
#152 = PRODUCT_CONTEXT ( 'NONE', #228, 'mechanical' ) ;
#153 = DIMENSIONAL_EXPONENTS ( 1.000000000000000000, 0.000000000000000000, 0.000000000000000000, 0.000000000000000000, 0.000000000000000000, 0.000000000000000000, 0.000000000000000000 ) ;
#154 = DIRECTION ( 'NONE',  ( 0.000000000000000000, 0.000000000000000000, -1.000000000000000000 ) ) ;
#155 = EDGE_CURVE ( 'NONE', #229, #204, #301, .T. ) ;
#156 =( NAMED_UNIT ( * ) SI_UNIT ( $, .STERADIAN. ) SOLID_ANGLE_UNIT ( ) );
#157 = FACE_OUTER_BOUND ( 'NONE', #51, .T. ) ;
#158 = FILL_AREA_STYLE_COLOUR ( '', #61 ) ;
#159 = FILL_AREA_STYLE_COLOUR ( '', #309 ) ;
#160 = PRODUCT_DEFINITION_FORMATION_WITH_SPECIFIED_SOURCE ( 'ANY', '', #34, .NOT_KNOWN. ) ;
#161 =( CONVERSION_BASED_UNIT ( 'INCH', #16 ) LENGTH_UNIT ( ) NAMED_UNIT ( #116 ) );
#162 = CIRCLE ( 'NONE', #196, 0.2500000000000001110 ) ;
#163 = ADVANCED_FACE ( 'NONE', ( #85 ), #58, .T. ) ;
#164 = DIRECTION ( 'NONE',  ( -3.061616997868386099E-17, 1.000000000000000000, -0.000000000000000000 ) ) ;
#165 = DIRECTION ( 'NONE',  ( -0.000000000000000000, -1.000000000000000000, -0.000000000000000000 ) ) ;
#166 = PRESENTATION_STYLE_ASSIGNMENT (( #82 ) ) ;
#167 = FACE_OUTER_BOUND ( 'NONE', #3, .T. ) ;
#168 = DIRECTION ( 'NONE',  ( -3.061616997868386099E-17, 1.000000000000000000, 0.000000000000000000 ) ) ;
#169 = EDGE_CURVE ( 'NONE', #144, #151, #263, .T. ) ;
#170 = ORIENTED_EDGE ( 'NONE', *, *, #155, .T. ) ;
#171 = VERTEX_POINT ( 'NONE', #307 ) ;
#172 = SHAPE_DEFINITION_REPRESENTATION ( #131, #91 ) ;
#173 = ORIENTED_EDGE ( 'NONE', *, *, #7, .T. ) ;
#174 = SURFACE_STYLE_USAGE ( .BOTH. , #245 ) ;
#175 = STYLED_ITEM ( 'NONE', ( #304 ), #203 ) ;
#176 = PRESENTATION_LAYER_ASSIGNMENT (  '', '', ( #80 ) ) ;
#177 = AXIS2_PLACEMENT_3D ( 'NONE', #251, #108, #33 ) ;
#178 = ORIENTED_EDGE ( 'NONE', *, *, #169, .T. ) ;
#179 = EDGE_CURVE ( 'NONE', #296, #229, #222, .T. ) ;
#180 = ORIENTED_EDGE ( 'NONE', *, *, #225, .T. ) ;
#181 = ORIENTED_EDGE ( 'NONE', *, *, #253, .T. ) ;
#182 = SURFACE_STYLE_FILL_AREA ( #145 ) ;
#183 =( GEOMETRIC_REPRESENTATION_CONTEXT ( 3 ) GLOBAL_UNCERTAINTY_ASSIGNED_CONTEXT ( ( #255 ) ) GLOBAL_UNIT_ASSIGNED_CONTEXT ( ( #124, #23, #22 ) ) REPRESENTATION_CONTEXT ( 'NONE', 'WORKASPACE' ) );
#184 = ADVANCED_FACE ( 'NONE', ( #167 ), #97, .F. ) ;
#185 = UNCERTAINTY_MEASURE_WITH_UNIT (LENGTH_MEASURE( 1.000000000000000082E-05 ), #161, 'distance_accuracy_value', 'NONE');
#186 = DIRECTION ( 'NONE',  ( -3.061616997868386099E-17, 1.000000000000000000, -0.000000000000000000 ) ) ;
#187 = LENGTH_MEASURE_WITH_UNIT ( LENGTH_MEASURE( 0.02539999999999999897 ), #261 );
#188 =( NAMED_UNIT ( * ) SI_UNIT ( $, .STERADIAN. ) SOLID_ANGLE_UNIT ( ) );
#189 = CARTESIAN_POINT ( 'NONE',  ( 0.000000000000000000, 0.000000000000000000, -0.2500000000000000000 ) ) ;
#190 = CARTESIAN_POINT ( 'NONE',  ( 0.000000000000000000, 1.000000000000000000, -0.2500000000000000555 ) ) ;
#191 = AXIS2_PLACEMENT_3D ( 'NONE', #289, #142, #286 ) ;
#192 = DIRECTION ( 'NONE',  ( -0.000000000000000000, -1.000000000000000000, -0.000000000000000000 ) ) ;
#193 = AXIS2_PLACEMENT_3D ( 'NONE', #252, #132, #239 ) ;
#194 = SURFACE_SIDE_STYLE ('',( #89 ) ) ;
#195 = FILL_AREA_STYLE_COLOUR ( '', #268 ) ;
#196 = AXIS2_PLACEMENT_3D ( 'NONE', #57, #281, #297 ) ;
#197 =( GEOMETRIC_REPRESENTATION_CONTEXT ( 3 ) GLOBAL_UNCERTAINTY_ASSIGNED_CONTEXT ( ( #290 ) ) GLOBAL_UNIT_ASSIGNED_CONTEXT ( ( #278, #236, #188 ) ) REPRESENTATION_CONTEXT ( 'NONE', 'WORKASPACE' ) );
#198 = DIRECTION ( 'NONE',  ( -3.061616997868386099E-17, 1.000000000000000000, -0.000000000000000000 ) ) ;
#199 = PRESENTATION_STYLE_ASSIGNMENT (( #223 ) ) ;
#200 = MANIFOLD_SOLID_BREP ( 'Revolve - Tool Body (Straight Shanked)', #237 ) ;
#201 = CYLINDRICAL_SURFACE ( 'NONE', #280, 0.2500000000000000555 ) ;
#202 = FACE_OUTER_BOUND ( 'NONE', #21, .T. ) ;
#203 = MANIFOLD_SOLID_BREP ( 'Revolve - Cutting Edge', #25 ) ;
#204 = VERTEX_POINT ( 'NONE', #114 ) ;
#205 = CIRCLE ( 'NONE', #98, 0.2500000000000000000 ) ;
#206 = COLOUR_RGB ( '',0.7921568627450980005, 0.8196078431372548767, 0.9333333333333333481 ) ;
#207 = LENGTH_MEASURE_WITH_UNIT ( LENGTH_MEASURE( 0.02539999999999999897 ), #53 );
#208 = LENGTH_MEASURE_WITH_UNIT ( LENGTH_MEASURE( 0.02539999999999999897 ), #63 );
#209 = FILL_AREA_STYLE_COLOUR ( '', #243 ) ;
#210 =( NAMED_UNIT ( * ) PLANE_ANGLE_UNIT ( ) SI_UNIT ( $, .RADIAN. ) );
#211 =( NAMED_UNIT ( * ) SI_UNIT ( $, .STERADIAN. ) SOLID_ANGLE_UNIT ( ) );
#212 = PRODUCT_DEFINITION_CONTEXT ( 'detailed design', #117, 'design' ) ;
#213 = CARTESIAN_POINT ( 'NONE',  ( 0.2500000000000000555, 3.000000000000000444, 3.061616997868384251E-17 ) ) ;
#214 = DIRECTION ( 'NONE',  ( -3.061616997868386099E-17, 1.000000000000000000, -0.000000000000000000 ) ) ;
#215 = SURFACE_SIDE_STYLE ('',( #27 ) ) ;
#216 = ADVANCED_FACE ( 'NONE', ( #302 ), #257, .T. ) ;
#217 = CARTESIAN_POINT ( 'NONE',  ( 0.000000000000000000, 0.000000000000000000, 0.000000000000000000 ) ) ;
#218 = CIRCLE ( 'NONE', #133, 0.2500000000000000555 ) ;
#219 =( NAMED_UNIT ( * ) PLANE_ANGLE_UNIT ( ) SI_UNIT ( $, .RADIAN. ) );
#220 = SURFACE_STYLE_USAGE ( .BOTH. , #194 ) ;
#221 =( GEOMETRIC_REPRESENTATION_CONTEXT ( 3 ) GLOBAL_UNCERTAINTY_ASSIGNED_CONTEXT ( ( #285 ) ) GLOBAL_UNIT_ASSIGNED_CONTEXT ( ( #148, #210, #211 ) ) REPRESENTATION_CONTEXT ( 'NONE', 'WORKASPACE' ) );
#222 = CIRCLE ( 'NONE', #191, 0.2500000000000000555 ) ;
#223 = SURFACE_STYLE_USAGE ( .BOTH. , #241 ) ;
#224 = FACE_OUTER_BOUND ( 'NONE', #125, .T. ) ;
#225 = EDGE_CURVE ( 'NONE', #140, #4, #13, .T. ) ;
#226 =( CONVERSION_BASED_UNIT ( 'INCH', #207 ) LENGTH_UNIT ( ) NAMED_UNIT ( #36 ) );
#227 = ORIENTED_EDGE ( 'NONE', *, *, #100, .F. ) ;
#228 = APPLICATION_CONTEXT ( 'automotive_design' ) ;
#229 = VERTEX_POINT ( 'NONE', #190 ) ;
#230 = PLANE ( 'NONE',  #232 ) ;
#231 = AXIS2_PLACEMENT_3D ( 'NONE', #65, #168, #42 ) ;
#232 = AXIS2_PLACEMENT_3D ( 'NONE', #122, #2, #6 ) ;
#233 = SURFACE_STYLE_USAGE ( .BOTH. , #215 ) ;
#234 =( LENGTH_UNIT ( ) NAMED_UNIT ( * ) SI_UNIT ( $, .METRE. ) );
#235 = CARTESIAN_POINT ( 'NONE',  ( 0.000000000000000000, 1.000000000000000000, 0.000000000000000000 ) ) ;
#236 =( NAMED_UNIT ( * ) PLANE_ANGLE_UNIT ( ) SI_UNIT ( $, .RADIAN. ) );
#237 = CLOSED_SHELL ( 'NONE', ( #299, #184, #249, #260 ) ) ;
#238 = ORIENTED_EDGE ( 'NONE', *, *, #66, .T. ) ;
#239 = DIRECTION ( 'NONE',  ( 0.000000000000000000, 0.000000000000000000, -1.000000000000000000 ) ) ;
#240 = PRODUCT_RELATED_PRODUCT_CATEGORY ( 'part', '', ( #34 ) ) ;
#241 = SURFACE_SIDE_STYLE ('',( #134 ) ) ;
#242 = PRESENTATION_LAYER_ASSIGNMENT (  '', '', ( #19 ) ) ;
#243 = COLOUR_RGB ( '',1.000000000000000000, 0.000000000000000000, 0.000000000000000000 ) ;
#244 = ORIENTED_EDGE ( 'NONE', *, *, #62, .T. ) ;
#245 = SURFACE_SIDE_STYLE ('',( #182 ) ) ;
#246 = EDGE_CURVE ( 'NONE', #204, #171, #110, .T. ) ;
#247 = ORIENTED_EDGE ( 'NONE', *, *, #155, .F. ) ;
#248 = LENGTH_MEASURE_WITH_UNIT ( LENGTH_MEASURE( 0.02539999999999999897 ), #234 );
#249 = ADVANCED_FACE ( 'NONE', ( #224 ), #201, .T. ) ;
#250 = EDGE_LOOP ( 'NONE', ( #244, #178, #146, #70 ) ) ;
#251 = CARTESIAN_POINT ( 'NONE',  ( 0.000000000000000000, 0.000000000000000000, 0.000000000000000000 ) ) ;
#252 = CARTESIAN_POINT ( 'NONE',  ( 0.000000000000000000, 0.000000000000000000, 0.000000000000000000 ) ) ;
#253 = EDGE_CURVE ( 'NONE', #171, #204, #205, .T. ) ;
#254 = PRESENTATION_LAYER_ASSIGNMENT (  '', '', ( #75 ) ) ;
#255 = UNCERTAINTY_MEASURE_WITH_UNIT (LENGTH_MEASURE( 1.000000000000000082E-05 ), #124, 'distance_accuracy_value', 'NONE');
#256 = FILL_AREA_STYLE ('',( #159 ) ) ;
#257 = CYLINDRICAL_SURFACE ( 'NONE', #193, 0.2500000000000000000 ) ;
#258 = PLANE ( 'NONE',  #177 ) ;
#259 = DIRECTION ( 'NONE',  ( 0.000000000000000000, 0.000000000000000000, -1.000000000000000000 ) ) ;
#260 = ADVANCED_FACE ( 'NONE', ( #138 ), #50, .F. ) ;
#261 =( LENGTH_UNIT ( ) NAMED_UNIT ( * ) SI_UNIT ( $, .METRE. ) );
#262 = DIMENSIONAL_EXPONENTS ( 1.000000000000000000, 0.000000000000000000, 0.000000000000000000, 0.000000000000000000, 0.000000000000000000, 0.000000000000000000, 0.000000000000000000 ) ;
#263 = LINE ( 'NONE', #1, #86 ) ;
#264 =( LENGTH_UNIT ( ) NAMED_UNIT ( * ) SI_UNIT ( $, .METRE. ) );
#265 = DIRECTION ( 'NONE',  ( -0.000000000000000000, -1.000000000000000000, -0.000000000000000000 ) ) ;
#266 = ORIENTED_EDGE ( 'NONE', *, *, #253, .F. ) ;
#267 = EDGE_LOOP ( 'NONE', ( #227, #24, #170, #266 ) ) ;
#268 = COLOUR_RGB ( '',0.7921568627450980005, 0.8196078431372548767, 0.9333333333333333481 ) ;
#269 = CARTESIAN_POINT ( 'NONE',  ( -6.123233995736772199E-17, 3.000000000000000444, 0.000000000000000000 ) ) ;
#270 = COLOUR_RGB ( '',1.000000000000000000, 0.000000000000000000, 0.000000000000000000 ) ;
#271 = FACE_OUTER_BOUND ( 'NONE', #250, .T. ) ;
#272 =( GEOMETRIC_REPRESENTATION_CONTEXT ( 3 ) GLOBAL_UNCERTAINTY_ASSIGNED_CONTEXT ( ( #55 ) ) GLOBAL_UNIT_ASSIGNED_CONTEXT ( ( #226, #76, #101 ) ) REPRESENTATION_CONTEXT ( 'NONE', 'WORKASPACE' ) );
#273 = CARTESIAN_POINT ( 'NONE',  ( -0.2500000000000001665, 3.000000000000000444, 0.000000000000000000 ) ) ;
#274 = SURFACE_SIDE_STYLE ('',( #87 ) ) ;
#275 = DIRECTION ( 'NONE',  ( -1.000000000000000000, 0.000000000000000000, 0.000000000000000000 ) ) ;
#276 = ADVANCED_FACE ( 'NONE', ( #202 ), #230, .T. ) ;
#277 = DIRECTION ( 'NONE',  ( -0.000000000000000000, -1.000000000000000000, -0.000000000000000000 ) ) ;
#278 =( CONVERSION_BASED_UNIT ( 'INCH', #187 ) LENGTH_UNIT ( ) NAMED_UNIT ( #284 ) );
#279 = VECTOR ( 'NONE', #192, 39.37007874015748143 ) ;
#280 = AXIS2_PLACEMENT_3D ( 'NONE', #308, #93, #69 ) ;
#281 = DIRECTION ( 'NONE',  ( -3.061616997868386099E-17, 1.000000000000000000, -0.000000000000000000 ) ) ;
#282 = PRESENTATION_STYLE_ASSIGNMENT (( #220 ) ) ;
#283 =( NAMED_UNIT ( * ) PLANE_ANGLE_UNIT ( ) SI_UNIT ( $, .RADIAN. ) );
#284 = DIMENSIONAL_EXPONENTS ( 1.000000000000000000, 0.000000000000000000, 0.000000000000000000, 0.000000000000000000, 0.000000000000000000, 0.000000000000000000, 0.000000000000000000 ) ;
#285 = UNCERTAINTY_MEASURE_WITH_UNIT (LENGTH_MEASURE( 1.000000000000000082E-05 ), #148, 'distance_accuracy_value', 'NONE');
#286 = DIRECTION ( 'NONE',  ( 0.000000000000000000, 0.000000000000000000, -1.000000000000000000 ) ) ;
#287 = AXIS2_PLACEMENT_3D ( 'NONE', #107, #103, #71 ) ;
#288 = CARTESIAN_POINT ( 'NONE',  ( 0.000000000000000000, 0.000000000000000000, 0.000000000000000000 ) ) ;
#289 = CARTESIAN_POINT ( 'NONE',  ( 0.000000000000000000, 1.000000000000000000, 0.000000000000000000 ) ) ;
#290 = UNCERTAINTY_MEASURE_WITH_UNIT (LENGTH_MEASURE( 1.000000000000000082E-05 ), #278, 'distance_accuracy_value', 'NONE');
#291 = CIRCLE ( 'NONE', #149, 0.2500000000000001110 ) ;
#292 = EDGE_LOOP ( 'NONE', ( #238, #123, #48, #247 ) ) ;
#293 = DIRECTION ( 'NONE',  ( 1.000000000000000000, 3.061616997868386099E-17, 0.000000000000000000 ) ) ;
#294 = PRESENTATION_STYLE_ASSIGNMENT (( #174 ) ) ;
#295 = AXIS2_PLACEMENT_3D ( 'NONE', #56, #164, #14 ) ;
#296 = VERTEX_POINT ( 'NONE', #126 ) ;
#297 = DIRECTION ( 'NONE',  ( -1.000000000000000000, 0.000000000000000000, 0.000000000000000000 ) ) ;
#298 =( NAMED_UNIT ( * ) PLANE_ANGLE_UNIT ( ) SI_UNIT ( $, .RADIAN. ) );
#299 = ADVANCED_FACE ( 'NONE', ( #271 ), #120, .T. ) ;
#300 = SURFACE_STYLE_FILL_AREA ( #32 ) ;
#301 = LINE ( 'NONE', #189, #18 ) ;
#302 = FACE_OUTER_BOUND ( 'NONE', #267, .T. ) ;
#303 =( LENGTH_UNIT ( ) NAMED_UNIT ( * ) SI_UNIT ( $, .METRE. ) );
#304 = PRESENTATION_STYLE_ASSIGNMENT (( #84 ) ) ;
#305 = DIMENSIONAL_EXPONENTS ( 1.000000000000000000, 0.000000000000000000, 0.000000000000000000, 0.000000000000000000, 0.000000000000000000, 0.000000000000000000, 0.000000000000000000 ) ;
#306 = CARTESIAN_POINT ( 'NONE',  ( 0.000000000000000000, 0.000000000000000000, 0.000000000000000000 ) ) ;
#307 = CARTESIAN_POINT ( 'NONE',  ( 3.061616997868383018E-17, 0.000000000000000000, 0.2500000000000000000 ) ) ;
#308 = CARTESIAN_POINT ( 'NONE',  ( -6.123233995736772199E-17, 3.000000000000000444, 0.000000000000000000 ) ) ;
#309 = COLOUR_RGB ( '',1.000000000000000000, 0.000000000000000000, 0.000000000000000000 ) ;
ENDSEC;
END-ISO-10303-21;
