ISO-10303-21;
HEADER;
FILE_DESCRIPTION (( 'STEP AP214' ),
    '1' );
FILE_NAME ('03570.STEP',
    '2023-06-22T15:28:18',
    ( '' ),
    ( '' ),
    'SwSTEP 2.0',
    'SolidWorks 2023',
    '' );
FILE_SCHEMA (( 'AUTOMOTIVE_DESIGN' ));
ENDSEC;

DATA;
#1 = LENGTH_MEASURE_WITH_UNIT ( LENGTH_MEASURE( 0.02539999999999999897 ), #233 );
#2 = ADVANCED_FACE ( 'NONE', ( #79 ), #264, .F. ) ;
#3 = EDGE_LOOP ( 'NONE', ( #189, #21, #5, #146 ) ) ;
#4 =( NAMED_UNIT ( * ) SI_UNIT ( $, .STERADIAN. ) SOLID_ANGLE_UNIT ( ) );
#5 = ORIENTED_EDGE ( 'NONE', *, *, #200, .F. ) ;
#6 = AXIS2_PLACEMENT_3D ( 'NONE', #48, #276, #58 ) ;
#7 = ORIENTED_EDGE ( 'NONE', *, *, #161, .F. ) ;
#8 = AXIS2_PLACEMENT_3D ( 'NONE', #62, #84, #59 ) ;
#9 =( GEOMETRIC_REPRESENTATION_CONTEXT ( 3 ) GLOBAL_UNCERTAINTY_ASSIGNED_CONTEXT ( ( #181 ) ) GLOBAL_UNIT_ASSIGNED_CONTEXT ( ( #159, #249, #203 ) ) REPRESENTATION_CONTEXT ( 'NONE', 'WORKASPACE' ) );
#10 = FACE_OUTER_BOUND ( 'NONE', #142, .T. ) ;
#11 = DIMENSIONAL_EXPONENTS ( 1.000000000000000000, 0.000000000000000000, 0.000000000000000000, 0.000000000000000000, 0.000000000000000000, 0.000000000000000000, 0.000000000000000000 ) ;
#12 = CARTESIAN_POINT ( 'NONE',  ( 7.582401355855259480E-33, 1.625000000000000000, 0.000000000000000000 ) ) ;
#13 = DIRECTION ( 'NONE',  ( 1.000000000000000000, 0.000000000000000000, 0.000000000000000000 ) ) ;
#14 =( NAMED_UNIT ( * ) SI_UNIT ( $, .STERADIAN. ) SOLID_ANGLE_UNIT ( ) );
#15 = MECHANICAL_DESIGN_GEOMETRIC_PRESENTATION_REPRESENTATION (  '', ( #80 ), #255 ) ;
#16 = CARTESIAN_POINT ( 'NONE',  ( 0.000000000000000000, 1.625000000000000000, 0.000000000000000000 ) ) ;
#17 = DIRECTION ( 'NONE',  ( -1.000000000000000000, 0.000000000000000000, 0.000000000000000000 ) ) ;
#18 =( CONVERSION_BASED_UNIT ( 'INCH', #188 ) LENGTH_UNIT ( ) NAMED_UNIT ( #50 ) );
#19 = COLOUR_RGB ( '',0.7921568627450980005, 0.8196078431372548767, 0.9333333333333333481 ) ;
#20 = EDGE_CURVE ( 'NONE', #123, #304, #111, .T. ) ;
#21 = ORIENTED_EDGE ( 'NONE', *, *, #120, .T. ) ;
#22 = FILL_AREA_STYLE_COLOUR ( '', #220 ) ;
#23 = CYLINDRICAL_SURFACE ( 'NONE', #8, 0.3125000000000000000 ) ;
#24 = AXIS2_PLACEMENT_3D ( 'NONE', #45, #281, #306 ) ;
#25 =( NAMED_UNIT ( * ) PLANE_ANGLE_UNIT ( ) SI_UNIT ( $, .RADIAN. ) );
#26 = CARTESIAN_POINT ( 'NONE',  ( 0.000000000000000000, 1.625000000000000000, 0.000000000000000000 ) ) ;
#27 = PRODUCT ( '03570', '03570', '', ( #202 ) ) ;
#28 = UNCERTAINTY_MEASURE_WITH_UNIT (LENGTH_MEASURE( 1.000000000000000082E-05 ), #83, 'distance_accuracy_value', 'NONE');
#29 = VERTEX_POINT ( 'NONE', #194 ) ;
#30 = DIRECTION ( 'NONE',  ( -1.000000000000000000, -3.265724797726272713E-17, 0.000000000000000000 ) ) ;
#31 = DIRECTION ( 'NONE',  ( -0.000000000000000000, -1.000000000000000000, -0.000000000000000000 ) ) ;
#32 = FACE_OUTER_BOUND ( 'NONE', #118, .T. ) ;
#33 = SURFACE_STYLE_USAGE ( .BOTH. , #130 ) ;
#34 = CYLINDRICAL_SURFACE ( 'NONE', #135, 0.3125000000000000000 ) ;
#35 = LINE ( 'NONE', #265, #47 ) ;
#36 = FILL_AREA_STYLE ('',( #301 ) ) ;
#37 = ADVANCED_FACE ( 'NONE', ( #287 ), #172, .T. ) ;
#38 = MECHANICAL_DESIGN_GEOMETRIC_PRESENTATION_REPRESENTATION (  '', ( #98 ), #303 ) ;
#39 =( NAMED_UNIT ( * ) PLANE_ANGLE_UNIT ( ) SI_UNIT ( $, .RADIAN. ) );
#40 =( CONVERSION_BASED_UNIT ( 'INCH', #295 ) LENGTH_UNIT ( ) NAMED_UNIT ( #154 ) );
#41 = SURFACE_STYLE_FILL_AREA ( #60 ) ;
#42 = SURFACE_STYLE_USAGE ( .BOTH. , #116 ) ;
#43 = PRESENTATION_STYLE_ASSIGNMENT (( #72 ) ) ;
#44 = EDGE_LOOP ( 'NONE', ( #7, #91 ) ) ;
#45 = CARTESIAN_POINT ( 'NONE',  ( 0.000000000000000000, 0.000000000000000000, 0.000000000000000000 ) ) ;
#46 = LENGTH_MEASURE_WITH_UNIT ( LENGTH_MEASURE( 0.02539999999999999897 ), #256 );
#47 = VECTOR ( 'NONE', #81, 39.37007874015748143 ) ;
#48 = CARTESIAN_POINT ( 'NONE',  ( -6.123233995736759873E-17, 3.500000000000000000, 0.000000000000000000 ) ) ;
#49 = VECTOR ( 'NONE', #185, 39.37007874015748143 ) ;
#50 = DIMENSIONAL_EXPONENTS ( 1.000000000000000000, 0.000000000000000000, 0.000000000000000000, 0.000000000000000000, 0.000000000000000000, 0.000000000000000000, 0.000000000000000000 ) ;
#51 = ORIENTED_EDGE ( 'NONE', *, *, #235, .T. ) ;
#52 = UNCERTAINTY_MEASURE_WITH_UNIT (LENGTH_MEASURE( 1.000000000000000082E-05 ), #109, 'distance_accuracy_value', 'NONE');
#53 = CARTESIAN_POINT ( 'NONE',  ( 0.3125000000000000000, 3.500000000000000000, 3.827021247335478926E-17 ) ) ;
#54 = CARTESIAN_POINT ( 'NONE',  ( 0.000000000000000000, 1.625000000000000000, -0.3125000000000000000 ) ) ;
#55 = PRESENTATION_LAYER_ASSIGNMENT (  '', '', ( #193 ) ) ;
#56 = CARTESIAN_POINT ( 'NONE',  ( 0.000000000000000000, 0.000000000000000000, 0.000000000000000000 ) ) ;
#57 = DIRECTION ( 'NONE',  ( -3.265724797726272713E-17, 1.000000000000000000, -0.000000000000000000 ) ) ;
#58 = DIRECTION ( 'NONE',  ( -1.000000000000000000, 0.000000000000000000, 0.000000000000000000 ) ) ;
#59 = DIRECTION ( 'NONE',  ( 0.000000000000000000, 0.000000000000000000, -1.000000000000000000 ) ) ;
#60 = FILL_AREA_STYLE ('',( #297 ) ) ;
#61 = UNCERTAINTY_MEASURE_WITH_UNIT (LENGTH_MEASURE( 1.000000000000000082E-05 ), #236, 'distance_accuracy_value', 'NONE');
#62 = CARTESIAN_POINT ( 'NONE',  ( 0.000000000000000000, 0.000000000000000000, 0.000000000000000000 ) ) ;
#63 = PRESENTATION_LAYER_ASSIGNMENT (  '', '', ( #198 ) ) ;
#64 = STYLED_ITEM ( 'NONE', ( #214 ), #246 ) ;
#65 = DIRECTION ( 'NONE',  ( 0.000000000000000000, 1.000000000000000000, 0.000000000000000000 ) ) ;
#66 = PRODUCT_RELATED_PRODUCT_CATEGORY ( 'part', '', ( #27 ) ) ;
#67 = FILL_AREA_STYLE_COLOUR ( '', #290 ) ;
#68 = SURFACE_SIDE_STYLE ('',( #137 ) ) ;
#69 = ORIENTED_EDGE ( 'NONE', *, *, #305, .F. ) ;
#70 = DIRECTION ( 'NONE',  ( -3.265724797726272713E-17, 1.000000000000000000, -0.000000000000000000 ) ) ;
#71 =( GEOMETRIC_REPRESENTATION_CONTEXT ( 3 ) GLOBAL_UNCERTAINTY_ASSIGNED_CONTEXT ( ( #61 ) ) GLOBAL_UNIT_ASSIGNED_CONTEXT ( ( #236, #284, #4 ) ) REPRESENTATION_CONTEXT ( 'NONE', 'WORKASPACE' ) );
#72 = SURFACE_STYLE_USAGE ( .BOTH. , #217 ) ;
#73 = ORIENTED_EDGE ( 'NONE', *, *, #195, .F. ) ;
#74 = ADVANCED_FACE ( 'NONE', ( #10 ), #300, .F. ) ;
#75 = FILL_AREA_STYLE ('',( #22 ) ) ;
#76 = CLOSED_SHELL ( 'NONE', ( #246, #78, #257, #223 ) ) ;
#77 = CIRCLE ( 'NONE', #151, 0.3125000000000000000 ) ;
#78 = ADVANCED_FACE ( 'NONE', ( #148 ), #132, .T. ) ;
#79 = FACE_OUTER_BOUND ( 'NONE', #44, .T. ) ;
#80 = STYLED_ITEM ( 'NONE', ( #258 ), #223 ) ;
#81 = DIRECTION ( 'NONE',  ( -3.265724797726272713E-17, 1.000000000000000000, -0.000000000000000000 ) ) ;
#82 = CARTESIAN_POINT ( 'NONE',  ( 0.000000000000000000, 0.000000000000000000, -0.3125000000000000000 ) ) ;
#83 =( CONVERSION_BASED_UNIT ( 'INCH', #269 ) LENGTH_UNIT ( ) NAMED_UNIT ( #222 ) );
#84 = DIRECTION ( 'NONE',  ( -0.000000000000000000, -1.000000000000000000, -0.000000000000000000 ) ) ;
#85 = DIRECTION ( 'NONE',  ( -0.000000000000000000, -1.000000000000000000, -0.000000000000000000 ) ) ;
#86 = DIRECTION ( 'NONE',  ( -3.265724797726272713E-17, 1.000000000000000000, -0.000000000000000000 ) ) ;
#87 = SURFACE_SIDE_STYLE ('',( #228 ) ) ;
#88 = DIRECTION ( 'NONE',  ( -3.265724797726272713E-17, 1.000000000000000000, -0.000000000000000000 ) ) ;
#89 = FILL_AREA_STYLE ('',( #299 ) ) ;
#90 = DIRECTION ( 'NONE',  ( -1.000000000000000000, 0.000000000000000000, 0.000000000000000000 ) ) ;
#91 = ORIENTED_EDGE ( 'NONE', *, *, #136, .F. ) ;
#92 = FACE_OUTER_BOUND ( 'NONE', #282, .T. ) ;
#93 = AXIS2_PLACEMENT_3D ( 'NONE', #208, #70, #90 ) ;
#94 = ORIENTED_EDGE ( 'NONE', *, *, #120, .F. ) ;
#95 = ORIENTED_EDGE ( 'NONE', *, *, #275, .T. ) ;
#96 = DIRECTION ( 'NONE',  ( 0.000000000000000000, 0.000000000000000000, -1.000000000000000000 ) ) ;
#97 = UNCERTAINTY_MEASURE_WITH_UNIT (LENGTH_MEASURE( 1.000000000000000082E-05 ), #18, 'distance_accuracy_value', 'NONE');
#98 = STYLED_ITEM ( 'NONE', ( #129 ), #257 ) ;
#99 = ADVANCED_FACE ( 'NONE', ( #152 ), #201, .T. ) ;
#100 = CARTESIAN_POINT ( 'NONE',  ( -0.3125000000000000000, 1.625000000000000000, 0.000000000000000000 ) ) ;
#101 =( NAMED_UNIT ( * ) SI_UNIT ( $, .STERADIAN. ) SOLID_ANGLE_UNIT ( ) );
#102 = APPLICATION_PROTOCOL_DEFINITION ( 'draft international standard', 'automotive_design', 1998, #204 ) ;
#103 = FILL_AREA_STYLE ('',( #108 ) ) ;
#104 = CARTESIAN_POINT ( 'NONE',  ( 0.000000000000000000, 0.000000000000000000, -0.3125000000000000000 ) ) ;
#105 = CIRCLE ( 'NONE', #244, 0.3125000000000000555 ) ;
#106 = DIRECTION ( 'NONE',  ( -1.000000000000000000, 0.000000000000000000, 0.000000000000000000 ) ) ;
#107 = LENGTH_MEASURE_WITH_UNIT ( LENGTH_MEASURE( 0.02539999999999999897 ), #177 );
#108 = FILL_AREA_STYLE_COLOUR ( '', #176 ) ;
#109 =( CONVERSION_BASED_UNIT ( 'INCH', #1 ) LENGTH_UNIT ( ) NAMED_UNIT ( #145 ) );
#110 = UNCERTAINTY_MEASURE_WITH_UNIT (LENGTH_MEASURE( 1.000000000000000082E-05 ), #40, 'distance_accuracy_value', 'NONE');
#111 = CIRCLE ( 'NONE', #149, 0.3125000000000000000 ) ;
#112 =( LENGTH_UNIT ( ) NAMED_UNIT ( * ) SI_UNIT ( $, .METRE. ) );
#113 = ORIENTED_EDGE ( 'NONE', *, *, #150, .T. ) ;
#114 = SURFACE_STYLE_FILL_AREA ( #75 ) ;
#115 = CIRCLE ( 'NONE', #93, 0.3125000000000000555 ) ;
#116 = SURFACE_SIDE_STYLE ('',( #114 ) ) ;
#117 = CIRCLE ( 'NONE', #309, 0.3125000000000000000 ) ;
#118 = EDGE_LOOP ( 'NONE', ( #192, #240, #197, #73 ) ) ;
#119 = VERTEX_POINT ( 'NONE', #100 ) ;
#120 = EDGE_CURVE ( 'NONE', #279, #121, #35, .T. ) ;
#121 = VERTEX_POINT ( 'NONE', #53 ) ;
#122 =( GEOMETRIC_REPRESENTATION_CONTEXT ( 3 ) GLOBAL_UNCERTAINTY_ASSIGNED_CONTEXT ( ( #298 ) ) GLOBAL_UNIT_ASSIGNED_CONTEXT ( ( #141, #25, #169 ) ) REPRESENTATION_CONTEXT ( 'NONE', 'WORKASPACE' ) );
#123 = VERTEX_POINT ( 'NONE', #127 ) ;
#124 =( GEOMETRIC_REPRESENTATION_CONTEXT ( 3 ) GLOBAL_UNCERTAINTY_ASSIGNED_CONTEXT ( ( #28 ) ) GLOBAL_UNIT_ASSIGNED_CONTEXT ( ( #83, #39, #14 ) ) REPRESENTATION_CONTEXT ( 'NONE', 'WORKASPACE' ) );
#125 = DIRECTION ( 'NONE',  ( 0.000000000000000000, -0.000000000000000000, 1.000000000000000000 ) ) ;
#126 = PRESENTATION_STYLE_ASSIGNMENT (( #182 ) ) ;
#127 = CARTESIAN_POINT ( 'NONE',  ( 3.827021247335478926E-17, 1.625000000000000000, 0.3125000000000000000 ) ) ;
#128 = CARTESIAN_POINT ( 'NONE',  ( -0.3125000000000001665, 3.500000000000000000, 0.000000000000000000 ) ) ;
#129 = PRESENTATION_STYLE_ASSIGNMENT (( #230 ) ) ;
#130 = SURFACE_SIDE_STYLE ('',( #184 ) ) ;
#131 = DIRECTION ( 'NONE',  ( 0.000000000000000000, 0.000000000000000000, -1.000000000000000000 ) ) ;
#132 = PLANE ( 'NONE',  #250 ) ;
#133 = LENGTH_MEASURE_WITH_UNIT ( LENGTH_MEASURE( 0.02539999999999999897 ), #251 );
#134 = AXIS2_PLACEMENT_3D ( 'NONE', #232, #229, #248 ) ;
#135 = AXIS2_PLACEMENT_3D ( 'NONE', #147, #31, #131 ) ;
#136 = EDGE_CURVE ( 'NONE', #279, #119, #117, .T. ) ;
#137 = SURFACE_STYLE_FILL_AREA ( #138 ) ;
#138 = FILL_AREA_STYLE ('',( #67 ) ) ;
#139 = ORIENTED_EDGE ( 'NONE', *, *, #270, .F. ) ;
#140 = STYLED_ITEM ( 'NONE', ( #43 ), #207 ) ;
#141 =( CONVERSION_BASED_UNIT ( 'INCH', #46 ) LENGTH_UNIT ( ) NAMED_UNIT ( #268 ) );
#142 = EDGE_LOOP ( 'NONE', ( #259, #288 ) ) ;
#143 = MECHANICAL_DESIGN_GEOMETRIC_PRESENTATION_REPRESENTATION (  '', ( #140 ), #296 ) ;
#144 = CARTESIAN_POINT ( 'NONE',  ( 1.666399758513172697E-34, 1.625000000000000000, 0.000000000000000000 ) ) ;
#145 = DIMENSIONAL_EXPONENTS ( 1.000000000000000000, 0.000000000000000000, 0.000000000000000000, 0.000000000000000000, 0.000000000000000000, 0.000000000000000000, 0.000000000000000000 ) ;
#146 = ORIENTED_EDGE ( 'NONE', *, *, #235, .F. ) ;
#147 = CARTESIAN_POINT ( 'NONE',  ( 0.000000000000000000, 0.000000000000000000, 0.000000000000000000 ) ) ;
#148 = FACE_OUTER_BOUND ( 'NONE', #199, .T. ) ;
#149 = AXIS2_PLACEMENT_3D ( 'NONE', #26, #219, #96 ) ;
#150 = EDGE_CURVE ( 'NONE', #292, #29, #170, .T. ) ;
#151 = AXIS2_PLACEMENT_3D ( 'NONE', #157, #209, #242 ) ;
#152 = FACE_OUTER_BOUND ( 'NONE', #3, .T. ) ;
#153 = SURFACE_SIDE_STYLE ('',( #294 ) ) ;
#154 = DIMENSIONAL_EXPONENTS ( 1.000000000000000000, 0.000000000000000000, 0.000000000000000000, 0.000000000000000000, 0.000000000000000000, 0.000000000000000000, 0.000000000000000000 ) ;
#155 = DIRECTION ( 'NONE',  ( 0.000000000000000000, 0.000000000000000000, 1.000000000000000000 ) ) ;
#156 = DIRECTION ( 'NONE',  ( -3.265724797726272713E-17, 1.000000000000000000, -0.000000000000000000 ) ) ;
#157 = CARTESIAN_POINT ( 'NONE',  ( 0.000000000000000000, 1.625000000000000000, 0.000000000000000000 ) ) ;
#158 = CARTESIAN_POINT ( 'NONE',  ( 7.582401355855259480E-33, 1.625000000000000000, 0.000000000000000000 ) ) ;
#159 =( CONVERSION_BASED_UNIT ( 'INCH', #107 ) LENGTH_UNIT ( ) NAMED_UNIT ( #247 ) );
#160 = PRESENTATION_LAYER_ASSIGNMENT (  '', '', ( #80 ) ) ;
#161 = EDGE_CURVE ( 'NONE', #119, #279, #186, .T. ) ;
#162 = CARTESIAN_POINT ( 'NONE',  ( -0.3125000000000000555, 3.500000000000000000, 0.000000000000000000 ) ) ;
#163 = VERTEX_POINT ( 'NONE', #128 ) ;
#164 = AXIS2_PLACEMENT_3D ( 'NONE', #293, #86, #106 ) ;
#165 = SURFACE_STYLE_USAGE ( .BOTH. , #68 ) ;
#166 = EDGE_LOOP ( 'NONE', ( #94, #286, #51, #254 ) ) ;
#167 =( NAMED_UNIT ( * ) PLANE_ANGLE_UNIT ( ) SI_UNIT ( $, .RADIAN. ) );
#168 = EDGE_LOOP ( 'NONE', ( #113, #196 ) ) ;
#169 =( NAMED_UNIT ( * ) SI_UNIT ( $, .STERADIAN. ) SOLID_ANGLE_UNIT ( ) );
#170 = CIRCLE ( 'NONE', #261, 0.3125000000000000000 ) ;
#171 = PRODUCT_DEFINITION_FORMATION_WITH_SPECIFIED_SOURCE ( 'ANY', '', #27, .NOT_KNOWN. ) ;
#172 = CYLINDRICAL_SURFACE ( 'NONE', #6, 0.3125000000000000000 ) ;
#173 = CIRCLE ( 'NONE', #267, 0.3125000000000000000 ) ;
#174 = CARTESIAN_POINT ( 'NONE',  ( 0.3125000000000000000, 1.625000000000000000, 3.827021247335478926E-17 ) ) ;
#175 = CARTESIAN_POINT ( 'NONE',  ( 0.000000000000000000, 0.000000000000000000, 0.000000000000000000 ) ) ;
#176 = COLOUR_RGB ( '',1.000000000000000000, 0.000000000000000000, 0.000000000000000000 ) ;
#177 =( LENGTH_UNIT ( ) NAMED_UNIT ( * ) SI_UNIT ( $, .METRE. ) );
#178 = VECTOR ( 'NONE', #253, 39.37007874015748143 ) ;
#179 = CARTESIAN_POINT ( 'NONE',  ( -6.123233995736759873E-17, 3.500000000000000000, 0.000000000000000000 ) ) ;
#180 = PRESENTATION_STYLE_ASSIGNMENT (( #33 ) ) ;
#181 = UNCERTAINTY_MEASURE_WITH_UNIT (LENGTH_MEASURE( 1.000000000000000082E-05 ), #159, 'distance_accuracy_value', 'NONE');
#182 = SURFACE_STYLE_USAGE ( .BOTH. , #87 ) ;
#183 = PRODUCT_DEFINITION ( 'UNKNOWN', '', #171, #289 ) ;
#184 = SURFACE_STYLE_FILL_AREA ( #103 ) ;
#185 = DIRECTION ( 'NONE',  ( -0.000000000000000000, -1.000000000000000000, -0.000000000000000000 ) ) ;
#186 = CIRCLE ( 'NONE', #277, 0.3125000000000000000 ) ;
#187 = FACE_OUTER_BOUND ( 'NONE', #168, .T. ) ;
#188 = LENGTH_MEASURE_WITH_UNIT ( LENGTH_MEASURE( 0.02539999999999999897 ), #112 );
#189 = ORIENTED_EDGE ( 'NONE', *, *, #161, .T. ) ;
#190 = AXIS2_PLACEMENT_3D ( 'NONE', #56, #155, #13 ) ;
#191 =( NAMED_UNIT ( * ) SI_UNIT ( $, .STERADIAN. ) SOLID_ANGLE_UNIT ( ) );
#192 = ORIENTED_EDGE ( 'NONE', *, *, #275, .F. ) ;
#193 = STYLED_ITEM ( 'NONE', ( #126 ), #308 ) ;
#194 = CARTESIAN_POINT ( 'NONE',  ( 3.827021247335478926E-17, 0.000000000000000000, 0.3125000000000000000 ) ) ;
#195 = EDGE_CURVE ( 'NONE', #29, #292, #173, .T. ) ;
#196 = ORIENTED_EDGE ( 'NONE', *, *, #195, .T. ) ;
#197 = ORIENTED_EDGE ( 'NONE', *, *, #270, .T. ) ;
#198 = STYLED_ITEM ( 'NONE', ( #180 ), #78 ) ;
#199 = EDGE_LOOP ( 'NONE', ( #69, #285 ) ) ;
#200 = EDGE_CURVE ( 'NONE', #163, #121, #105, .T. ) ;
#201 = CYLINDRICAL_SURFACE ( 'NONE', #164, 0.3125000000000000000 ) ;
#202 = PRODUCT_CONTEXT ( 'NONE', #252, 'mechanical' ) ;
#203 =( NAMED_UNIT ( * ) SI_UNIT ( $, .STERADIAN. ) SOLID_ANGLE_UNIT ( ) );
#204 = APPLICATION_CONTEXT ( 'automotive_design' ) ;
#205 = SHAPE_DEFINITION_REPRESENTATION ( #221, #234 ) ;
#206 =( LENGTH_UNIT ( ) NAMED_UNIT ( * ) SI_UNIT ( $, .METRE. ) );
#207 = MANIFOLD_SOLID_BREP ( 'Revolve - Cutting Edge', #76 ) ;
#208 = CARTESIAN_POINT ( 'NONE',  ( -6.123233995736759873E-17, 3.500000000000000000, 0.000000000000000000 ) ) ;
#209 = DIRECTION ( 'NONE',  ( -0.000000000000000000, -1.000000000000000000, -0.000000000000000000 ) ) ;
#210 = DIRECTION ( 'NONE',  ( -0.000000000000000000, -1.000000000000000000, -0.000000000000000000 ) ) ;
#211 = CARTESIAN_POINT ( 'NONE',  ( 3.827021247335478926E-17, 0.000000000000000000, 0.3125000000000000000 ) ) ;
#212 = VECTOR ( 'NONE', #274, 39.37007874015748143 ) ;
#213 =( NAMED_UNIT ( * ) SI_UNIT ( $, .STERADIAN. ) SOLID_ANGLE_UNIT ( ) );
#214 = PRESENTATION_STYLE_ASSIGNMENT (( #42 ) ) ;
#215 = ORIENTED_EDGE ( 'NONE', *, *, #150, .F. ) ;
#216 = PRESENTATION_LAYER_ASSIGNMENT (  '', '', ( #140 ) ) ;
#217 = SURFACE_SIDE_STYLE ('',( #41 ) ) ;
#218 = EDGE_CURVE ( 'NONE', #121, #163, #115, .T. ) ;
#219 = DIRECTION ( 'NONE',  ( -0.000000000000000000, -1.000000000000000000, -0.000000000000000000 ) ) ;
#220 = COLOUR_RGB ( '',1.000000000000000000, 0.000000000000000000, 0.000000000000000000 ) ;
#221 = PRODUCT_DEFINITION_SHAPE ( 'NONE', 'NONE',  #183 ) ;
#222 = DIMENSIONAL_EXPONENTS ( 1.000000000000000000, 0.000000000000000000, 0.000000000000000000, 0.000000000000000000, 0.000000000000000000, 0.000000000000000000, 0.000000000000000000 ) ;
#223 = ADVANCED_FACE ( 'NONE', ( #187 ), #283, .T. ) ;
#224 = COLOUR_RGB ( '',1.000000000000000000, 0.000000000000000000, 0.000000000000000000 ) ;
#225 = DIRECTION ( 'NONE',  ( 0.000000000000000000, 0.000000000000000000, -1.000000000000000000 ) ) ;
#226 =( LENGTH_UNIT ( ) NAMED_UNIT ( * ) SI_UNIT ( $, .METRE. ) );
#227 = CARTESIAN_POINT ( 'NONE',  ( 0.000000000000000000, 0.000000000000000000, 0.000000000000000000 ) ) ;
#228 = SURFACE_STYLE_FILL_AREA ( #36 ) ;
#229 = DIRECTION ( 'NONE',  ( 3.265724797726272713E-17, -1.000000000000000000, 0.000000000000000000 ) ) ;
#230 = SURFACE_STYLE_USAGE ( .BOTH. , #153 ) ;
#231 = MECHANICAL_DESIGN_GEOMETRIC_PRESENTATION_REPRESENTATION (  '', ( #64 ), #122 ) ;
#232 = CARTESIAN_POINT ( 'NONE',  ( 0.3125000000000000000, 3.500000000000000000, 0.000000000000000000 ) ) ;
#233 =( LENGTH_UNIT ( ) NAMED_UNIT ( * ) SI_UNIT ( $, .METRE. ) );
#234 = ADVANCED_BREP_SHAPE_REPRESENTATION ( '03570', ( #207, #308, #190 ), #71 ) ;
#235 = EDGE_CURVE ( 'NONE', #119, #163, #238, .T. ) ;
#236 =( CONVERSION_BASED_UNIT ( 'INCH', #133 ) LENGTH_UNIT ( ) NAMED_UNIT ( #11 ) );
#237 = MECHANICAL_DESIGN_GEOMETRIC_PRESENTATION_REPRESENTATION (  '', ( #193 ), #9 ) ;
#238 = LINE ( 'NONE', #162, #178 ) ;
#239 = MECHANICAL_DESIGN_GEOMETRIC_PRESENTATION_REPRESENTATION (  '', ( #198 ), #124 ) ;
#240 = ORIENTED_EDGE ( 'NONE', *, *, #20, .T. ) ;
#241 = DIRECTION ( 'NONE',  ( -3.265724797726272713E-17, 1.000000000000000000, 0.000000000000000000 ) ) ;
#242 = DIRECTION ( 'NONE',  ( 0.000000000000000000, 0.000000000000000000, -1.000000000000000000 ) ) ;
#243 = AXIS2_PLACEMENT_3D ( 'NONE', #144, #241, #30 ) ;
#244 = AXIS2_PLACEMENT_3D ( 'NONE', #179, #156, #271 ) ;
#245 = DIRECTION ( 'NONE',  ( -1.000000000000000000, 0.000000000000000000, 0.000000000000000000 ) ) ;
#246 = ADVANCED_FACE ( 'NONE', ( #92 ), #23, .T. ) ;
#247 = DIMENSIONAL_EXPONENTS ( 1.000000000000000000, 0.000000000000000000, 0.000000000000000000, 0.000000000000000000, 0.000000000000000000, 0.000000000000000000, 0.000000000000000000 ) ;
#248 = DIRECTION ( 'NONE',  ( 1.000000000000000000, 3.265724797726272713E-17, 0.000000000000000000 ) ) ;
#249 =( NAMED_UNIT ( * ) PLANE_ANGLE_UNIT ( ) SI_UNIT ( $, .RADIAN. ) );
#250 = AXIS2_PLACEMENT_3D ( 'NONE', #16, #65, #125 ) ;
#251 =( LENGTH_UNIT ( ) NAMED_UNIT ( * ) SI_UNIT ( $, .METRE. ) );
#252 = APPLICATION_CONTEXT ( 'automotive_design' ) ;
#253 = DIRECTION ( 'NONE',  ( -3.265724797726272713E-17, 1.000000000000000000, -0.000000000000000000 ) ) ;
#254 = ORIENTED_EDGE ( 'NONE', *, *, #218, .F. ) ;
#255 =( GEOMETRIC_REPRESENTATION_CONTEXT ( 3 ) GLOBAL_UNCERTAINTY_ASSIGNED_CONTEXT ( ( #97 ) ) GLOBAL_UNIT_ASSIGNED_CONTEXT ( ( #18, #167, #191 ) ) REPRESENTATION_CONTEXT ( 'NONE', 'WORKASPACE' ) );
#256 =( LENGTH_UNIT ( ) NAMED_UNIT ( * ) SI_UNIT ( $, .METRE. ) );
#257 = ADVANCED_FACE ( 'NONE', ( #32 ), #34, .T. ) ;
#258 = PRESENTATION_STYLE_ASSIGNMENT (( #165 ) ) ;
#259 = ORIENTED_EDGE ( 'NONE', *, *, #200, .T. ) ;
#260 = CLOSED_SHELL ( 'NONE', ( #99, #2, #37, #74 ) ) ;
#261 = AXIS2_PLACEMENT_3D ( 'NONE', #175, #210, #225 ) ;
#262 = APPLICATION_PROTOCOL_DEFINITION ( 'draft international standard', 'automotive_design', 1998, #252 ) ;
#263 = PRESENTATION_LAYER_ASSIGNMENT (  '', '', ( #64 ) ) ;
#264 = PLANE ( 'NONE',  #243 ) ;
#265 = CARTESIAN_POINT ( 'NONE',  ( 0.3124999999999999445, 3.500000000000000000, 3.827021247335478926E-17 ) ) ;
#266 = LINE ( 'NONE', #104, #49 ) ;
#267 = AXIS2_PLACEMENT_3D ( 'NONE', #227, #85, #273 ) ;
#268 = DIMENSIONAL_EXPONENTS ( 1.000000000000000000, 0.000000000000000000, 0.000000000000000000, 0.000000000000000000, 0.000000000000000000, 0.000000000000000000, 0.000000000000000000 ) ;
#269 = LENGTH_MEASURE_WITH_UNIT ( LENGTH_MEASURE( 0.02539999999999999897 ), #206 );
#270 = EDGE_CURVE ( 'NONE', #304, #292, #266, .T. ) ;
#271 = DIRECTION ( 'NONE',  ( -1.000000000000000000, 0.000000000000000000, 0.000000000000000000 ) ) ;
#272 =( NAMED_UNIT ( * ) PLANE_ANGLE_UNIT ( ) SI_UNIT ( $, .RADIAN. ) );
#273 = DIRECTION ( 'NONE',  ( 0.000000000000000000, 0.000000000000000000, -1.000000000000000000 ) ) ;
#274 = DIRECTION ( 'NONE',  ( -0.000000000000000000, -1.000000000000000000, -0.000000000000000000 ) ) ;
#275 = EDGE_CURVE ( 'NONE', #123, #29, #278, .T. ) ;
#276 = DIRECTION ( 'NONE',  ( -3.265724797726272713E-17, 1.000000000000000000, -0.000000000000000000 ) ) ;
#277 = AXIS2_PLACEMENT_3D ( 'NONE', #12, #57, #245 ) ;
#278 = LINE ( 'NONE', #211, #212 ) ;
#279 = VERTEX_POINT ( 'NONE', #174 ) ;
#280 = PRESENTATION_LAYER_ASSIGNMENT (  '', '', ( #98 ) ) ;
#281 = DIRECTION ( 'NONE',  ( 0.000000000000000000, -1.000000000000000000, -0.000000000000000000 ) ) ;
#282 = EDGE_LOOP ( 'NONE', ( #307, #95, #215, #139 ) ) ;
#283 = PLANE ( 'NONE',  #24 ) ;
#284 =( NAMED_UNIT ( * ) PLANE_ANGLE_UNIT ( ) SI_UNIT ( $, .RADIAN. ) );
#285 = ORIENTED_EDGE ( 'NONE', *, *, #20, .F. ) ;
#286 = ORIENTED_EDGE ( 'NONE', *, *, #136, .T. ) ;
#287 = FACE_OUTER_BOUND ( 'NONE', #166, .T. ) ;
#288 = ORIENTED_EDGE ( 'NONE', *, *, #218, .T. ) ;
#289 = PRODUCT_DEFINITION_CONTEXT ( 'detailed design', #204, 'design' ) ;
#290 = COLOUR_RGB ( '',1.000000000000000000, 0.000000000000000000, 0.000000000000000000 ) ;
#291 = COLOUR_RGB ( '',0.7921568627450980005, 0.8196078431372548767, 0.9333333333333333481 ) ;
#292 = VERTEX_POINT ( 'NONE', #82 ) ;
#293 = CARTESIAN_POINT ( 'NONE',  ( -6.123233995736759873E-17, 3.500000000000000000, 0.000000000000000000 ) ) ;
#294 = SURFACE_STYLE_FILL_AREA ( #89 ) ;
#295 = LENGTH_MEASURE_WITH_UNIT ( LENGTH_MEASURE( 0.02539999999999999897 ), #226 );
#296 =( GEOMETRIC_REPRESENTATION_CONTEXT ( 3 ) GLOBAL_UNCERTAINTY_ASSIGNED_CONTEXT ( ( #52 ) ) GLOBAL_UNIT_ASSIGNED_CONTEXT ( ( #109, #302, #213 ) ) REPRESENTATION_CONTEXT ( 'NONE', 'WORKASPACE' ) );
#297 = FILL_AREA_STYLE_COLOUR ( '', #291 ) ;
#298 = UNCERTAINTY_MEASURE_WITH_UNIT (LENGTH_MEASURE( 1.000000000000000082E-05 ), #141, 'distance_accuracy_value', 'NONE');
#299 = FILL_AREA_STYLE_COLOUR ( '', #224 ) ;
#300 = PLANE ( 'NONE',  #134 ) ;
#301 = FILL_AREA_STYLE_COLOUR ( '', #19 ) ;
#302 =( NAMED_UNIT ( * ) PLANE_ANGLE_UNIT ( ) SI_UNIT ( $, .RADIAN. ) );
#303 =( GEOMETRIC_REPRESENTATION_CONTEXT ( 3 ) GLOBAL_UNCERTAINTY_ASSIGNED_CONTEXT ( ( #110 ) ) GLOBAL_UNIT_ASSIGNED_CONTEXT ( ( #40, #272, #101 ) ) REPRESENTATION_CONTEXT ( 'NONE', 'WORKASPACE' ) );
#304 = VERTEX_POINT ( 'NONE', #54 ) ;
#305 = EDGE_CURVE ( 'NONE', #304, #123, #77, .T. ) ;
#306 = DIRECTION ( 'NONE',  ( 0.000000000000000000, 0.000000000000000000, -1.000000000000000000 ) ) ;
#307 = ORIENTED_EDGE ( 'NONE', *, *, #305, .T. ) ;
#308 = MANIFOLD_SOLID_BREP ( 'Revolve - Tool Body (Straight Shanked)', #260 ) ;
#309 = AXIS2_PLACEMENT_3D ( 'NONE', #158, #88, #17 ) ;
ENDSEC;
END-ISO-10303-21;
