ISO-10303-21;
HEADER;
FILE_DESCRIPTION (( 'STEP AP214' ),
    '1' );
FILE_NAME ('Micro_DM-125-4120.STEP',
    '2021-09-02T15:58:50',
    ( '' ),
    ( '' ),
    'SwSTEP 2.0',
    'SolidWorks 2020',
    '' );
FILE_SCHEMA (( 'AUTOMOTIVE_DESIGN' ));
ENDSEC;

DATA;
#1 = CARTESIAN_POINT ( 'NONE',  ( 0.06245000000000002632, 0.0000000000000000000, 0.03172539729196974245 ) ) ;
#2 = SURFACE_SIDE_STYLE ('',( #53 ) ) ;
#3 = UNCERTAINTY_MEASURE_WITH_UNIT (LENGTH_MEASURE( 1.000000000000000082E-05 ), #196, 'distance_accuracy_value', 'NONE');
#4 = CLOSED_SHELL ( 'NONE', ( #61, #106, #24, #246, #78, #110, #258, #208, #66, #326, #225 ) ) ;
#5 = CARTESIAN_POINT ( 'NONE',  ( -0.04750000000000064587, 0.0000000000000000000, 1.500000000000000222 ) ) ;
#6 = ORIENTED_EDGE ( 'NONE', *, *, #96, .F. ) ;
#7 = CIRCLE ( 'NONE', #93, 0.007499999999999999722 ) ;
#8 = EDGE_CURVE ( 'NONE', #34, #261, #228, .T. ) ;
#9 = FILL_AREA_STYLE_COLOUR ( '', #45 ) ;
#10 = ORIENTED_EDGE ( 'NONE', *, *, #118, .F. ) ;
#11 = ORIENTED_EDGE ( 'NONE', *, *, #37, .F. ) ;
#12 = SURFACE_STYLE_FILL_AREA ( #315 ) ;
#13 = AXIS2_PLACEMENT_3D ( 'NONE', #267, #266, #220 ) ;
#14 =( NAMED_UNIT ( * ) PLANE_ANGLE_UNIT ( ) SI_UNIT ( $, .RADIAN. ) );
#15 = EDGE_LOOP ( 'NONE', ( #64, #112, #192, #190 ) ) ;
#16 = EDGE_CURVE ( 'NONE', #268, #265, #227, .T. ) ;
#17 = PRODUCT_DEFINITION_FORMATION_WITH_SPECIFIED_SOURCE ( 'ANY', '', #70, .NOT_KNOWN. ) ;
#18 = ORIENTED_EDGE ( 'NONE', *, *, #102, .T. ) ;
#19 = DIRECTION ( 'NONE',  ( -1.000000000000000000, 0.0000000000000000000, 0.0000000000000000000 ) ) ;
#20 = CARTESIAN_POINT ( 'NONE',  ( 0.0000000000000000000, 0.0000000000000000000, 1.707404996040164512E-17 ) ) ;
#21 = CARTESIAN_POINT ( 'NONE',  ( 0.0000000000000000000, 0.0000000000000000000, 1.500000000000000222 ) ) ;
#22 = EDGE_CURVE ( 'NONE', #320, #80, #125, .T. ) ;
#23 = DIRECTION ( 'NONE',  ( -1.000000000000000000, 0.0000000000000000000, 0.0000000000000000000 ) ) ;
#24 = ADVANCED_FACE ( 'NONE', ( #230 ), #232, .T. ) ;
#25 = DIRECTION ( 'NONE',  ( -0.0000000000000000000, -0.0000000000000000000, -1.000000000000000000 ) ) ;
#26 = CARTESIAN_POINT ( 'NONE',  ( -0.007499999999999999722, 4.283202180017868527E-18, 1.707404996040164512E-17 ) ) ;
#27 = AXIS2_PLACEMENT_3D ( 'NONE', #327, #301, #67 ) ;
#28 = CIRCLE ( 'NONE', #313, 0.06245000000000000551 ) ;
#29 = CYLINDRICAL_SURFACE ( 'NONE', #252, 0.06250000000000000000 ) ;
#30 =( NAMED_UNIT ( * ) PLANE_ANGLE_UNIT ( ) SI_UNIT ( $, .RADIAN. ) );
#31 = ORIENTED_EDGE ( 'NONE', *, *, #22, .F. ) ;
#32 = FACE_OUTER_BOUND ( 'NONE', #145, .T. ) ;
#33 = EDGE_CURVE ( 'NONE', #265, #310, #92, .T. ) ;
#34 = VERTEX_POINT ( 'NONE', #280 ) ;
#35 = PLANE ( 'NONE',  #177 ) ;
#36 = ORIENTED_EDGE ( 'NONE', *, *, #312, .T. ) ;
#37 = EDGE_CURVE ( 'NONE', #195, #268, #136, .T. ) ;
#38 = CARTESIAN_POINT ( 'NONE',  ( 0.0000000000000000000, 0.0000000000000000000, 0.5000000000000000000 ) ) ;
#39 = ADVANCED_BREP_SHAPE_REPRESENTATION ( 'Micro_DM-125-4120', ( #197, #205 ), #303 ) ;
#40 = DIRECTION ( 'NONE',  ( -1.000000000000000000, 0.0000000000000000000, 0.0000000000000000000 ) ) ;
#41 = ORIENTED_EDGE ( 'NONE', *, *, #155, .F. ) ;
#42 = APPLICATION_PROTOCOL_DEFINITION ( 'draft international standard', 'automotive_design', 1998, #150 ) ;
#43 = ORIENTED_EDGE ( 'NONE', *, *, #102, .F. ) ;
#44 = VECTOR ( 'NONE', #278, 39.37007874015748143 ) ;
#45 = COLOUR_RGB ( '',0.7921568627450980005, 0.8196078431372548767, 0.9333333333333333481 ) ;
#46 = FACE_OUTER_BOUND ( 'NONE', #263, .T. ) ;
#47 = CARTESIAN_POINT ( 'NONE',  ( 0.0000000000000000000, 0.0000000000000000000, 1.485000000000000764 ) ) ;
#48 = DIRECTION ( 'NONE',  ( 0.0000000000000000000, 0.0000000000000000000, 1.000000000000000000 ) ) ;
#49 = AXIS2_PLACEMENT_3D ( 'NONE', #50, #324, #204 ) ;
#50 = CARTESIAN_POINT ( 'NONE',  ( 0.0000000000000000000, 0.0000000000000000000, 1.500000000000000222 ) ) ;
#51 = CARTESIAN_POINT ( 'NONE',  ( 0.0000000000000000000, 0.0000000000000000000, 0.5000000000000000000 ) ) ;
#52 = DIRECTION ( 'NONE',  ( 0.0000000000000000000, 0.0000000000000000000, -1.000000000000000000 ) ) ;
#53 = SURFACE_STYLE_FILL_AREA ( #79 ) ;
#54 = LINE ( 'NONE', #238, #248 ) ;
#55 = ORIENTED_EDGE ( 'NONE', *, *, #194, .F. ) ;
#56 = EDGE_LOOP ( 'NONE', ( #58, #317 ) ) ;
#57 = PLANE ( 'NONE',  #117 ) ;
#58 = ORIENTED_EDGE ( 'NONE', *, *, #127, .T. ) ;
#59 = VECTOR ( 'NONE', #306, 39.37007874015748143 ) ;
#60 = PRESENTATION_STYLE_ASSIGNMENT (( #314 ) ) ;
#61 = ADVANCED_FACE ( 'NONE', ( #299 ), #206, .T. ) ;
#62 = CIRCLE ( 'NONE', #13, 0.06250000000000000000 ) ;
#63 = CARTESIAN_POINT ( 'NONE',  ( -0.06245000000000002632, 7.647919260675224182E-18, 0.03172539729196974245 ) ) ;
#64 = ORIENTED_EDGE ( 'NONE', *, *, #16, .F. ) ;
#65 = EDGE_LOOP ( 'NONE', ( #138, #187, #271, #91 ) ) ;
#66 = ADVANCED_FACE ( 'NONE', ( #126 ), #257, .T. ) ;
#67 = DIRECTION ( 'NONE',  ( -1.000000000000000000, 0.0000000000000000000, 0.0000000000000000000 ) ) ;
#68 = MECHANICAL_DESIGN_GEOMETRIC_PRESENTATION_REPRESENTATION (  '', ( #274 ), #159 ) ;
#69 = DIRECTION ( 'NONE',  ( -1.000000000000000000, 0.0000000000000000000, 0.0000000000000000000 ) ) ;
#70 = PRODUCT ( 'Micro_DM-125-4120', 'Micro_DM-125-4120', '', ( #74 ) ) ;
#71 = DIRECTION ( 'NONE',  ( 0.0000000000000000000, 0.0000000000000000000, 1.000000000000000000 ) ) ;
#72 = DIRECTION ( 'NONE',  ( 1.000000000000000000, 0.0000000000000000000, 0.0000000000000000000 ) ) ;
#73 = DIRECTION ( 'NONE',  ( -1.000000000000000000, 0.0000000000000000000, 0.0000000000000000000 ) ) ;
#74 = PRODUCT_CONTEXT ( 'NONE', #98, 'mechanical' ) ;
#75 = VECTOR ( 'NONE', #216, 39.37007874015748143 ) ;
#76 = DIRECTION ( 'NONE',  ( -0.0000000000000000000, -0.0000000000000000000, -1.000000000000000000 ) ) ;
#77 = DIRECTION ( 'NONE',  ( 0.0000000000000000000, 0.0000000000000000000, 1.000000000000000000 ) ) ;
#78 = ADVANCED_FACE ( 'NONE', ( #210 ), #300, .T. ) ;
#79 = FILL_AREA_STYLE ('',( #9 ) ) ;
#80 = VERTEX_POINT ( 'NONE', #276 ) ;
#81 = EDGE_CURVE ( 'NONE', #320, #222, #147, .T. ) ;
#82 = CARTESIAN_POINT ( 'NONE',  ( 0.0000000000000000000, 0.0000000000000000000, 0.0000000000000000000 ) ) ;
#83 = ORIENTED_EDGE ( 'NONE', *, *, #33, .T. ) ;
#84 = CARTESIAN_POINT ( 'NONE',  ( 0.0000000000000000000, 0.0000000000000000000, 1.707404996040164512E-17 ) ) ;
#85 = ORIENTED_EDGE ( 'NONE', *, *, #22, .T. ) ;
#86 = AXIS2_PLACEMENT_3D ( 'NONE', #21, #325, #19 ) ;
#87 = COLOUR_RGB ( '',0.7921568627450980005, 0.8196078431372548767, 0.9333333333333333481 ) ;
#88 = CYLINDRICAL_SURFACE ( 'NONE', #171, 0.06245000000000004020 ) ;
#89 =( NAMED_UNIT ( * ) SI_UNIT ( $, .STERADIAN. ) SOLID_ANGLE_UNIT ( ) );
#90 = DIRECTION ( 'NONE',  ( -0.0000000000000000000, -0.0000000000000000000, -1.000000000000000000 ) ) ;
#91 = ORIENTED_EDGE ( 'NONE', *, *, #8, .F. ) ;
#92 = CIRCLE ( 'NONE', #241, 0.06245000000000000551 ) ;
#93 = AXIS2_PLACEMENT_3D ( 'NONE', #20, #229, #179 ) ;
#94 =( CONVERSION_BASED_UNIT ( 'INCH', #141 ) LENGTH_UNIT ( ) NAMED_UNIT ( #144 ) );
#95 = EDGE_LOOP ( 'NONE', ( #114, #122, #223, #236 ) ) ;
#96 = EDGE_CURVE ( 'NONE', #166, #310, #124, .T. ) ;
#97 = DIRECTION ( 'NONE',  ( -1.000000000000000000, 0.0000000000000000000, 0.0000000000000000000 ) ) ;
#98 = APPLICATION_CONTEXT ( 'automotive_design' ) ;
#99 = DIRECTION ( 'NONE',  ( 1.000000000000000000, 0.0000000000000000000, 0.0000000000000000000 ) ) ;
#100 = CARTESIAN_POINT ( 'NONE',  ( 0.0000000000000000000, 0.0000000000000000000, 0.03172539729196974245 ) ) ;
#101 = CARTESIAN_POINT ( 'NONE',  ( -0.007499999999999999722, 9.184850993605147975E-19, 1.707404996040164512E-17 ) ) ;
#102 = EDGE_CURVE ( 'NONE', #261, #34, #116, .T. ) ;
#103 = FACE_OUTER_BOUND ( 'NONE', #162, .T. ) ;
#104 = AXIS2_PLACEMENT_3D ( 'NONE', #178, #183, #251 ) ;
#105 = CARTESIAN_POINT ( 'NONE',  ( -0.06245000000000007490, 0.0000000000000000000, 0.5000000000000000000 ) ) ;
#106 = ADVANCED_FACE ( 'NONE', ( #103 ), #137, .T. ) ;
#107 = CARTESIAN_POINT ( 'NONE',  ( -0.06245000000000004020, 0.0000000000000000000, 0.0000000000000000000 ) ) ;
#108 = AXIS2_PLACEMENT_3D ( 'NONE', #47, #152, #72 ) ;
#109 = ORIENTED_EDGE ( 'NONE', *, *, #318, .F. ) ;
#110 = ADVANCED_FACE ( 'NONE', ( #46 ), #151, .T. ) ;
#111 = DIRECTION ( 'NONE',  ( -1.000000000000000000, 0.0000000000000000000, 0.0000000000000000000 ) ) ;
#112 = ORIENTED_EDGE ( 'NONE', *, *, #318, .T. ) ;
#113 = CARTESIAN_POINT ( 'NONE',  ( 0.04750000000000064587, 6.735557395310482421E-18, 1.500000000000000222 ) ) ;
#114 = ORIENTED_EDGE ( 'NONE', *, *, #37, .T. ) ;
#115 = DIRECTION ( 'NONE',  ( 0.8660254037844402619, 0.0000000000000000000, 0.4999999999999973910 ) ) ;
#116 = CIRCLE ( 'NONE', #27, 0.06250000000000000000 ) ;
#117 = AXIS2_PLACEMENT_3D ( 'NONE', #82, #184, #193 ) ;
#118 = EDGE_CURVE ( 'NONE', #80, #140, #148, .T. ) ;
#119 =( NAMED_UNIT ( * ) SI_UNIT ( $, .STERADIAN. ) SOLID_ANGLE_UNIT ( ) );
#120 = EDGE_LOOP ( 'NONE', ( #11, #109 ) ) ;
#121 = EDGE_CURVE ( 'NONE', #310, #265, #28, .T. ) ;
#122 = ORIENTED_EDGE ( 'NONE', *, *, #16, .T. ) ;
#123 = CARTESIAN_POINT ( 'NONE',  ( 0.0000000000000000000, 0.0000000000000000000, 1.500000000000000222 ) ) ;
#124 = LINE ( 'NONE', #101, #176 ) ;
#125 = LINE ( 'NONE', #254, #44 ) ;
#126 = FACE_OUTER_BOUND ( 'NONE', #240, .T. ) ;
#127 = EDGE_CURVE ( 'NONE', #200, #166, #7, .T. ) ;
#128 = CARTESIAN_POINT ( 'NONE',  ( 0.06245000000000004020, 7.647919260675225723E-18, 0.0000000000000000000 ) ) ;
#129 = PRESENTATION_LAYER_ASSIGNMENT (  '', '', ( #274 ) ) ;
#130 = CARTESIAN_POINT ( 'NONE',  ( 0.06245000000000007490, 0.0000000000000000000, 0.5000000000000000000 ) ) ;
#131 = CARTESIAN_POINT ( 'NONE',  ( 0.06245000000000006796, 7.647919260675228804E-18, 0.5000000000000000000 ) ) ;
#132 = UNCERTAINTY_MEASURE_WITH_UNIT (LENGTH_MEASURE( 1.000000000000000082E-05 ), #161, 'distance_accuracy_value', 'NONE');
#133 = FACE_BOUND ( 'NONE', #120, .T. ) ;
#134 = EDGE_LOOP ( 'NONE', ( #36, #284, #43, #146 ) ) ;
#135 = CARTESIAN_POINT ( 'NONE',  ( -0.06250000000000000000, 0.0000000000000000000, 1.500000000000000222 ) ) ;
#136 = CIRCLE ( 'NONE', #323, 0.06245000000000007490 ) ;
#137 = CONICAL_SURFACE ( 'NONE', #237, 0.007499999999999999722, 1.047197551196600740 ) ;
#138 = ORIENTED_EDGE ( 'NONE', *, *, #167, .F. ) ;
#139 =( LENGTH_UNIT ( ) NAMED_UNIT ( * ) SI_UNIT ( $, .METRE. ) );
#140 = VERTEX_POINT ( 'NONE', #153 ) ;
#141 = LENGTH_MEASURE_WITH_UNIT ( LENGTH_MEASURE( 0.02539999999999999897 ), #139 );
#142 = AXIS2_PLACEMENT_3D ( 'NONE', #296, #249, #99 ) ;
#143 = CIRCLE ( 'NONE', #214, 0.04750000000000064587 ) ;
#144 = DIMENSIONAL_EXPONENTS ( 1.000000000000000000, 0.0000000000000000000, 0.0000000000000000000, 0.0000000000000000000, 0.0000000000000000000, 0.0000000000000000000, 0.0000000000000000000 ) ;
#145 = EDGE_LOOP ( 'NONE', ( #31, #55, #308, #10 ) ) ;
#146 = ORIENTED_EDGE ( 'NONE', *, *, #157, .F. ) ;
#147 = CIRCLE ( 'NONE', #142, 0.04750000000000064587 ) ;
#148 = CIRCLE ( 'NONE', #108, 0.06250000000000000000 ) ;
#149 = MECHANICAL_DESIGN_GEOMETRIC_PRESENTATION_REPRESENTATION (  '', ( #264 ), #289 ) ;
#150 = APPLICATION_CONTEXT ( 'automotive_design' ) ;
#151 = PLANE ( 'NONE',  #49 ) ;
#152 = DIRECTION ( 'NONE',  ( 0.0000000000000000000, 0.0000000000000000000, -1.000000000000000000 ) ) ;
#153 = CARTESIAN_POINT ( 'NONE',  ( -0.06250000000000000000, 0.0000000000000000000, 1.485000000000000764 ) ) ;
#154 = LINE ( 'NONE', #5, #59 ) ;
#155 = EDGE_CURVE ( 'NONE', #222, #140, #154, .T. ) ;
#156 = DIRECTION ( 'NONE',  ( -0.0000000000000000000, -0.0000000000000000000, -1.000000000000000000 ) ) ;
#157 = EDGE_CURVE ( 'NONE', #140, #261, #309, .T. ) ;
#158 = LENGTH_MEASURE_WITH_UNIT ( LENGTH_MEASURE( 0.02539999999999999897 ), #189 );
#159 =( GEOMETRIC_REPRESENTATION_CONTEXT ( 3 ) GLOBAL_UNCERTAINTY_ASSIGNED_CONTEXT ( ( #218 ) ) GLOBAL_UNIT_ASSIGNED_CONTEXT ( ( #94, #198, #119 ) ) REPRESENTATION_CONTEXT ( 'NONE', 'WORKASPACE' ) );
#160 = FACE_OUTER_BOUND ( 'NONE', #56, .T. ) ;
#161 =( CONVERSION_BASED_UNIT ( 'INCH', #158 ) LENGTH_UNIT ( ) NAMED_UNIT ( #316 ) );
#162 = EDGE_LOOP ( 'NONE', ( #286, #202, #172, #217 ) ) ;
#163 = DIRECTION ( 'NONE',  ( 1.000000000000000000, 0.0000000000000000000, 0.0000000000000000000 ) ) ;
#164 = EDGE_LOOP ( 'NONE', ( #226, #85, #245, #41 ) ) ;
#165 = CONICAL_SURFACE ( 'NONE', #224, 0.04750000000000064587, 0.7853981633974457255 ) ;
#166 = VERTEX_POINT ( 'NONE', #26 ) ;
#167 = EDGE_CURVE ( 'NONE', #80, #34, #54, .T. ) ;
#168 = SURFACE_SIDE_STYLE ('',( #12 ) ) ;
#169 = PRODUCT_DEFINITION ( 'UNKNOWN', '', #17, #221 ) ;
#170 = DIRECTION ( 'NONE',  ( -0.0000000000000000000, -0.0000000000000000000, -1.000000000000000000 ) ) ;
#171 = AXIS2_PLACEMENT_3D ( 'NONE', #290, #243, #40 ) ;
#172 = ORIENTED_EDGE ( 'NONE', *, *, #121, .T. ) ;
#173 = LINE ( 'NONE', #242, #288 ) ;
#174 = EDGE_LOOP ( 'NONE', ( #18, #287 ) ) ;
#175 = DIRECTION ( 'NONE',  ( -0.8660254037844402619, 1.060575238724908640E-16, 0.4999999999999973910 ) ) ;
#176 = VECTOR ( 'NONE', #175, 39.37007874015748143 ) ;
#177 = AXIS2_PLACEMENT_3D ( 'NONE', #130, #262, #260 ) ;
#178 = CARTESIAN_POINT ( 'NONE',  ( 0.0000000000000000000, 0.0000000000000000000, 1.707404996040164512E-17 ) ) ;
#179 = DIRECTION ( 'NONE',  ( -1.000000000000000000, 0.0000000000000000000, 0.0000000000000000000 ) ) ;
#180 = SHAPE_DEFINITION_REPRESENTATION ( #270, #39 ) ;
#181 = CARTESIAN_POINT ( 'NONE',  ( 0.0000000000000000000, 0.0000000000000000000, 1.707404996040164512E-17 ) ) ;
#182 = PRESENTATION_LAYER_ASSIGNMENT (  '', '', ( #264 ) ) ;
#183 = DIRECTION ( 'NONE',  ( 0.0000000000000000000, 0.0000000000000000000, 1.000000000000000000 ) ) ;
#184 = DIRECTION ( 'NONE',  ( 0.0000000000000000000, 0.0000000000000000000, 1.000000000000000000 ) ) ;
#185 = CARTESIAN_POINT ( 'NONE',  ( 0.007499999999999999722, 0.0000000000000000000, 1.707404996040164512E-17 ) ) ;
#186 = AXIS2_PLACEMENT_3D ( 'NONE', #203, #231, #97 ) ;
#187 = ORIENTED_EDGE ( 'NONE', *, *, #118, .T. ) ;
#188 = AXIS2_PLACEMENT_3D ( 'NONE', #255, #25, #73 ) ;
#189 =( LENGTH_UNIT ( ) NAMED_UNIT ( * ) SI_UNIT ( $, .METRE. ) );
#190 = ORIENTED_EDGE ( 'NONE', *, *, #33, .F. ) ;
#191 = DIRECTION ( 'NONE',  ( -0.0000000000000000000, -0.0000000000000000000, -1.000000000000000000 ) ) ;
#192 = ORIENTED_EDGE ( 'NONE', *, *, #272, .T. ) ;
#193 = DIRECTION ( 'NONE',  ( 1.000000000000000000, 0.0000000000000000000, -0.0000000000000000000 ) ) ;
#194 = EDGE_CURVE ( 'NONE', #222, #320, #143, .T. ) ;
#195 = VERTEX_POINT ( 'NONE', #105 ) ;
#196 =( CONVERSION_BASED_UNIT ( 'INCH', #219 ) LENGTH_UNIT ( ) NAMED_UNIT ( #298 ) );
#197 = MANIFOLD_SOLID_BREP ( 'Cut-Revolve4', #4 ) ;
#198 =( NAMED_UNIT ( * ) PLANE_ANGLE_UNIT ( ) SI_UNIT ( $, .RADIAN. ) );
#199 = FACE_OUTER_BOUND ( 'NONE', #15, .T. ) ;
#200 = VERTEX_POINT ( 'NONE', #185 ) ;
#201 = VECTOR ( 'NONE', #304, 39.37007874015748143 ) ;
#202 = ORIENTED_EDGE ( 'NONE', *, *, #96, .T. ) ;
#203 = CARTESIAN_POINT ( 'NONE',  ( 0.0000000000000000000, 0.0000000000000000000, 0.5000000000000000000 ) ) ;
#204 = DIRECTION ( 'NONE',  ( 1.000000000000000000, 0.0000000000000000000, -0.0000000000000000000 ) ) ;
#205 = AXIS2_PLACEMENT_3D ( 'NONE', #269, #71, #253 ) ;
#206 = CYLINDRICAL_SURFACE ( 'NONE', #188, 0.06245000000000004020 ) ;
#207 = DIRECTION ( 'NONE',  ( -1.000000000000000000, 0.0000000000000000000, 0.0000000000000000000 ) ) ;
#208 = ADVANCED_FACE ( 'NONE', ( #133, #283 ), #35, .T. ) ;
#209 = VECTOR ( 'NONE', #156, 39.37007874015748143 ) ;
#210 = FACE_OUTER_BOUND ( 'NONE', #65, .T. ) ;
#211 = FACE_OUTER_BOUND ( 'NONE', #134, .T. ) ;
#212 = PRESENTATION_STYLE_ASSIGNMENT (( #307 ) ) ;
#213 = CARTESIAN_POINT ( 'NONE',  ( 0.0000000000000000000, 0.0000000000000000000, 1.500000000000000222 ) ) ;
#214 = AXIS2_PLACEMENT_3D ( 'NONE', #259, #77, #163 ) ;
#215 = ORIENTED_EDGE ( 'NONE', *, *, #81, .T. ) ;
#216 = DIRECTION ( 'NONE',  ( -0.0000000000000000000, -0.0000000000000000000, -1.000000000000000000 ) ) ;
#217 = ORIENTED_EDGE ( 'NONE', *, *, #302, .F. ) ;
#218 = UNCERTAINTY_MEASURE_WITH_UNIT (LENGTH_MEASURE( 1.000000000000000082E-05 ), #94, 'distance_accuracy_value', 'NONE');
#219 = LENGTH_MEASURE_WITH_UNIT ( LENGTH_MEASURE( 0.02539999999999999897 ), #292 );
#220 = DIRECTION ( 'NONE',  ( 1.000000000000000000, 0.0000000000000000000, 0.0000000000000000000 ) ) ;
#221 = PRODUCT_DEFINITION_CONTEXT ( 'detailed design', #150, 'design' ) ;
#222 = VERTEX_POINT ( 'NONE', #235 ) ;
#223 = ORIENTED_EDGE ( 'NONE', *, *, #121, .F. ) ;
#224 = AXIS2_PLACEMENT_3D ( 'NONE', #285, #52, #256 ) ;
#225 = ADVANCED_FACE ( 'NONE', ( #160 ), #57, .F. ) ;
#226 = ORIENTED_EDGE ( 'NONE', *, *, #81, .F. ) ;
#227 = LINE ( 'NONE', #128, #209 ) ;
#228 = CIRCLE ( 'NONE', #186, 0.06250000000000000000 ) ;
#229 = DIRECTION ( 'NONE',  ( -0.0000000000000000000, -0.0000000000000000000, -1.000000000000000000 ) ) ;
#230 = FACE_OUTER_BOUND ( 'NONE', #164, .T. ) ;
#231 = DIRECTION ( 'NONE',  ( -0.0000000000000000000, -0.0000000000000000000, -1.000000000000000000 ) ) ;
#232 = CONICAL_SURFACE ( 'NONE', #86, 0.04750000000000064587, 0.7853981633974457255 ) ;
#233 = CARTESIAN_POINT ( 'NONE',  ( -0.06250000000000000000, 0.0000000000000000000, 0.5000000000000000000 ) ) ;
#234 = LINE ( 'NONE', #107, #75 ) ;
#235 = CARTESIAN_POINT ( 'NONE',  ( -0.04750000000000064587, 0.0000000000000000000, 1.500000000000000222 ) ) ;
#236 = ORIENTED_EDGE ( 'NONE', *, *, #272, .F. ) ;
#237 = AXIS2_PLACEMENT_3D ( 'NONE', #181, #48, #275 ) ;
#238 = CARTESIAN_POINT ( 'NONE',  ( 0.06250000000000000000, 7.654042494670956004E-18, 1.500000000000000222 ) ) ;
#239 = ORIENTED_EDGE ( 'NONE', *, *, #302, .T. ) ;
#240 = EDGE_LOOP ( 'NONE', ( #6, #247, #239, #83 ) ) ;
#241 = AXIS2_PLACEMENT_3D ( 'NONE', #100, #297, #23 ) ;
#242 = CARTESIAN_POINT ( 'NONE',  ( 0.007499999999999999722, 0.0000000000000000000, 1.707404996040164512E-17 ) ) ;
#243 = DIRECTION ( 'NONE',  ( -0.0000000000000000000, -0.0000000000000000000, -1.000000000000000000 ) ) ;
#244 = DIRECTION ( 'NONE',  ( -1.000000000000000000, 0.0000000000000000000, 0.0000000000000000000 ) ) ;
#245 = ORIENTED_EDGE ( 'NONE', *, *, #312, .F. ) ;
#246 = ADVANCED_FACE ( 'NONE', ( #211 ), #29, .T. ) ;
#247 = ORIENTED_EDGE ( 'NONE', *, *, #127, .F. ) ;
#248 = VECTOR ( 'NONE', #282, 39.37007874015748143 ) ;
#249 = DIRECTION ( 'NONE',  ( 0.0000000000000000000, 0.0000000000000000000, 1.000000000000000000 ) ) ;
#250 = CARTESIAN_POINT ( 'NONE',  ( 0.0000000000000000000, 0.0000000000000000000, 0.03172539729196974245 ) ) ;
#251 = DIRECTION ( 'NONE',  ( 1.000000000000000000, 0.0000000000000000000, 0.0000000000000000000 ) ) ;
#252 = AXIS2_PLACEMENT_3D ( 'NONE', #213, #191, #111 ) ;
#253 = DIRECTION ( 'NONE',  ( 1.000000000000000000, 0.0000000000000000000, 0.0000000000000000000 ) ) ;
#254 = CARTESIAN_POINT ( 'NONE',  ( 0.04750000000000064587, 5.817072295950006528E-18, 1.500000000000000222 ) ) ;
#255 = CARTESIAN_POINT ( 'NONE',  ( 0.0000000000000000000, 0.0000000000000000000, 0.0000000000000000000 ) ) ;
#256 = DIRECTION ( 'NONE',  ( -1.000000000000000000, 0.0000000000000000000, 0.0000000000000000000 ) ) ;
#257 = CONICAL_SURFACE ( 'NONE', #104, 0.007499999999999999722, 1.047197551196600740 ) ;
#258 = ADVANCED_FACE ( 'NONE', ( #32 ), #165, .T. ) ;
#259 = CARTESIAN_POINT ( 'NONE',  ( 0.0000000000000000000, 0.0000000000000000000, 1.500000000000000222 ) ) ;
#260 = DIRECTION ( 'NONE',  ( -1.000000000000000000, 0.0000000000000000000, 0.0000000000000000000 ) ) ;
#261 = VERTEX_POINT ( 'NONE', #233 ) ;
#262 = DIRECTION ( 'NONE',  ( -0.0000000000000000000, 0.0000000000000000000, -1.000000000000000000 ) ) ;
#263 = EDGE_LOOP ( 'NONE', ( #294, #215 ) ) ;
#264 = STYLED_ITEM ( 'NONE', ( #212 ), #197 ) ;
#265 = VERTEX_POINT ( 'NONE', #1 ) ;
#266 = DIRECTION ( 'NONE',  ( 0.0000000000000000000, 0.0000000000000000000, -1.000000000000000000 ) ) ;
#267 = CARTESIAN_POINT ( 'NONE',  ( 0.0000000000000000000, 0.0000000000000000000, 1.485000000000000764 ) ) ;
#268 = VERTEX_POINT ( 'NONE', #131 ) ;
#269 = CARTESIAN_POINT ( 'NONE',  ( 0.0000000000000000000, 0.0000000000000000000, 0.0000000000000000000 ) ) ;
#270 = PRODUCT_DEFINITION_SHAPE ( 'NONE', 'NONE',  #169 ) ;
#271 = ORIENTED_EDGE ( 'NONE', *, *, #157, .T. ) ;
#272 = EDGE_CURVE ( 'NONE', #195, #310, #234, .T. ) ;
#273 = AXIS2_PLACEMENT_3D ( 'NONE', #123, #321, #322 ) ;
#274 = STYLED_ITEM ( 'NONE', ( #60 ), #39 ) ;
#275 = DIRECTION ( 'NONE',  ( 1.000000000000000000, 0.0000000000000000000, 0.0000000000000000000 ) ) ;
#276 = CARTESIAN_POINT ( 'NONE',  ( 0.06250000000000000000, 7.654042494670956004E-18, 1.485000000000000764 ) ) ;
#277 = DIRECTION ( 'NONE',  ( -0.0000000000000000000, -0.0000000000000000000, -1.000000000000000000 ) ) ;
#278 = DIRECTION ( 'NONE',  ( 0.7071067811865456854, 8.659560562354911904E-17, -0.7071067811865493491 ) ) ;
#279 = CIRCLE ( 'NONE', #329, 0.007499999999999999722 ) ;
#280 = CARTESIAN_POINT ( 'NONE',  ( 0.06250000000000000000, 7.654042494670956004E-18, 0.5000000000000000000 ) ) ;
#281 = EDGE_CURVE ( 'NONE', #166, #200, #279, .T. ) ;
#282 = DIRECTION ( 'NONE',  ( -0.0000000000000000000, -0.0000000000000000000, -1.000000000000000000 ) ) ;
#283 = FACE_OUTER_BOUND ( 'NONE', #174, .T. ) ;
#284 = ORIENTED_EDGE ( 'NONE', *, *, #167, .T. ) ;
#285 = CARTESIAN_POINT ( 'NONE',  ( 0.0000000000000000000, 0.0000000000000000000, 1.500000000000000222 ) ) ;
#286 = ORIENTED_EDGE ( 'NONE', *, *, #281, .F. ) ;
#287 = ORIENTED_EDGE ( 'NONE', *, *, #8, .T. ) ;
#288 = VECTOR ( 'NONE', #115, 39.37007874015748143 ) ;
#289 =( GEOMETRIC_REPRESENTATION_CONTEXT ( 3 ) GLOBAL_UNCERTAINTY_ASSIGNED_CONTEXT ( ( #132 ) ) GLOBAL_UNIT_ASSIGNED_CONTEXT ( ( #161, #30, #328 ) ) REPRESENTATION_CONTEXT ( 'NONE', 'WORKASPACE' ) );
#290 = CARTESIAN_POINT ( 'NONE',  ( 0.0000000000000000000, 0.0000000000000000000, 0.0000000000000000000 ) ) ;
#291 = FILL_AREA_STYLE_COLOUR ( '', #87 ) ;
#292 =( LENGTH_UNIT ( ) NAMED_UNIT ( * ) SI_UNIT ( $, .METRE. ) );
#293 = AXIS2_PLACEMENT_3D ( 'NONE', #38, #90, #295 ) ;
#294 = ORIENTED_EDGE ( 'NONE', *, *, #194, .T. ) ;
#295 = DIRECTION ( 'NONE',  ( -1.000000000000000000, 0.0000000000000000000, 0.0000000000000000000 ) ) ;
#296 = CARTESIAN_POINT ( 'NONE',  ( 0.0000000000000000000, 0.0000000000000000000, 1.500000000000000222 ) ) ;
#297 = DIRECTION ( 'NONE',  ( -0.0000000000000000000, -0.0000000000000000000, -1.000000000000000000 ) ) ;
#298 = DIMENSIONAL_EXPONENTS ( 1.000000000000000000, 0.0000000000000000000, 0.0000000000000000000, 0.0000000000000000000, 0.0000000000000000000, 0.0000000000000000000, 0.0000000000000000000 ) ;
#299 = FACE_OUTER_BOUND ( 'NONE', #95, .T. ) ;
#300 = CYLINDRICAL_SURFACE ( 'NONE', #273, 0.06250000000000000000 ) ;
#301 = DIRECTION ( 'NONE',  ( -0.0000000000000000000, -0.0000000000000000000, -1.000000000000000000 ) ) ;
#302 = EDGE_CURVE ( 'NONE', #200, #265, #173, .T. ) ;
#303 =( GEOMETRIC_REPRESENTATION_CONTEXT ( 3 ) GLOBAL_UNCERTAINTY_ASSIGNED_CONTEXT ( ( #3 ) ) GLOBAL_UNIT_ASSIGNED_CONTEXT ( ( #196, #14, #89 ) ) REPRESENTATION_CONTEXT ( 'NONE', 'WORKASPACE' ) );
#304 = DIRECTION ( 'NONE',  ( -0.0000000000000000000, -0.0000000000000000000, -1.000000000000000000 ) ) ;
#305 = PRODUCT_RELATED_PRODUCT_CATEGORY ( 'part', '', ( #70 ) ) ;
#306 = DIRECTION ( 'NONE',  ( -0.7071067811865456854, 0.0000000000000000000, -0.7071067811865493491 ) ) ;
#307 = SURFACE_STYLE_USAGE ( .BOTH. , #2 ) ;
#308 = ORIENTED_EDGE ( 'NONE', *, *, #155, .T. ) ;
#309 = LINE ( 'NONE', #135, #201 ) ;
#310 = VERTEX_POINT ( 'NONE', #63 ) ;
#311 = APPLICATION_PROTOCOL_DEFINITION ( 'draft international standard', 'automotive_design', 1998, #98 ) ;
#312 = EDGE_CURVE ( 'NONE', #140, #80, #62, .T. ) ;
#313 = AXIS2_PLACEMENT_3D ( 'NONE', #250, #76, #207 ) ;
#314 = SURFACE_STYLE_USAGE ( .BOTH. , #168 ) ;
#315 = FILL_AREA_STYLE ('',( #291 ) ) ;
#316 = DIMENSIONAL_EXPONENTS ( 1.000000000000000000, 0.0000000000000000000, 0.0000000000000000000, 0.0000000000000000000, 0.0000000000000000000, 0.0000000000000000000, 0.0000000000000000000 ) ;
#317 = ORIENTED_EDGE ( 'NONE', *, *, #281, .T. ) ;
#318 = EDGE_CURVE ( 'NONE', #268, #195, #319, .T. ) ;
#319 = CIRCLE ( 'NONE', #293, 0.06245000000000007490 ) ;
#320 = VERTEX_POINT ( 'NONE', #113 ) ;
#321 = DIRECTION ( 'NONE',  ( -0.0000000000000000000, -0.0000000000000000000, -1.000000000000000000 ) ) ;
#322 = DIRECTION ( 'NONE',  ( -1.000000000000000000, 0.0000000000000000000, 0.0000000000000000000 ) ) ;
#323 = AXIS2_PLACEMENT_3D ( 'NONE', #51, #277, #69 ) ;
#324 = DIRECTION ( 'NONE',  ( 0.0000000000000000000, 0.0000000000000000000, 1.000000000000000000 ) ) ;
#325 = DIRECTION ( 'NONE',  ( 0.0000000000000000000, 0.0000000000000000000, -1.000000000000000000 ) ) ;
#326 = ADVANCED_FACE ( 'NONE', ( #199 ), #88, .T. ) ;
#327 = CARTESIAN_POINT ( 'NONE',  ( 0.0000000000000000000, 0.0000000000000000000, 0.5000000000000000000 ) ) ;
#328 =( NAMED_UNIT ( * ) SI_UNIT ( $, .STERADIAN. ) SOLID_ANGLE_UNIT ( ) );
#329 = AXIS2_PLACEMENT_3D ( 'NONE', #84, #170, #244 ) ;
ENDSEC;
END-ISO-10303-21;
