ISO-10303-21;
HEADER;
FILE_DESCRIPTION (( 'STEP AP214' ),
    '1' );
FILE_NAME ('84420.STEP',
    '2023-06-23T13:12:31',
    ( '' ),
    ( '' ),
    'SwSTEP 2.0',
    'SolidWorks 2023',
    '' );
FILE_SCHEMA (( 'AUTOMOTIVE_DESIGN' ));
ENDSEC;

DATA;
#1 = ORIENTED_EDGE ( 'NONE', *, *, #216, .T. ) ;
#2 = ORIENTED_EDGE ( 'NONE', *, *, #12, .T. ) ;
#3 = STYLED_ITEM ( 'NONE', ( #42 ), #233 ) ;
#4 = DIRECTION ( 'NONE',  ( -3.160378836509298460E-17, 1.000000000000000000, -0.000000000000000000 ) ) ;
#5 = DIRECTION ( 'NONE',  ( 0.000000000000000000, 0.000000000000000000, -1.000000000000000000 ) ) ;
#6 = CYLINDRICAL_SURFACE ( 'NONE', #145, 0.09375000000000001388 ) ;
#7 =( NAMED_UNIT ( * ) PLANE_ANGLE_UNIT ( ) SI_UNIT ( $, .RADIAN. ) );
#8 = CARTESIAN_POINT ( 'NONE',  ( 0.09374999999999997224, 2.500000000000000000, 1.148106374200644171E-17 ) ) ;
#9 = AXIS2_PLACEMENT_3D ( 'NONE', #237, #198, #121 ) ;
#10 = DIRECTION ( 'NONE',  ( -0.000000000000000000, -1.000000000000000000, -0.000000000000000000 ) ) ;
#11 =( NAMED_UNIT ( * ) SI_UNIT ( $, .STERADIAN. ) SOLID_ANGLE_UNIT ( ) );
#12 = EDGE_CURVE ( 'NONE', #148, #239, #306, .T. ) ;
#13 = AXIS2_PLACEMENT_3D ( 'NONE', #63, #136, #230 ) ;
#14 = AXIS2_PLACEMENT_3D ( 'NONE', #196, #284, #190 ) ;
#15 = SURFACE_STYLE_FILL_AREA ( #231 ) ;
#16 =( NAMED_UNIT ( * ) SI_UNIT ( $, .STERADIAN. ) SOLID_ANGLE_UNIT ( ) );
#17 = PRODUCT_DEFINITION_CONTEXT ( 'detailed design', #30, 'design' ) ;
#18 = DIRECTION ( 'NONE',  ( 0.000000000000000000, 0.000000000000000000, -1.000000000000000000 ) ) ;
#19 = EDGE_LOOP ( 'NONE', ( #1, #45 ) ) ;
#20 = CARTESIAN_POINT ( 'NONE',  ( -0.09375000000000013878, 2.500000000000000000, 0.000000000000000000 ) ) ;
#21 = ORIENTED_EDGE ( 'NONE', *, *, #227, .F. ) ;
#22 = CARTESIAN_POINT ( 'NONE',  ( 0.000000000000000000, 0.5625000000000000000, -0.09375000000000001388 ) ) ;
#23 = ORIENTED_EDGE ( 'NONE', *, *, #188, .T. ) ;
#24 = ADVANCED_FACE ( 'NONE', ( #95 ), #123, .F. ) ;
#25 = AXIS2_PLACEMENT_3D ( 'NONE', #128, #175, #274 ) ;
#26 = SURFACE_SIDE_STYLE ('',( #169 ) ) ;
#27 = ORIENTED_EDGE ( 'NONE', *, *, #69, .T. ) ;
#28 = ORIENTED_EDGE ( 'NONE', *, *, #185, .F. ) ;
#29 = LINE ( 'NONE', #226, #116 ) ;
#30 = APPLICATION_CONTEXT ( 'automotive_design' ) ;
#31 = COLOUR_RGB ( '',1.000000000000000000, 0.000000000000000000, 0.000000000000000000 ) ;
#32 = SURFACE_STYLE_FILL_AREA ( #151 ) ;
#33 = AXIS2_PLACEMENT_3D ( 'NONE', #221, #201, #225 ) ;
#34 = FILL_AREA_STYLE ('',( #155 ) ) ;
#35 = PRESENTATION_LAYER_ASSIGNMENT (  '', '', ( #68 ) ) ;
#36 = CYLINDRICAL_SURFACE ( 'NONE', #14, 0.09375000000000001388 ) ;
#37 = PRODUCT_DEFINITION ( 'UNKNOWN', '', #138, #17 ) ;
#38 = DIRECTION ( 'NONE',  ( -0.000000000000000000, -1.000000000000000000, -0.000000000000000000 ) ) ;
#39 = ADVANCED_FACE ( 'NONE', ( #73 ), #94, .F. ) ;
#40 = CARTESIAN_POINT ( 'NONE',  ( 0.000000000000000000, 0.000000000000000000, 0.000000000000000000 ) ) ;
#41 = STYLED_ITEM ( 'NONE', ( #276 ), #182 ) ;
#42 = PRESENTATION_STYLE_ASSIGNMENT (( #161 ) ) ;
#43 = UNCERTAINTY_MEASURE_WITH_UNIT (LENGTH_MEASURE( 1.000000000000000082E-05 ), #92, 'distance_accuracy_value', 'NONE');
#44 =( LENGTH_UNIT ( ) NAMED_UNIT ( * ) SI_UNIT ( $, .METRE. ) );
#45 = ORIENTED_EDGE ( 'NONE', *, *, #227, .T. ) ;
#46 = MECHANICAL_DESIGN_GEOMETRIC_PRESENTATION_REPRESENTATION (  '', ( #3 ), #166 ) ;
#47 =( NAMED_UNIT ( * ) PLANE_ANGLE_UNIT ( ) SI_UNIT ( $, .RADIAN. ) );
#48 = VERTEX_POINT ( 'NONE', #54 ) ;
#49 = CARTESIAN_POINT ( 'NONE',  ( -6.123233995736766036E-17, 2.500000000000000000, 0.000000000000000000 ) ) ;
#50 = ADVANCED_FACE ( 'NONE', ( #264 ), #217, .T. ) ;
#51 = VERTEX_POINT ( 'NONE', #132 ) ;
#52 = CIRCLE ( 'NONE', #307, 0.09375000000000006939 ) ;
#53 = PRESENTATION_STYLE_ASSIGNMENT (( #268 ) ) ;
#54 = CARTESIAN_POINT ( 'NONE',  ( 0.000000000000000000, 0.000000000000000000, -0.09375000000000001388 ) ) ;
#55 = CARTESIAN_POINT ( 'NONE',  ( -6.123233995736766036E-17, 2.500000000000000000, 0.000000000000000000 ) ) ;
#56 = FILL_AREA_STYLE_COLOUR ( '', #172 ) ;
#57 = MECHANICAL_DESIGN_GEOMETRIC_PRESENTATION_REPRESENTATION (  '', ( #108 ), #251 ) ;
#58 = LENGTH_MEASURE_WITH_UNIT ( LENGTH_MEASURE( 0.02539999999999999897 ), #207 );
#59 = UNCERTAINTY_MEASURE_WITH_UNIT (LENGTH_MEASURE( 1.000000000000000082E-05 ), #67, 'distance_accuracy_value', 'NONE');
#60 = PLANE ( 'NONE',  #213 ) ;
#61 = AXIS2_PLACEMENT_3D ( 'NONE', #202, #10, #5 ) ;
#62 = DIRECTION ( 'NONE',  ( -0.000000000000000000, -1.000000000000000000, -0.000000000000000000 ) ) ;
#63 = CARTESIAN_POINT ( 'NONE',  ( 0.000000000000000000, 0.5625000000000001110, 0.000000000000000000 ) ) ;
#64 = SURFACE_SIDE_STYLE ('',( #282 ) ) ;
#65 = STYLED_ITEM ( 'NONE', ( #84 ), #131 ) ;
#66 = CYLINDRICAL_SURFACE ( 'NONE', #187, 0.09375000000000004163 ) ;
#67 =( CONVERSION_BASED_UNIT ( 'INCH', #303 ) LENGTH_UNIT ( ) NAMED_UNIT ( #86 ) );
#68 = STYLED_ITEM ( 'NONE', ( #53 ), #273 ) ;
#69 = EDGE_CURVE ( 'NONE', #267, #127, #270, .T. ) ;
#70 = FILL_AREA_STYLE_COLOUR ( '', #31 ) ;
#71 = DIRECTION ( 'NONE',  ( -3.160378836509298460E-17, 1.000000000000000000, -0.000000000000000000 ) ) ;
#72 = FILL_AREA_STYLE ('',( #167 ) ) ;
#73 = FACE_OUTER_BOUND ( 'NONE', #287, .T. ) ;
#74 = FILL_AREA_STYLE ('',( #70 ) ) ;
#75 = EDGE_LOOP ( 'NONE', ( #309, #288 ) ) ;
#76 = CIRCLE ( 'NONE', #103, 0.09375000000000001388 ) ;
#77 =( NAMED_UNIT ( * ) PLANE_ANGLE_UNIT ( ) SI_UNIT ( $, .RADIAN. ) );
#78 =( NAMED_UNIT ( * ) SI_UNIT ( $, .STERADIAN. ) SOLID_ANGLE_UNIT ( ) );
#79 = DIMENSIONAL_EXPONENTS ( 1.000000000000000000, 0.000000000000000000, 0.000000000000000000, 0.000000000000000000, 0.000000000000000000, 0.000000000000000000, 0.000000000000000000 ) ;
#80 =( LENGTH_UNIT ( ) NAMED_UNIT ( * ) SI_UNIT ( $, .METRE. ) );
#81 = LINE ( 'NONE', #8, #228 ) ;
#82 = CLOSED_SHELL ( 'NONE', ( #182, #277, #273, #200 ) ) ;
#83 = MECHANICAL_DESIGN_GEOMETRIC_PRESENTATION_REPRESENTATION (  '', ( #41 ), #283 ) ;
#84 = PRESENTATION_STYLE_ASSIGNMENT (( #223 ) ) ;
#85 = PRODUCT_DEFINITION_SHAPE ( 'NONE', 'NONE',  #37 ) ;
#86 = DIMENSIONAL_EXPONENTS ( 1.000000000000000000, 0.000000000000000000, 0.000000000000000000, 0.000000000000000000, 0.000000000000000000, 0.000000000000000000, 0.000000000000000000 ) ;
#87 = DIRECTION ( 'NONE',  ( -0.000000000000000000, -1.000000000000000000, -0.000000000000000000 ) ) ;
#88 = PRESENTATION_STYLE_ASSIGNMENT (( #300 ) ) ;
#89 = UNCERTAINTY_MEASURE_WITH_UNIT (LENGTH_MEASURE( 1.000000000000000082E-05 ), #147, 'distance_accuracy_value', 'NONE');
#90 = FILL_AREA_STYLE_COLOUR ( '', #141 ) ;
#91 = VECTOR ( 'NONE', #215, 39.37007874015748143 ) ;
#92 =( CONVERSION_BASED_UNIT ( 'INCH', #265 ) LENGTH_UNIT ( ) NAMED_UNIT ( #109 ) );
#93 =( NAMED_UNIT ( * ) SI_UNIT ( $, .STERADIAN. ) SOLID_ANGLE_UNIT ( ) );
#94 = PLANE ( 'NONE',  #97 ) ;
#95 = FACE_OUTER_BOUND ( 'NONE', #164, .T. ) ;
#96 = ADVANCED_BREP_SHAPE_REPRESENTATION ( '84420', ( #233, #131, #189 ), #124 ) ;
#97 = AXIS2_PLACEMENT_3D ( 'NONE', #165, #193, #242 ) ;
#98 = LENGTH_MEASURE_WITH_UNIT ( LENGTH_MEASURE( 0.02539999999999999897 ), #263 );
#99 = PRODUCT_RELATED_PRODUCT_CATEGORY ( 'part', '', ( #114 ) ) ;
#100 = SURFACE_STYLE_FILL_AREA ( #74 ) ;
#101 = EDGE_LOOP ( 'NONE', ( #218, #220, #140, #290 ) ) ;
#102 =( CONVERSION_BASED_UNIT ( 'INCH', #179 ) LENGTH_UNIT ( ) NAMED_UNIT ( #248 ) );
#103 = AXIS2_PLACEMENT_3D ( 'NONE', #40, #62, #186 ) ;
#104 = SURFACE_SIDE_STYLE ('',( #229 ) ) ;
#105 = EDGE_CURVE ( 'NONE', #148, #222, #194, .T. ) ;
#106 = DIRECTION ( 'NONE',  ( 1.000000000000000000, 0.000000000000000000, 0.000000000000000000 ) ) ;
#107 = DIRECTION ( 'NONE',  ( -1.000000000000000000, 0.000000000000000000, 0.000000000000000000 ) ) ;
#108 = STYLED_ITEM ( 'NONE', ( #88 ), #200 ) ;
#109 = DIMENSIONAL_EXPONENTS ( 1.000000000000000000, 0.000000000000000000, 0.000000000000000000, 0.000000000000000000, 0.000000000000000000, 0.000000000000000000, 0.000000000000000000 ) ;
#110 = UNCERTAINTY_MEASURE_WITH_UNIT (LENGTH_MEASURE( 1.000000000000000082E-05 ), #111, 'distance_accuracy_value', 'NONE');
#111 =( CONVERSION_BASED_UNIT ( 'INCH', #260 ) LENGTH_UNIT ( ) NAMED_UNIT ( #210 ) );
#112 = COLOUR_RGB ( '',1.000000000000000000, 0.000000000000000000, 0.000000000000000000 ) ;
#113 = CARTESIAN_POINT ( 'NONE',  ( 0.000000000000000000, 0.000000000000000000, 0.000000000000000000 ) ) ;
#114 = PRODUCT ( '84420', '84420', '', ( #289 ) ) ;
#115 = DIRECTION ( 'NONE',  ( -1.000000000000000000, 0.000000000000000000, 0.000000000000000000 ) ) ;
#116 = VECTOR ( 'NONE', #87, 39.37007874015748143 ) ;
#117 = CLOSED_SHELL ( 'NONE', ( #50, #24, #192, #39 ) ) ;
#118 = UNCERTAINTY_MEASURE_WITH_UNIT (LENGTH_MEASURE( 1.000000000000000082E-05 ), #204, 'distance_accuracy_value', 'NONE');
#119 = COLOUR_RGB ( '',1.000000000000000000, 0.000000000000000000, 0.000000000000000000 ) ;
#120 = ORIENTED_EDGE ( 'NONE', *, *, #153, .F. ) ;
#121 = DIRECTION ( 'NONE',  ( -1.000000000000000000, -3.160378836509298460E-17, 0.000000000000000000 ) ) ;
#122 = FACE_OUTER_BOUND ( 'NONE', #241, .T. ) ;
#123 = PLANE ( 'NONE',  #9 ) ;
#124 =( GEOMETRIC_REPRESENTATION_CONTEXT ( 3 ) GLOBAL_UNCERTAINTY_ASSIGNED_CONTEXT ( ( #208 ) ) GLOBAL_UNIT_ASSIGNED_CONTEXT ( ( #102, #7, #271 ) ) REPRESENTATION_CONTEXT ( 'NONE', 'WORKASPACE' ) );
#125 =( NAMED_UNIT ( * ) PLANE_ANGLE_UNIT ( ) SI_UNIT ( $, .RADIAN. ) );
#126 = ORIENTED_EDGE ( 'NONE', *, *, #135, .T. ) ;
#127 = VERTEX_POINT ( 'NONE', #249 ) ;
#128 = CARTESIAN_POINT ( 'NONE',  ( -6.123233995736766036E-17, 2.500000000000000000, 0.000000000000000000 ) ) ;
#129 = CARTESIAN_POINT ( 'NONE',  ( 0.000000000000000000, 0.5625000000000001110, 0.000000000000000000 ) ) ;
#130 =( LENGTH_UNIT ( ) NAMED_UNIT ( * ) SI_UNIT ( $, .METRE. ) );
#131 = MANIFOLD_SOLID_BREP ( 'Revolve - Tool Body (Straight Shanked)', #117 ) ;
#132 = CARTESIAN_POINT ( 'NONE',  ( 0.09375000000000001388, 2.500000000000000000, 1.148106374200644325E-17 ) ) ;
#133 = FILL_AREA_STYLE_COLOUR ( '', #112 ) ;
#134 = DIMENSIONAL_EXPONENTS ( 1.000000000000000000, 0.000000000000000000, 0.000000000000000000, 0.000000000000000000, 0.000000000000000000, 0.000000000000000000, 0.000000000000000000 ) ;
#135 = EDGE_CURVE ( 'NONE', #51, #239, #52, .T. ) ;
#136 = DIRECTION ( 'NONE',  ( -3.160378836509298460E-17, 1.000000000000000000, -0.000000000000000000 ) ) ;
#137 = AXIS2_PLACEMENT_3D ( 'NONE', #129, #4, #278 ) ;
#138 = PRODUCT_DEFINITION_FORMATION_WITH_SPECIFIED_SOURCE ( 'ANY', '', #114, .NOT_KNOWN. ) ;
#139 = CARTESIAN_POINT ( 'NONE',  ( 1.148106374200643863E-17, 0.000000000000000000, 0.09375000000000001388 ) ) ;
#140 = ORIENTED_EDGE ( 'NONE', *, *, #159, .F. ) ;
#141 = COLOUR_RGB ( '',0.7921568627450980005, 0.8196078431372548767, 0.9333333333333333481 ) ;
#142 = EDGE_LOOP ( 'NONE', ( #27, #199, #170, #120 ) ) ;
#143 = VERTEX_POINT ( 'NONE', #149 ) ;
#144 = ORIENTED_EDGE ( 'NONE', *, *, #195, .F. ) ;
#145 = AXIS2_PLACEMENT_3D ( 'NONE', #113, #158, #18 ) ;
#146 = STYLED_ITEM ( 'NONE', ( #266 ), #277 ) ;
#147 =( CONVERSION_BASED_UNIT ( 'INCH', #98 ) LENGTH_UNIT ( ) NAMED_UNIT ( #79 ) );
#148 = VERTEX_POINT ( 'NONE', #173 ) ;
#149 = CARTESIAN_POINT ( 'NONE',  ( 1.148106374200643863E-17, 0.000000000000000000, 0.09375000000000001388 ) ) ;
#150 = EDGE_CURVE ( 'NONE', #222, #51, #81, .T. ) ;
#151 = FILL_AREA_STYLE ('',( #56 ) ) ;
#152 = PRESENTATION_LAYER_ASSIGNMENT (  '', '', ( #108 ) ) ;
#153 = EDGE_CURVE ( 'NONE', #267, #48, #29, .T. ) ;
#154 = LENGTH_MEASURE_WITH_UNIT ( LENGTH_MEASURE( 0.02539999999999999897 ), #130 );
#155 = FILL_AREA_STYLE_COLOUR ( '', #205 ) ;
#156 = PRESENTATION_LAYER_ASSIGNMENT (  '', '', ( #41 ) ) ;
#157 = DIRECTION ( 'NONE',  ( 0.000000000000000000, 0.000000000000000000, -1.000000000000000000 ) ) ;
#158 = DIRECTION ( 'NONE',  ( -0.000000000000000000, -1.000000000000000000, -0.000000000000000000 ) ) ;
#159 = EDGE_CURVE ( 'NONE', #239, #51, #257, .T. ) ;
#160 = LINE ( 'NONE', #139, #298 ) ;
#161 = SURFACE_STYLE_USAGE ( .BOTH. , #64 ) ;
#162 = AXIS2_PLACEMENT_3D ( 'NONE', #279, #38, #211 ) ;
#163 = FACE_OUTER_BOUND ( 'NONE', #75, .T. ) ;
#164 = EDGE_LOOP ( 'NONE', ( #191, #28 ) ) ;
#165 = CARTESIAN_POINT ( 'NONE',  ( 0.09375000000000001388, 2.500000000000000000, 0.000000000000000000 ) ) ;
#166 =( GEOMETRIC_REPRESENTATION_CONTEXT ( 3 ) GLOBAL_UNCERTAINTY_ASSIGNED_CONTEXT ( ( #43 ) ) GLOBAL_UNIT_ASSIGNED_CONTEXT ( ( #92, #240, #93 ) ) REPRESENTATION_CONTEXT ( 'NONE', 'WORKASPACE' ) );
#167 = FILL_AREA_STYLE_COLOUR ( '', #119 ) ;
#168 = ORIENTED_EDGE ( 'NONE', *, *, #135, .F. ) ;
#169 = SURFACE_STYLE_FILL_AREA ( #72 ) ;
#170 = ORIENTED_EDGE ( 'NONE', *, *, #216, .F. ) ;
#171 = ORIENTED_EDGE ( 'NONE', *, *, #150, .F. ) ;
#172 = COLOUR_RGB ( '',1.000000000000000000, 0.000000000000000000, 0.000000000000000000 ) ;
#173 = CARTESIAN_POINT ( 'NONE',  ( -0.09375000000000001388, 0.5625000000000001110, 0.000000000000000000 ) ) ;
#174 = APPLICATION_PROTOCOL_DEFINITION ( 'draft international standard', 'automotive_design', 1998, #238 ) ;
#175 = DIRECTION ( 'NONE',  ( -3.160378836509298460E-17, 1.000000000000000000, -0.000000000000000000 ) ) ;
#176 = AXIS2_PLACEMENT_3D ( 'NONE', #49, #71, #107 ) ;
#177 = APPLICATION_PROTOCOL_DEFINITION ( 'draft international standard', 'automotive_design', 1998, #30 ) ;
#178 = SURFACE_STYLE_USAGE ( .BOTH. , #224 ) ;
#179 = LENGTH_MEASURE_WITH_UNIT ( LENGTH_MEASURE( 0.02539999999999999897 ), #80 );
#180 =( NAMED_UNIT ( * ) PLANE_ANGLE_UNIT ( ) SI_UNIT ( $, .RADIAN. ) );
#181 = PRESENTATION_LAYER_ASSIGNMENT (  '', '', ( #3 ) ) ;
#182 = ADVANCED_FACE ( 'NONE', ( #272 ), #6, .T. ) ;
#183 = DIMENSIONAL_EXPONENTS ( 1.000000000000000000, 0.000000000000000000, 0.000000000000000000, 0.000000000000000000, 0.000000000000000000, 0.000000000000000000, 0.000000000000000000 ) ;
#184 = FILL_AREA_STYLE ('',( #90 ) ) ;
#185 = EDGE_CURVE ( 'NONE', #222, #148, #236, .T. ) ;
#186 = DIRECTION ( 'NONE',  ( 0.000000000000000000, 0.000000000000000000, -1.000000000000000000 ) ) ;
#187 = AXIS2_PLACEMENT_3D ( 'NONE', #212, #255, #115 ) ;
#188 = EDGE_CURVE ( 'NONE', #127, #267, #293, .T. ) ;
#189 = AXIS2_PLACEMENT_3D ( 'NONE', #203, #246, #106 ) ;
#190 = DIRECTION ( 'NONE',  ( 0.000000000000000000, 0.000000000000000000, -1.000000000000000000 ) ) ;
#191 = ORIENTED_EDGE ( 'NONE', *, *, #105, .F. ) ;
#192 = ADVANCED_FACE ( 'NONE', ( #209 ), #66, .T. ) ;
#193 = DIRECTION ( 'NONE',  ( 3.160378836509298460E-17, -1.000000000000000000, 0.000000000000000000 ) ) ;
#194 = CIRCLE ( 'NONE', #137, 0.09375000000000001388 ) ;
#195 = EDGE_CURVE ( 'NONE', #127, #143, #160, .T. ) ;
#196 = CARTESIAN_POINT ( 'NONE',  ( 0.000000000000000000, 0.000000000000000000, 0.000000000000000000 ) ) ;
#197 = ORIENTED_EDGE ( 'NONE', *, *, #185, .T. ) ;
#198 = DIRECTION ( 'NONE',  ( -3.160378836509298460E-17, 1.000000000000000000, 0.000000000000000000 ) ) ;
#199 = ORIENTED_EDGE ( 'NONE', *, *, #195, .T. ) ;
#200 = ADVANCED_FACE ( 'NONE', ( #259 ), #60, .T. ) ;
#201 = DIRECTION ( 'NONE',  ( 0.000000000000000000, 1.000000000000000000, 0.000000000000000000 ) ) ;
#202 = CARTESIAN_POINT ( 'NONE',  ( 0.000000000000000000, 0.5625000000000000000, 0.000000000000000000 ) ) ;
#203 = CARTESIAN_POINT ( 'NONE',  ( 0.000000000000000000, 0.000000000000000000, 0.000000000000000000 ) ) ;
#204 =( CONVERSION_BASED_UNIT ( 'INCH', #58 ) LENGTH_UNIT ( ) NAMED_UNIT ( #134 ) );
#205 = COLOUR_RGB ( '',0.7921568627450980005, 0.8196078431372548767, 0.9333333333333333481 ) ;
#206 =( NAMED_UNIT ( * ) PLANE_ANGLE_UNIT ( ) SI_UNIT ( $, .RADIAN. ) );
#207 =( LENGTH_UNIT ( ) NAMED_UNIT ( * ) SI_UNIT ( $, .METRE. ) );
#208 = UNCERTAINTY_MEASURE_WITH_UNIT (LENGTH_MEASURE( 1.000000000000000082E-05 ), #102, 'distance_accuracy_value', 'NONE');
#209 = FACE_OUTER_BOUND ( 'NONE', #285, .T. ) ;
#210 = DIMENSIONAL_EXPONENTS ( 1.000000000000000000, 0.000000000000000000, 0.000000000000000000, 0.000000000000000000, 0.000000000000000000, 0.000000000000000000, 0.000000000000000000 ) ;
#211 = DIRECTION ( 'NONE',  ( 0.000000000000000000, 0.000000000000000000, -1.000000000000000000 ) ) ;
#212 = CARTESIAN_POINT ( 'NONE',  ( -6.123233995736766036E-17, 2.500000000000000000, 0.000000000000000000 ) ) ;
#213 = AXIS2_PLACEMENT_3D ( 'NONE', #281, #256, #157 ) ;
#214 =( LENGTH_UNIT ( ) NAMED_UNIT ( * ) SI_UNIT ( $, .METRE. ) );
#215 = DIRECTION ( 'NONE',  ( -3.160378836509298460E-17, 1.000000000000000000, -0.000000000000000000 ) ) ;
#216 = EDGE_CURVE ( 'NONE', #48, #143, #76, .T. ) ;
#217 = CYLINDRICAL_SURFACE ( 'NONE', #176, 0.09375000000000004163 ) ;
#218 = ORIENTED_EDGE ( 'NONE', *, *, #105, .T. ) ;
#219 = PRESENTATION_LAYER_ASSIGNMENT (  '', '', ( #65 ) ) ;
#220 = ORIENTED_EDGE ( 'NONE', *, *, #150, .T. ) ;
#221 = CARTESIAN_POINT ( 'NONE',  ( 0.000000000000000000, 0.5625000000000000000, 0.000000000000000000 ) ) ;
#222 = VERTEX_POINT ( 'NONE', #232 ) ;
#223 = SURFACE_STYLE_USAGE ( .BOTH. , #104 ) ;
#224 = SURFACE_SIDE_STYLE ('',( #32 ) ) ;
#225 = DIRECTION ( 'NONE',  ( 0.000000000000000000, -0.000000000000000000, 1.000000000000000000 ) ) ;
#226 = CARTESIAN_POINT ( 'NONE',  ( 0.000000000000000000, 0.000000000000000000, -0.09375000000000001388 ) ) ;
#227 = EDGE_CURVE ( 'NONE', #143, #48, #262, .T. ) ;
#228 = VECTOR ( 'NONE', #292, 39.37007874015748143 ) ;
#229 = SURFACE_STYLE_FILL_AREA ( #34 ) ;
#230 = DIRECTION ( 'NONE',  ( -1.000000000000000000, 0.000000000000000000, 0.000000000000000000 ) ) ;
#231 = FILL_AREA_STYLE ('',( #133 ) ) ;
#232 = CARTESIAN_POINT ( 'NONE',  ( 0.09375000000000001388, 0.5625000000000001110, 1.148106374200644325E-17 ) ) ;
#233 = MANIFOLD_SOLID_BREP ( 'Revolve - Cutting Edge', #82 ) ;
#234 = DIRECTION ( 'NONE',  ( -0.000000000000000000, -1.000000000000000000, -0.000000000000000000 ) ) ;
#235 = DIRECTION ( 'NONE',  ( 0.000000000000000000, 0.000000000000000000, -1.000000000000000000 ) ) ;
#236 = CIRCLE ( 'NONE', #13, 0.09375000000000001388 ) ;
#237 = CARTESIAN_POINT ( 'NONE',  ( 4.681872370432437776E-35, 0.5625000000000000000, 0.000000000000000000 ) ) ;
#238 = APPLICATION_CONTEXT ( 'automotive_design' ) ;
#239 = VERTEX_POINT ( 'NONE', #20 ) ;
#240 =( NAMED_UNIT ( * ) PLANE_ANGLE_UNIT ( ) SI_UNIT ( $, .RADIAN. ) );
#241 = EDGE_LOOP ( 'NONE', ( #144, #23, #244, #21 ) ) ;
#242 = DIRECTION ( 'NONE',  ( 1.000000000000000000, 3.160378836509298460E-17, 0.000000000000000000 ) ) ;
#243 = MECHANICAL_DESIGN_GEOMETRIC_PRESENTATION_REPRESENTATION (  '', ( #68 ), #258 ) ;
#244 = ORIENTED_EDGE ( 'NONE', *, *, #153, .T. ) ;
#245 = DIRECTION ( 'NONE',  ( -1.000000000000000000, 0.000000000000000000, 0.000000000000000000 ) ) ;
#246 = DIRECTION ( 'NONE',  ( 0.000000000000000000, 0.000000000000000000, 1.000000000000000000 ) ) ;
#247 = DIRECTION ( 'NONE',  ( -3.160378836509298460E-17, 1.000000000000000000, -0.000000000000000000 ) ) ;
#248 = DIMENSIONAL_EXPONENTS ( 1.000000000000000000, 0.000000000000000000, 0.000000000000000000, 0.000000000000000000, 0.000000000000000000, 0.000000000000000000, 0.000000000000000000 ) ;
#249 = CARTESIAN_POINT ( 'NONE',  ( 1.148106374200643863E-17, 0.5625000000000000000, 0.09375000000000001388 ) ) ;
#250 =( CONVERSION_BASED_UNIT ( 'INCH', #154 ) LENGTH_UNIT ( ) NAMED_UNIT ( #183 ) );
#251 =( GEOMETRIC_REPRESENTATION_CONTEXT ( 3 ) GLOBAL_UNCERTAINTY_ASSIGNED_CONTEXT ( ( #110 ) ) GLOBAL_UNIT_ASSIGNED_CONTEXT ( ( #111, #180, #11 ) ) REPRESENTATION_CONTEXT ( 'NONE', 'WORKASPACE' ) );
#252 =( GEOMETRIC_REPRESENTATION_CONTEXT ( 3 ) GLOBAL_UNCERTAINTY_ASSIGNED_CONTEXT ( ( #118 ) ) GLOBAL_UNIT_ASSIGNED_CONTEXT ( ( #204, #77, #78 ) ) REPRESENTATION_CONTEXT ( 'NONE', 'WORKASPACE' ) );
#253 = MECHANICAL_DESIGN_GEOMETRIC_PRESENTATION_REPRESENTATION (  '', ( #146 ), #294 ) ;
#254 = CARTESIAN_POINT ( 'NONE',  ( 0.000000000000000000, 0.000000000000000000, 0.000000000000000000 ) ) ;
#255 = DIRECTION ( 'NONE',  ( -3.160378836509298460E-17, 1.000000000000000000, -0.000000000000000000 ) ) ;
#256 = DIRECTION ( 'NONE',  ( 0.000000000000000000, -1.000000000000000000, -0.000000000000000000 ) ) ;
#257 = CIRCLE ( 'NONE', #25, 0.09375000000000006939 ) ;
#258 =( GEOMETRIC_REPRESENTATION_CONTEXT ( 3 ) GLOBAL_UNCERTAINTY_ASSIGNED_CONTEXT ( ( #89 ) ) GLOBAL_UNIT_ASSIGNED_CONTEXT ( ( #147, #125, #301 ) ) REPRESENTATION_CONTEXT ( 'NONE', 'WORKASPACE' ) );
#259 = FACE_OUTER_BOUND ( 'NONE', #19, .T. ) ;
#260 = LENGTH_MEASURE_WITH_UNIT ( LENGTH_MEASURE( 0.02539999999999999897 ), #297 );
#261 = SURFACE_STYLE_USAGE ( .BOTH. , #26 ) ;
#262 = CIRCLE ( 'NONE', #280, 0.09375000000000001388 ) ;
#263 =( LENGTH_UNIT ( ) NAMED_UNIT ( * ) SI_UNIT ( $, .METRE. ) );
#264 = FACE_OUTER_BOUND ( 'NONE', #101, .T. ) ;
#265 = LENGTH_MEASURE_WITH_UNIT ( LENGTH_MEASURE( 0.02539999999999999897 ), #44 );
#266 = PRESENTATION_STYLE_ASSIGNMENT (( #261 ) ) ;
#267 = VERTEX_POINT ( 'NONE', #22 ) ;
#268 = SURFACE_STYLE_USAGE ( .BOTH. , #308 ) ;
#269 = CARTESIAN_POINT ( 'NONE',  ( -0.09375000000000011102, 2.500000000000000000, 0.000000000000000000 ) ) ;
#270 = CIRCLE ( 'NONE', #61, 0.09375000000000001388 ) ;
#271 =( NAMED_UNIT ( * ) SI_UNIT ( $, .STERADIAN. ) SOLID_ANGLE_UNIT ( ) );
#272 = FACE_OUTER_BOUND ( 'NONE', #142, .T. ) ;
#273 = ADVANCED_FACE ( 'NONE', ( #122 ), #36, .T. ) ;
#274 = DIRECTION ( 'NONE',  ( -1.000000000000000000, 0.000000000000000000, 0.000000000000000000 ) ) ;
#275 = MECHANICAL_DESIGN_GEOMETRIC_PRESENTATION_REPRESENTATION (  '', ( #65 ), #252 ) ;
#276 = PRESENTATION_STYLE_ASSIGNMENT (( #178 ) ) ;
#277 = ADVANCED_FACE ( 'NONE', ( #163 ), #286, .T. ) ;
#278 = DIRECTION ( 'NONE',  ( -1.000000000000000000, 0.000000000000000000, 0.000000000000000000 ) ) ;
#279 = CARTESIAN_POINT ( 'NONE',  ( 0.000000000000000000, 0.5625000000000000000, 0.000000000000000000 ) ) ;
#280 = AXIS2_PLACEMENT_3D ( 'NONE', #254, #234, #235 ) ;
#281 = CARTESIAN_POINT ( 'NONE',  ( 0.000000000000000000, 0.000000000000000000, 0.000000000000000000 ) ) ;
#282 = SURFACE_STYLE_FILL_AREA ( #184 ) ;
#283 =( GEOMETRIC_REPRESENTATION_CONTEXT ( 3 ) GLOBAL_UNCERTAINTY_ASSIGNED_CONTEXT ( ( #302 ) ) GLOBAL_UNIT_ASSIGNED_CONTEXT ( ( #250, #206, #16 ) ) REPRESENTATION_CONTEXT ( 'NONE', 'WORKASPACE' ) );
#284 = DIRECTION ( 'NONE',  ( -0.000000000000000000, -1.000000000000000000, -0.000000000000000000 ) ) ;
#285 = EDGE_LOOP ( 'NONE', ( #171, #197, #2, #168 ) ) ;
#286 = PLANE ( 'NONE',  #33 ) ;
#287 = EDGE_LOOP ( 'NONE', ( #304, #126 ) ) ;
#288 = ORIENTED_EDGE ( 'NONE', *, *, #188, .F. ) ;
#289 = PRODUCT_CONTEXT ( 'NONE', #238, 'mechanical' ) ;
#290 = ORIENTED_EDGE ( 'NONE', *, *, #12, .F. ) ;
#291 = PRESENTATION_LAYER_ASSIGNMENT (  '', '', ( #146 ) ) ;
#292 = DIRECTION ( 'NONE',  ( -3.160378836509298460E-17, 1.000000000000000000, -0.000000000000000000 ) ) ;
#293 = CIRCLE ( 'NONE', #162, 0.09375000000000001388 ) ;
#294 =( GEOMETRIC_REPRESENTATION_CONTEXT ( 3 ) GLOBAL_UNCERTAINTY_ASSIGNED_CONTEXT ( ( #59 ) ) GLOBAL_UNIT_ASSIGNED_CONTEXT ( ( #67, #47, #305 ) ) REPRESENTATION_CONTEXT ( 'NONE', 'WORKASPACE' ) );
#295 = SHAPE_DEFINITION_REPRESENTATION ( #85, #96 ) ;
#296 = DIRECTION ( 'NONE',  ( -0.000000000000000000, -1.000000000000000000, -0.000000000000000000 ) ) ;
#297 =( LENGTH_UNIT ( ) NAMED_UNIT ( * ) SI_UNIT ( $, .METRE. ) );
#298 = VECTOR ( 'NONE', #296, 39.37007874015748143 ) ;
#299 = SURFACE_SIDE_STYLE ('',( #15 ) ) ;
#300 = SURFACE_STYLE_USAGE ( .BOTH. , #299 ) ;
#301 =( NAMED_UNIT ( * ) SI_UNIT ( $, .STERADIAN. ) SOLID_ANGLE_UNIT ( ) );
#302 = UNCERTAINTY_MEASURE_WITH_UNIT (LENGTH_MEASURE( 1.000000000000000082E-05 ), #250, 'distance_accuracy_value', 'NONE');
#303 = LENGTH_MEASURE_WITH_UNIT ( LENGTH_MEASURE( 0.02539999999999999897 ), #214 );
#304 = ORIENTED_EDGE ( 'NONE', *, *, #159, .T. ) ;
#305 =( NAMED_UNIT ( * ) SI_UNIT ( $, .STERADIAN. ) SOLID_ANGLE_UNIT ( ) );
#306 = LINE ( 'NONE', #269, #91 ) ;
#307 = AXIS2_PLACEMENT_3D ( 'NONE', #55, #247, #245 ) ;
#308 = SURFACE_SIDE_STYLE ('',( #100 ) ) ;
#309 = ORIENTED_EDGE ( 'NONE', *, *, #69, .F. ) ;
ENDSEC;
END-ISO-10303-21;
