ISO-10303-21;
HEADER;
FILE_DESCRIPTION (( 'STEP AP214' ),
    '1' );
FILE_NAME ('Micro_DM-125-290.STEP',
    '2021-09-02T15:58:38',
    ( '' ),
    ( '' ),
    'SwSTEP 2.0',
    'SolidWorks 2020',
    '' );
FILE_SCHEMA (( 'AUTOMOTIVE_DESIGN' ));
ENDSEC;

DATA;
#1 = DIRECTION ( 'NONE',  ( 0.0000000000000000000, 0.0000000000000000000, 1.000000000000000000 ) ) ;
#2 = DIRECTION ( 'NONE',  ( -0.0000000000000000000, -0.0000000000000000000, -1.000000000000000000 ) ) ;
#3 = DIRECTION ( 'NONE',  ( -1.000000000000000000, 0.0000000000000000000, 0.0000000000000000000 ) ) ;
#4 = ADVANCED_FACE ( 'NONE', ( #308 ), #179, .T. ) ;
#5 = CIRCLE ( 'NONE', #92, 0.06245000000000007490 ) ;
#6 =( NAMED_UNIT ( * ) SI_UNIT ( $, .STERADIAN. ) SOLID_ANGLE_UNIT ( ) );
#7 = EDGE_LOOP ( 'NONE', ( #133, #119, #83, #229 ) ) ;
#8 =( NAMED_UNIT ( * ) PLANE_ANGLE_UNIT ( ) SI_UNIT ( $, .RADIAN. ) );
#9 = DIRECTION ( 'NONE',  ( -0.0000000000000000000, -0.0000000000000000000, -1.000000000000000000 ) ) ;
#10 = CARTESIAN_POINT ( 'NONE',  ( -0.06250000000000000000, 0.0000000000000000000, 1.485000000000000764 ) ) ;
#11 = DIRECTION ( 'NONE',  ( -1.000000000000000000, 0.0000000000000000000, 0.0000000000000000000 ) ) ;
#12 = LENGTH_MEASURE_WITH_UNIT ( LENGTH_MEASURE( 0.02539999999999999897 ), #265 );
#13 = ADVANCED_FACE ( 'NONE', ( #127 ), #237, .T. ) ;
#14 = DIRECTION ( 'NONE',  ( -1.000000000000000000, 0.0000000000000000000, 0.0000000000000000000 ) ) ;
#15 = CARTESIAN_POINT ( 'NONE',  ( -0.06245000000000001245, 7.647919260675222641E-18, 0.05494999999999978374 ) ) ;
#16 = CYLINDRICAL_SURFACE ( 'NONE', #189, 0.06250000000000000000 ) ;
#17 = AXIS2_PLACEMENT_3D ( 'NONE', #94, #190, #195 ) ;
#18 = VECTOR ( 'NONE', #99, 39.37007874015748143 ) ;
#19 = SURFACE_STYLE_FILL_AREA ( #20 ) ;
#20 = FILL_AREA_STYLE ('',( #245 ) ) ;
#21 = CARTESIAN_POINT ( 'NONE',  ( 0.04750000000000064587, 5.817072295950006528E-18, 1.500000000000000222 ) ) ;
#22 = CARTESIAN_POINT ( 'NONE',  ( 0.0000000000000000000, 0.0000000000000000000, 1.500000000000000222 ) ) ;
#23 = ORIENTED_EDGE ( 'NONE', *, *, #252, .F. ) ;
#24 = FACE_OUTER_BOUND ( 'NONE', #304, .T. ) ;
#25 = FACE_OUTER_BOUND ( 'NONE', #206, .T. ) ;
#26 = APPLICATION_CONTEXT ( 'automotive_design' ) ;
#27 =( GEOMETRIC_REPRESENTATION_CONTEXT ( 3 ) GLOBAL_UNCERTAINTY_ASSIGNED_CONTEXT ( ( #307 ) ) GLOBAL_UNIT_ASSIGNED_CONTEXT ( ( #74, #327, #49 ) ) REPRESENTATION_CONTEXT ( 'NONE', 'WORKASPACE' ) );
#28 = VECTOR ( 'NONE', #196, 39.37007874015748143 ) ;
#29 = DIMENSIONAL_EXPONENTS ( 1.000000000000000000, 0.0000000000000000000, 0.0000000000000000000, 0.0000000000000000000, 0.0000000000000000000, 0.0000000000000000000, 0.0000000000000000000 ) ;
#30 = CARTESIAN_POINT ( 'NONE',  ( 0.0000000000000000000, 0.0000000000000000000, 0.5000000000000000000 ) ) ;
#31 = CARTESIAN_POINT ( 'NONE',  ( 0.0000000000000000000, 0.0000000000000000000, 1.500000000000000222 ) ) ;
#32 = ORIENTED_EDGE ( 'NONE', *, *, #160, .F. ) ;
#33 = VERTEX_POINT ( 'NONE', #242 ) ;
#34 = AXIS2_PLACEMENT_3D ( 'NONE', #239, #9, #11 ) ;
#35 = ORIENTED_EDGE ( 'NONE', *, *, #181, .F. ) ;
#36 = VERTEX_POINT ( 'NONE', #15 ) ;
#37 = ORIENTED_EDGE ( 'NONE', *, *, #134, .T. ) ;
#38 = CIRCLE ( 'NONE', #222, 0.007499999999999999722 ) ;
#39 = ORIENTED_EDGE ( 'NONE', *, *, #70, .T. ) ;
#40 = EDGE_CURVE ( 'NONE', #50, #36, #112, .T. ) ;
#41 = DIRECTION ( 'NONE',  ( -0.0000000000000000000, -0.0000000000000000000, -1.000000000000000000 ) ) ;
#42 = CARTESIAN_POINT ( 'NONE',  ( 0.0000000000000000000, 0.0000000000000000000, 0.0000000000000000000 ) ) ;
#43 = CARTESIAN_POINT ( 'NONE',  ( 0.0000000000000000000, 0.0000000000000000000, 0.05494999999999977680 ) ) ;
#44 = EDGE_CURVE ( 'NONE', #288, #316, #272, .T. ) ;
#45 = DIRECTION ( 'NONE',  ( -1.000000000000000000, 0.0000000000000000000, 0.0000000000000000000 ) ) ;
#46 = CARTESIAN_POINT ( 'NONE',  ( 0.0000000000000000000, 0.0000000000000000000, 1.485000000000000764 ) ) ;
#47 = CARTESIAN_POINT ( 'NONE',  ( -0.007499999999999999722, 9.184850993605147975E-19, 1.707404996040164512E-17 ) ) ;
#48 = CIRCLE ( 'NONE', #126, 0.06245000000000000551 ) ;
#49 =( NAMED_UNIT ( * ) SI_UNIT ( $, .STERADIAN. ) SOLID_ANGLE_UNIT ( ) );
#50 = VERTEX_POINT ( 'NONE', #166 ) ;
#51 = ADVANCED_BREP_SHAPE_REPRESENTATION ( 'Micro_DM-125-290', ( #175, #183 ), #132 ) ;
#52 = MECHANICAL_DESIGN_GEOMETRIC_PRESENTATION_REPRESENTATION (  '', ( #103 ), #27 ) ;
#53 = CONICAL_SURFACE ( 'NONE', #302, 0.04750000000000064587, 0.7853981633974457255 ) ;
#54 = EDGE_CURVE ( 'NONE', #316, #288, #328, .T. ) ;
#55 = PLANE ( 'NONE',  #98 ) ;
#56 = SURFACE_STYLE_FILL_AREA ( #84 ) ;
#57 = EDGE_LOOP ( 'NONE', ( #199, #204 ) ) ;
#58 = CIRCLE ( 'NONE', #17, 0.04750000000000064587 ) ;
#59 = MECHANICAL_DESIGN_GEOMETRIC_PRESENTATION_REPRESENTATION (  '', ( #298 ), #268 ) ;
#60 = APPLICATION_PROTOCOL_DEFINITION ( 'draft international standard', 'automotive_design', 1998, #79 ) ;
#61 = EDGE_LOOP ( 'NONE', ( #313, #290 ) ) ;
#62 = DIRECTION ( 'NONE',  ( 0.7071067811865491270, 0.0000000000000000000, 0.7071067811865459074 ) ) ;
#63 = ORIENTED_EDGE ( 'NONE', *, *, #282, .F. ) ;
#64 = EDGE_LOOP ( 'NONE', ( #286, #208, #291, #35 ) ) ;
#65 = AXIS2_PLACEMENT_3D ( 'NONE', #294, #164, #113 ) ;
#66 = VECTOR ( 'NONE', #62, 39.37007874015748143 ) ;
#67 = FACE_OUTER_BOUND ( 'NONE', #212, .T. ) ;
#68 = DIRECTION ( 'NONE',  ( 1.000000000000000000, 0.0000000000000000000, 0.0000000000000000000 ) ) ;
#69 = CARTESIAN_POINT ( 'NONE',  ( 0.0000000000000000000, 0.0000000000000000000, 1.500000000000000222 ) ) ;
#70 = EDGE_CURVE ( 'NONE', #88, #288, #115, .T. ) ;
#71 = DIRECTION ( 'NONE',  ( 0.0000000000000000000, 0.0000000000000000000, 1.000000000000000000 ) ) ;
#72 = EDGE_CURVE ( 'NONE', #88, #241, #310, .T. ) ;
#73 = CARTESIAN_POINT ( 'NONE',  ( 0.0000000000000000000, 0.0000000000000000000, 0.5000000000000000000 ) ) ;
#74 =( CONVERSION_BASED_UNIT ( 'INCH', #257 ) LENGTH_UNIT ( ) NAMED_UNIT ( #264 ) );
#75 = CARTESIAN_POINT ( 'NONE',  ( -0.007499999999999999722, 4.283202180017868527E-18, 1.707404996040164512E-17 ) ) ;
#76 = EDGE_CURVE ( 'NONE', #50, #33, #180, .T. ) ;
#77 = CARTESIAN_POINT ( 'NONE',  ( -0.04750000000000064587, 0.0000000000000000000, 1.500000000000000222 ) ) ;
#78 = APPLICATION_PROTOCOL_DEFINITION ( 'draft international standard', 'automotive_design', 1998, #26 ) ;
#79 = APPLICATION_CONTEXT ( 'automotive_design' ) ;
#80 = PRODUCT_DEFINITION_FORMATION_WITH_SPECIFIED_SOURCE ( 'ANY', '', #187, .NOT_KNOWN. ) ;
#81 = ORIENTED_EDGE ( 'NONE', *, *, #134, .F. ) ;
#82 = DIRECTION ( 'NONE',  ( -1.000000000000000000, 0.0000000000000000000, 0.0000000000000000000 ) ) ;
#83 = ORIENTED_EDGE ( 'NONE', *, *, #128, .F. ) ;
#84 = FILL_AREA_STYLE ('',( #152 ) ) ;
#85 = VERTEX_POINT ( 'NONE', #218 ) ;
#86 = ORIENTED_EDGE ( 'NONE', *, *, #202, .F. ) ;
#87 = UNCERTAINTY_MEASURE_WITH_UNIT (LENGTH_MEASURE( 1.000000000000000082E-05 ), #154, 'distance_accuracy_value', 'NONE');
#88 = VERTEX_POINT ( 'NONE', #139 ) ;
#89 = FACE_OUTER_BOUND ( 'NONE', #260, .T. ) ;
#90 = DIRECTION ( 'NONE',  ( 1.000000000000000000, 0.0000000000000000000, 0.0000000000000000000 ) ) ;
#91 = CARTESIAN_POINT ( 'NONE',  ( 0.0000000000000000000, 0.0000000000000000000, 1.707404996040164512E-17 ) ) ;
#92 = AXIS2_PLACEMENT_3D ( 'NONE', #30, #231, #276 ) ;
#93 = DIRECTION ( 'NONE',  ( -0.0000000000000000000, -0.0000000000000000000, -1.000000000000000000 ) ) ;
#94 = CARTESIAN_POINT ( 'NONE',  ( 0.0000000000000000000, 0.0000000000000000000, 1.500000000000000222 ) ) ;
#95 = ADVANCED_FACE ( 'NONE', ( #274 ), #261, .T. ) ;
#96 =( LENGTH_UNIT ( ) NAMED_UNIT ( * ) SI_UNIT ( $, .METRE. ) );
#97 = FACE_OUTER_BOUND ( 'NONE', #57, .T. ) ;
#98 = AXIS2_PLACEMENT_3D ( 'NONE', #151, #145, #300 ) ;
#99 = DIRECTION ( 'NONE',  ( -0.7071067811865456854, 0.0000000000000000000, -0.7071067811865493491 ) ) ;
#100 = DIRECTION ( 'NONE',  ( 1.000000000000000000, 0.0000000000000000000, 0.0000000000000000000 ) ) ;
#101 = PRODUCT_DEFINITION ( 'UNKNOWN', '', #80, #205 ) ;
#102 = DIRECTION ( 'NONE',  ( 0.0000000000000000000, 0.0000000000000000000, -1.000000000000000000 ) ) ;
#103 = STYLED_ITEM ( 'NONE', ( #248 ), #175 ) ;
#104 = EDGE_LOOP ( 'NONE', ( #267, #37 ) ) ;
#105 = ORIENTED_EDGE ( 'NONE', *, *, #247, .T. ) ;
#106 = CARTESIAN_POINT ( 'NONE',  ( 0.007499999999999999722, 0.0000000000000000000, 1.707404996040164512E-17 ) ) ;
#107 = DIRECTION ( 'NONE',  ( -0.0000000000000000000, -0.0000000000000000000, -1.000000000000000000 ) ) ;
#108 = ADVANCED_FACE ( 'NONE', ( #89 ), #16, .T. ) ;
#109 = AXIS2_PLACEMENT_3D ( 'NONE', #311, #238, #82 ) ;
#110 = EDGE_CURVE ( 'NONE', #159, #281, #193, .T. ) ;
#111 = ORIENTED_EDGE ( 'NONE', *, *, #54, .T. ) ;
#112 = LINE ( 'NONE', #325, #203 ) ;
#113 = DIRECTION ( 'NONE',  ( -1.000000000000000000, 0.0000000000000000000, 0.0000000000000000000 ) ) ;
#114 = DIRECTION ( 'NONE',  ( 0.7071067811865456854, 8.659560562354911904E-17, -0.7071067811865493491 ) ) ;
#115 = LINE ( 'NONE', #21, #216 ) ;
#116 = DIRECTION ( 'NONE',  ( 0.0000000000000000000, 0.0000000000000000000, 1.000000000000000000 ) ) ;
#117 = AXIS2_PLACEMENT_3D ( 'NONE', #232, #173, #3 ) ;
#118 = DIRECTION ( 'NONE',  ( -0.0000000000000000000, -0.0000000000000000000, -1.000000000000000000 ) ) ;
#119 = ORIENTED_EDGE ( 'NONE', *, *, #244, .T. ) ;
#120 = CARTESIAN_POINT ( 'NONE',  ( 0.0000000000000000000, 0.0000000000000000000, 0.0000000000000000000 ) ) ;
#121 = CARTESIAN_POINT ( 'NONE',  ( 0.0000000000000000000, 0.0000000000000000000, 1.707404996040164512E-17 ) ) ;
#122 = CARTESIAN_POINT ( 'NONE',  ( -0.06250000000000000000, 0.0000000000000000000, 0.5000000000000000000 ) ) ;
#123 = DIRECTION ( 'NONE',  ( -1.000000000000000000, 0.0000000000000000000, 0.0000000000000000000 ) ) ;
#124 = DIRECTION ( 'NONE',  ( 0.0000000000000000000, 0.0000000000000000000, 1.000000000000000000 ) ) ;
#125 = ORIENTED_EDGE ( 'NONE', *, *, #282, .T. ) ;
#126 = AXIS2_PLACEMENT_3D ( 'NONE', #43, #2, #123 ) ;
#127 = FACE_OUTER_BOUND ( 'NONE', #7, .T. ) ;
#128 = EDGE_CURVE ( 'NONE', #36, #85, #277, .T. ) ;
#129 = CARTESIAN_POINT ( 'NONE',  ( 0.0000000000000000000, 0.0000000000000000000, 0.0000000000000000000 ) ) ;
#130 = ORIENTED_EDGE ( 'NONE', *, *, #44, .T. ) ;
#131 = AXIS2_PLACEMENT_3D ( 'NONE', #250, #220, #243 ) ;
#132 =( GEOMETRIC_REPRESENTATION_CONTEXT ( 3 ) GLOBAL_UNCERTAINTY_ASSIGNED_CONTEXT ( ( #240 ) ) GLOBAL_UNIT_ASSIGNED_CONTEXT ( ( #209, #176, #287 ) ) REPRESENTATION_CONTEXT ( 'NONE', 'WORKASPACE' ) );
#133 = ORIENTED_EDGE ( 'NONE', *, *, #76, .T. ) ;
#134 = EDGE_CURVE ( 'NONE', #262, #185, #38, .T. ) ;
#135 = DIRECTION ( 'NONE',  ( -1.000000000000000000, 0.0000000000000000000, 0.0000000000000000000 ) ) ;
#136 = DIRECTION ( 'NONE',  ( 1.000000000000000000, 0.0000000000000000000, 0.0000000000000000000 ) ) ;
#137 = AXIS2_PLACEMENT_3D ( 'NONE', #46, #194, #141 ) ;
#138 = PRESENTATION_LAYER_ASSIGNMENT (  '', '', ( #298 ) ) ;
#139 = CARTESIAN_POINT ( 'NONE',  ( 0.04750000000000064587, 6.735557395310482421E-18, 1.500000000000000222 ) ) ;
#140 = SURFACE_STYLE_USAGE ( .BOTH. , #167 ) ;
#141 = DIRECTION ( 'NONE',  ( 1.000000000000000000, 0.0000000000000000000, 0.0000000000000000000 ) ) ;
#142 = AXIS2_PLACEMENT_3D ( 'NONE', #22, #102, #201 ) ;
#143 = VECTOR ( 'NONE', #144, 39.37007874015748143 ) ;
#144 = DIRECTION ( 'NONE',  ( -0.7071067811865491270, 8.659560562354952580E-17, 0.7071067811865459074 ) ) ;
#145 = DIRECTION ( 'NONE',  ( -0.0000000000000000000, 0.0000000000000000000, -1.000000000000000000 ) ) ;
#146 = ORIENTED_EDGE ( 'NONE', *, *, #70, .F. ) ;
#147 = LINE ( 'NONE', #47, #143 ) ;
#148 = ORIENTED_EDGE ( 'NONE', *, *, #72, .F. ) ;
#149 = DIRECTION ( 'NONE',  ( 0.0000000000000000000, 0.0000000000000000000, -1.000000000000000000 ) ) ;
#150 = AXIS2_PLACEMENT_3D ( 'NONE', #299, #116, #136 ) ;
#151 = CARTESIAN_POINT ( 'NONE',  ( 0.06245000000000007490, 0.0000000000000000000, 0.5000000000000000000 ) ) ;
#152 = FILL_AREA_STYLE_COLOUR ( '', #223 ) ;
#153 = EDGE_LOOP ( 'NONE', ( #146, #32, #125, #162 ) ) ;
#154 =( CONVERSION_BASED_UNIT ( 'INCH', #12 ) LENGTH_UNIT ( ) NAMED_UNIT ( #207 ) );
#155 = AXIS2_PLACEMENT_3D ( 'NONE', #91, #295, #68 ) ;
#156 = ORIENTED_EDGE ( 'NONE', *, *, #181, .T. ) ;
#157 = CONICAL_SURFACE ( 'NONE', #324, 0.007499999999999999722, 0.7853981633974506105 ) ;
#158 = EDGE_CURVE ( 'NONE', #288, #159, #224, .T. ) ;
#159 = VERTEX_POINT ( 'NONE', #192 ) ;
#160 = EDGE_CURVE ( 'NONE', #241, #88, #58, .T. ) ;
#161 = SURFACE_STYLE_USAGE ( .BOTH. , #184 ) ;
#162 = ORIENTED_EDGE ( 'NONE', *, *, #44, .F. ) ;
#163 = ORIENTED_EDGE ( 'NONE', *, *, #158, .T. ) ;
#164 = DIRECTION ( 'NONE',  ( -0.0000000000000000000, -0.0000000000000000000, -1.000000000000000000 ) ) ;
#165 = CARTESIAN_POINT ( 'NONE',  ( 0.0000000000000000000, 0.0000000000000000000, 1.500000000000000222 ) ) ;
#166 = CARTESIAN_POINT ( 'NONE',  ( -0.06245000000000007490, 0.0000000000000000000, 0.5000000000000000000 ) ) ;
#167 = SURFACE_SIDE_STYLE ('',( #19 ) ) ;
#168 = CARTESIAN_POINT ( 'NONE',  ( 0.0000000000000000000, 0.0000000000000000000, 1.707404996040164512E-17 ) ) ;
#169 = ADVANCED_FACE ( 'NONE', ( #67 ), #215, .T. ) ;
#170 = AXIS2_PLACEMENT_3D ( 'NONE', #73, #221, #135 ) ;
#171 = DIRECTION ( 'NONE',  ( -0.0000000000000000000, -0.0000000000000000000, -1.000000000000000000 ) ) ;
#172 = ADVANCED_FACE ( 'NONE', ( #318 ), #296, .F. ) ;
#173 = DIRECTION ( 'NONE',  ( -0.0000000000000000000, -0.0000000000000000000, -1.000000000000000000 ) ) ;
#174 = LINE ( 'NONE', #326, #28 ) ;
#175 = MANIFOLD_SOLID_BREP ( 'Cut-Revolve4', #301 ) ;
#176 =( NAMED_UNIT ( * ) PLANE_ANGLE_UNIT ( ) SI_UNIT ( $, .RADIAN. ) );
#177 = EDGE_LOOP ( 'NONE', ( #182, #235 ) ) ;
#178 =( LENGTH_UNIT ( ) NAMED_UNIT ( * ) SI_UNIT ( $, .METRE. ) );
#179 = CYLINDRICAL_SURFACE ( 'NONE', #297, 0.06245000000000004020 ) ;
#180 = CIRCLE ( 'NONE', #65, 0.06245000000000007490 ) ;
#181 = EDGE_CURVE ( 'NONE', #85, #36, #48, .T. ) ;
#182 = ORIENTED_EDGE ( 'NONE', *, *, #160, .T. ) ;
#183 = AXIS2_PLACEMENT_3D ( 'NONE', #120, #1, #100 ) ;
#184 = SURFACE_SIDE_STYLE ('',( #56 ) ) ;
#185 = VERTEX_POINT ( 'NONE', #251 ) ;
#186 = ORIENTED_EDGE ( 'NONE', *, *, #110, .F. ) ;
#187 = PRODUCT ( 'Micro_DM-125-290', 'Micro_DM-125-290', '', ( #230 ) ) ;
#188 = ORIENTED_EDGE ( 'NONE', *, *, #158, .F. ) ;
#189 = AXIS2_PLACEMENT_3D ( 'NONE', #165, #41, #320 ) ;
#190 = DIRECTION ( 'NONE',  ( 0.0000000000000000000, 0.0000000000000000000, 1.000000000000000000 ) ) ;
#191 = CARTESIAN_POINT ( 'NONE',  ( 0.0000000000000000000, 0.0000000000000000000, 1.485000000000000764 ) ) ;
#192 = CARTESIAN_POINT ( 'NONE',  ( 0.06250000000000000000, 7.654042494670956004E-18, 0.5000000000000000000 ) ) ;
#193 = CIRCLE ( 'NONE', #170, 0.06250000000000000000 ) ;
#194 = DIRECTION ( 'NONE',  ( 0.0000000000000000000, 0.0000000000000000000, -1.000000000000000000 ) ) ;
#195 = DIRECTION ( 'NONE',  ( 1.000000000000000000, 0.0000000000000000000, 0.0000000000000000000 ) ) ;
#196 = DIRECTION ( 'NONE',  ( -0.0000000000000000000, -0.0000000000000000000, -1.000000000000000000 ) ) ;
#197 = AXIS2_PLACEMENT_3D ( 'NONE', #42, #71, #271 ) ;
#198 = CARTESIAN_POINT ( 'NONE',  ( 0.06245000000000004020, 7.647919260675225723E-18, 0.0000000000000000000 ) ) ;
#199 = ORIENTED_EDGE ( 'NONE', *, *, #202, .T. ) ;
#200 = CARTESIAN_POINT ( 'NONE',  ( 0.06250000000000000000, 7.654042494670956004E-18, 1.485000000000000764 ) ) ;
#201 = DIRECTION ( 'NONE',  ( -1.000000000000000000, 0.0000000000000000000, 0.0000000000000000000 ) ) ;
#202 = EDGE_CURVE ( 'NONE', #281, #159, #210, .T. ) ;
#203 = VECTOR ( 'NONE', #93, 39.37007874015748143 ) ;
#204 = ORIENTED_EDGE ( 'NONE', *, *, #110, .T. ) ;
#205 = PRODUCT_DEFINITION_CONTEXT ( 'detailed design', #26, 'design' ) ;
#206 = EDGE_LOOP ( 'NONE', ( #148, #39, #314, #63 ) ) ;
#207 = DIMENSIONAL_EXPONENTS ( 1.000000000000000000, 0.0000000000000000000, 0.0000000000000000000, 0.0000000000000000000, 0.0000000000000000000, 0.0000000000000000000, 0.0000000000000000000 ) ;
#208 = ORIENTED_EDGE ( 'NONE', *, *, #217, .T. ) ;
#209 =( CONVERSION_BASED_UNIT ( 'INCH', #236 ) LENGTH_UNIT ( ) NAMED_UNIT ( #29 ) );
#210 = CIRCLE ( 'NONE', #117, 0.06250000000000000000 ) ;
#211 = ORIENTED_EDGE ( 'NONE', *, *, #128, .T. ) ;
#212 = EDGE_LOOP ( 'NONE', ( #188, #130, #213, #186 ) ) ;
#213 = ORIENTED_EDGE ( 'NONE', *, *, #252, .T. ) ;
#214 = ADVANCED_FACE ( 'NONE', ( #25 ), #292, .T. ) ;
#215 = CYLINDRICAL_SURFACE ( 'NONE', #284, 0.06250000000000000000 ) ;
#216 = VECTOR ( 'NONE', #114, 39.37007874015748143 ) ;
#217 = EDGE_CURVE ( 'NONE', #33, #50, #5, .T. ) ;
#218 = CARTESIAN_POINT ( 'NONE',  ( 0.06245000000000001245, 0.0000000000000000000, 0.05494999999999978374 ) ) ;
#219 = PRODUCT_DEFINITION_SHAPE ( 'NONE', 'NONE',  #101 ) ;
#220 = DIRECTION ( 'NONE',  ( -0.0000000000000000000, -0.0000000000000000000, -1.000000000000000000 ) ) ;
#221 = DIRECTION ( 'NONE',  ( -0.0000000000000000000, -0.0000000000000000000, -1.000000000000000000 ) ) ;
#222 = AXIS2_PLACEMENT_3D ( 'NONE', #168, #118, #45 ) ;
#223 = COLOUR_RGB ( '',0.7921568627450980005, 0.8196078431372548767, 0.9333333333333333481 ) ;
#224 = LINE ( 'NONE', #323, #255 ) ;
#225 = DIRECTION ( 'NONE',  ( -1.000000000000000000, 0.0000000000000000000, 0.0000000000000000000 ) ) ;
#226 = ORIENTED_EDGE ( 'NONE', *, *, #322, .F. ) ;
#227 = DIRECTION ( 'NONE',  ( 0.0000000000000000000, 0.0000000000000000000, 1.000000000000000000 ) ) ;
#228 = PRESENTATION_LAYER_ASSIGNMENT (  '', '', ( #103 ) ) ;
#229 = ORIENTED_EDGE ( 'NONE', *, *, #40, .F. ) ;
#230 = PRODUCT_CONTEXT ( 'NONE', #79, 'mechanical' ) ;
#231 = DIRECTION ( 'NONE',  ( -0.0000000000000000000, -0.0000000000000000000, -1.000000000000000000 ) ) ;
#232 = CARTESIAN_POINT ( 'NONE',  ( 0.0000000000000000000, 0.0000000000000000000, 0.5000000000000000000 ) ) ;
#233 = VECTOR ( 'NONE', #171, 39.37007874015748143 ) ;
#234 = AXIS2_PLACEMENT_3D ( 'NONE', #31, #124, #253 ) ;
#235 = ORIENTED_EDGE ( 'NONE', *, *, #72, .T. ) ;
#236 = LENGTH_MEASURE_WITH_UNIT ( LENGTH_MEASURE( 0.02539999999999999897 ), #178 );
#237 = CYLINDRICAL_SURFACE ( 'NONE', #34, 0.06245000000000004020 ) ;
#238 = DIRECTION ( 'NONE',  ( -0.0000000000000000000, -0.0000000000000000000, -1.000000000000000000 ) ) ;
#239 = CARTESIAN_POINT ( 'NONE',  ( 0.0000000000000000000, 0.0000000000000000000, 0.0000000000000000000 ) ) ;
#240 = UNCERTAINTY_MEASURE_WITH_UNIT (LENGTH_MEASURE( 1.000000000000000082E-05 ), #209, 'distance_accuracy_value', 'NONE');
#241 = VERTEX_POINT ( 'NONE', #279 ) ;
#242 = CARTESIAN_POINT ( 'NONE',  ( 0.06245000000000006796, 7.647919260675228804E-18, 0.5000000000000000000 ) ) ;
#243 = DIRECTION ( 'NONE',  ( -1.000000000000000000, 0.0000000000000000000, 0.0000000000000000000 ) ) ;
#244 = EDGE_CURVE ( 'NONE', #33, #85, #280, .T. ) ;
#245 = FILL_AREA_STYLE_COLOUR ( '', #246 ) ;
#246 = COLOUR_RGB ( '',0.7921568627450980005, 0.8196078431372548767, 0.9333333333333333481 ) ;
#247 = EDGE_CURVE ( 'NONE', #262, #36, #147, .T. ) ;
#248 = PRESENTATION_STYLE_ASSIGNMENT (( #140 ) ) ;
#249 = ADVANCED_FACE ( 'NONE', ( #283 ), #53, .T. ) ;
#250 = CARTESIAN_POINT ( 'NONE',  ( 0.0000000000000000000, 0.0000000000000000000, 0.05494999999999977680 ) ) ;
#251 = CARTESIAN_POINT ( 'NONE',  ( 0.007499999999999999722, 0.0000000000000000000, 1.707404996040164512E-17 ) ) ;
#252 = EDGE_CURVE ( 'NONE', #316, #281, #174, .T. ) ;
#253 = DIRECTION ( 'NONE',  ( 1.000000000000000000, 0.0000000000000000000, -0.0000000000000000000 ) ) ;
#254 = DIRECTION ( 'NONE',  ( 1.000000000000000000, 0.0000000000000000000, 0.0000000000000000000 ) ) ;
#255 = VECTOR ( 'NONE', #321, 39.37007874015748143 ) ;
#256 = ADVANCED_FACE ( 'NONE', ( #285, #97 ), #55, .T. ) ;
#257 = LENGTH_MEASURE_WITH_UNIT ( LENGTH_MEASURE( 0.02539999999999999897 ), #96 );
#258 = PLANE ( 'NONE',  #234 ) ;
#259 = PRESENTATION_STYLE_ASSIGNMENT (( #161 ) ) ;
#260 = EDGE_LOOP ( 'NONE', ( #111, #163, #86, #23 ) ) ;
#261 = CONICAL_SURFACE ( 'NONE', #155, 0.007499999999999999722, 0.7853981633974506105 ) ;
#262 = VERTEX_POINT ( 'NONE', #75 ) ;
#263 = ORIENTED_EDGE ( 'NONE', *, *, #247, .F. ) ;
#264 = DIMENSIONAL_EXPONENTS ( 1.000000000000000000, 0.0000000000000000000, 0.0000000000000000000, 0.0000000000000000000, 0.0000000000000000000, 0.0000000000000000000, 0.0000000000000000000 ) ;
#265 =( LENGTH_UNIT ( ) NAMED_UNIT ( * ) SI_UNIT ( $, .METRE. ) );
#266 = EDGE_LOOP ( 'NONE', ( #263, #309, #293, #156 ) ) ;
#267 = ORIENTED_EDGE ( 'NONE', *, *, #312, .T. ) ;
#268 =( GEOMETRIC_REPRESENTATION_CONTEXT ( 3 ) GLOBAL_UNCERTAINTY_ASSIGNED_CONTEXT ( ( #87 ) ) GLOBAL_UNIT_ASSIGNED_CONTEXT ( ( #154, #8, #6 ) ) REPRESENTATION_CONTEXT ( 'NONE', 'WORKASPACE' ) );
#269 = DIRECTION ( 'NONE',  ( 0.0000000000000000000, 0.0000000000000000000, -1.000000000000000000 ) ) ;
#270 = DIRECTION ( 'NONE',  ( -0.0000000000000000000, -0.0000000000000000000, -1.000000000000000000 ) ) ;
#271 = DIRECTION ( 'NONE',  ( 1.000000000000000000, 0.0000000000000000000, -0.0000000000000000000 ) ) ;
#272 = CIRCLE ( 'NONE', #137, 0.06250000000000000000 ) ;
#273 = DIRECTION ( 'NONE',  ( -1.000000000000000000, 0.0000000000000000000, 0.0000000000000000000 ) ) ;
#274 = FACE_OUTER_BOUND ( 'NONE', #266, .T. ) ;
#275 = ADVANCED_FACE ( 'NONE', ( #303 ), #258, .T. ) ;
#276 = DIRECTION ( 'NONE',  ( -1.000000000000000000, 0.0000000000000000000, 0.0000000000000000000 ) ) ;
#277 = CIRCLE ( 'NONE', #131, 0.06245000000000000551 ) ;
#278 = ADVANCED_FACE ( 'NONE', ( #24 ), #157, .T. ) ;
#279 = CARTESIAN_POINT ( 'NONE',  ( -0.04750000000000064587, 0.0000000000000000000, 1.500000000000000222 ) ) ;
#280 = LINE ( 'NONE', #198, #233 ) ;
#281 = VERTEX_POINT ( 'NONE', #122 ) ;
#282 = EDGE_CURVE ( 'NONE', #241, #316, #329, .T. ) ;
#283 = FACE_OUTER_BOUND ( 'NONE', #153, .T. ) ;
#284 = AXIS2_PLACEMENT_3D ( 'NONE', #69, #270, #273 ) ;
#285 = FACE_BOUND ( 'NONE', #61, .T. ) ;
#286 = ORIENTED_EDGE ( 'NONE', *, *, #244, .F. ) ;
#287 =( NAMED_UNIT ( * ) SI_UNIT ( $, .STERADIAN. ) SOLID_ANGLE_UNIT ( ) );
#288 = VERTEX_POINT ( 'NONE', #200 ) ;
#289 = LINE ( 'NONE', #106, #66 ) ;
#290 = ORIENTED_EDGE ( 'NONE', *, *, #217, .F. ) ;
#291 = ORIENTED_EDGE ( 'NONE', *, *, #40, .T. ) ;
#292 = CONICAL_SURFACE ( 'NONE', #142, 0.04750000000000064587, 0.7853981633974457255 ) ;
#293 = ORIENTED_EDGE ( 'NONE', *, *, #322, .T. ) ;
#294 = CARTESIAN_POINT ( 'NONE',  ( 0.0000000000000000000, 0.0000000000000000000, 0.5000000000000000000 ) ) ;
#295 = DIRECTION ( 'NONE',  ( 0.0000000000000000000, 0.0000000000000000000, 1.000000000000000000 ) ) ;
#296 = PLANE ( 'NONE',  #197 ) ;
#297 = AXIS2_PLACEMENT_3D ( 'NONE', #129, #107, #14 ) ;
#298 = STYLED_ITEM ( 'NONE', ( #259 ), #51 ) ;
#299 = CARTESIAN_POINT ( 'NONE',  ( 0.0000000000000000000, 0.0000000000000000000, 1.500000000000000222 ) ) ;
#300 = DIRECTION ( 'NONE',  ( -1.000000000000000000, 0.0000000000000000000, 0.0000000000000000000 ) ) ;
#301 = CLOSED_SHELL ( 'NONE', ( #13, #278, #214, #108, #169, #275, #249, #256, #95, #4, #172 ) ) ;
#302 = AXIS2_PLACEMENT_3D ( 'NONE', #305, #149, #225 ) ;
#303 = FACE_OUTER_BOUND ( 'NONE', #177, .T. ) ;
#304 = EDGE_LOOP ( 'NONE', ( #81, #105, #211, #226 ) ) ;
#305 = CARTESIAN_POINT ( 'NONE',  ( 0.0000000000000000000, 0.0000000000000000000, 1.500000000000000222 ) ) ;
#306 = SHAPE_DEFINITION_REPRESENTATION ( #219, #51 ) ;
#307 = UNCERTAINTY_MEASURE_WITH_UNIT (LENGTH_MEASURE( 1.000000000000000082E-05 ), #74, 'distance_accuracy_value', 'NONE');
#308 = FACE_OUTER_BOUND ( 'NONE', #64, .T. ) ;
#309 = ORIENTED_EDGE ( 'NONE', *, *, #312, .F. ) ;
#310 = CIRCLE ( 'NONE', #150, 0.04750000000000064587 ) ;
#311 = CARTESIAN_POINT ( 'NONE',  ( 0.0000000000000000000, 0.0000000000000000000, 1.707404996040164512E-17 ) ) ;
#312 = EDGE_CURVE ( 'NONE', #185, #262, #319, .T. ) ;
#313 = ORIENTED_EDGE ( 'NONE', *, *, #76, .F. ) ;
#314 = ORIENTED_EDGE ( 'NONE', *, *, #54, .F. ) ;
#315 = PRODUCT_RELATED_PRODUCT_CATEGORY ( 'part', '', ( #187 ) ) ;
#316 = VERTEX_POINT ( 'NONE', #10 ) ;
#317 = AXIS2_PLACEMENT_3D ( 'NONE', #191, #269, #90 ) ;
#318 = FACE_OUTER_BOUND ( 'NONE', #104, .T. ) ;
#319 = CIRCLE ( 'NONE', #109, 0.007499999999999999722 ) ;
#320 = DIRECTION ( 'NONE',  ( -1.000000000000000000, 0.0000000000000000000, 0.0000000000000000000 ) ) ;
#321 = DIRECTION ( 'NONE',  ( -0.0000000000000000000, -0.0000000000000000000, -1.000000000000000000 ) ) ;
#322 = EDGE_CURVE ( 'NONE', #185, #85, #289, .T. ) ;
#323 = CARTESIAN_POINT ( 'NONE',  ( 0.06250000000000000000, 7.654042494670956004E-18, 1.500000000000000222 ) ) ;
#324 = AXIS2_PLACEMENT_3D ( 'NONE', #121, #227, #254 ) ;
#325 = CARTESIAN_POINT ( 'NONE',  ( -0.06245000000000004020, 0.0000000000000000000, 0.0000000000000000000 ) ) ;
#326 = CARTESIAN_POINT ( 'NONE',  ( -0.06250000000000000000, 0.0000000000000000000, 1.500000000000000222 ) ) ;
#327 =( NAMED_UNIT ( * ) PLANE_ANGLE_UNIT ( ) SI_UNIT ( $, .RADIAN. ) );
#328 = CIRCLE ( 'NONE', #317, 0.06250000000000000000 ) ;
#329 = LINE ( 'NONE', #77, #18 ) ;
ENDSEC;
END-ISO-10303-21;
