ISO-10303-21;
HEADER;
FILE_DESCRIPTION (( 'STEP AP214' ),
    '1' );
FILE_NAME ('83744.STEP',
    '2023-07-05T19:23:25',
    ( '' ),
    ( '' ),
    'SwSTEP 2.0',
    'SolidWorks 2023',
    '' );
FILE_SCHEMA (( 'AUTOMOTIVE_DESIGN' ));
ENDSEC;

DATA;
#1 = ORIENTED_EDGE ( 'NONE', *, *, #286, .F. ) ;
#2 =( NAMED_UNIT ( * ) SI_UNIT ( $, .STERADIAN. ) SOLID_ANGLE_UNIT ( ) );
#3 = ORIENTED_EDGE ( 'NONE', *, *, #278, .F. ) ;
#4 = FACE_OUTER_BOUND ( 'NONE', #190, .T. ) ;
#5 = CARTESIAN_POINT ( 'NONE',  ( 0.000000000000000000, 39.37007874015748143, 0.000000000000000000 ) ) ;
#6 =( LENGTH_UNIT ( ) NAMED_UNIT ( * ) SI_UNIT ( $, .METRE. ) );
#7 = PRODUCT_DEFINITION_SHAPE ( 'NONE', 'NONE',  #55 ) ;
#8 = DIRECTION ( 'NONE',  ( -1.227993083434185205E-16, 1.000000000000000000, -0.000000000000000000 ) ) ;
#9 = PRESENTATION_LAYER_ASSIGNMENT (  '', '', ( #164 ) ) ;
#10 = CARTESIAN_POINT ( 'NONE',  ( 1.530808498934191201E-17, 0.000000000000000000, 0.1249999999999999861 ) ) ;
#11 = ORIENTED_EDGE ( 'NONE', *, *, #19, .F. ) ;
#12 = VERTEX_POINT ( 'NONE', #154 ) ;
#13 = EDGE_CURVE ( 'NONE', #201, #12, #175, .T. ) ;
#14 = ORIENTED_EDGE ( 'NONE', *, *, #311, .T. ) ;
#15 = CIRCLE ( 'NONE', #158, 0.1250000000000000555 ) ;
#16 = LINE ( 'NONE', #344, #153 ) ;
#17 = DIRECTION ( 'NONE',  ( -1.227993083434185205E-16, 1.000000000000000000, -0.000000000000000000 ) ) ;
#18 = CARTESIAN_POINT ( 'NONE',  ( 0.000000000000000000, 0.7500000000000001110, 0.000000000000000000 ) ) ;
#19 = EDGE_CURVE ( 'NONE', #271, #280, #317, .T. ) ;
#20 = CYLINDRICAL_SURFACE ( 'NONE', #304, 0.1249999999999999861 ) ;
#21 = DIMENSIONAL_EXPONENTS ( 1.000000000000000000, 0.000000000000000000, 0.000000000000000000, 0.000000000000000000, 0.000000000000000000, 0.000000000000000000, 0.000000000000000000 ) ;
#22 = CARTESIAN_POINT ( 'NONE',  ( -6.123233995736766036E-17, 2.500000000000000000, 0.000000000000000000 ) ) ;
#23 = MECHANICAL_DESIGN_GEOMETRIC_PRESENTATION_REPRESENTATION (  '', ( #242 ), #333 ) ;
#24 = LENGTH_MEASURE_WITH_UNIT ( LENGTH_MEASURE( 0.02539999999999999897 ), #83 );
#25 =( NAMED_UNIT ( * ) PLANE_ANGLE_UNIT ( ) SI_UNIT ( $, .RADIAN. ) );
#26 = FILL_AREA_STYLE ('',( #260 ) ) ;
#27 =( LENGTH_UNIT ( ) NAMED_UNIT ( * ) SI_UNIT ( $, .METRE. ) );
#28 = STYLED_ITEM ( 'NONE', ( #32 ), #170 ) ;
#29 = UNCERTAINTY_MEASURE_WITH_UNIT (LENGTH_MEASURE( 1.000000000000000082E-05 ), #212, 'distance_accuracy_value', 'NONE');
#30 = FILL_AREA_STYLE ('',( #59 ) ) ;
#31 =( CONVERSION_BASED_UNIT ( 'INCH', #140 ) LENGTH_UNIT ( ) NAMED_UNIT ( #101 ) );
#32 = PRESENTATION_STYLE_ASSIGNMENT (( #145 ) ) ;
#33 = EDGE_CURVE ( 'NONE', #56, #89, #339, .T. ) ;
#34 = PRESENTATION_LAYER_ASSIGNMENT (  '', '', ( #42 ) ) ;
#35 = FACE_OUTER_BOUND ( 'NONE', #316, .T. ) ;
#36 = EDGE_LOOP ( 'NONE', ( #128, #1 ) ) ;
#37 = CARTESIAN_POINT ( 'NONE',  ( 0.000000000000000000, 0.2165063509461090385, -0.1249999999999999861 ) ) ;
#38 = EDGE_CURVE ( 'NONE', #64, #340, #149, .T. ) ;
#39 = ORIENTED_EDGE ( 'NONE', *, *, #33, .T. ) ;
#40 = ORIENTED_EDGE ( 'NONE', *, *, #278, .T. ) ;
#41 = CLOSED_SHELL ( 'NONE', ( #205, #244, #85, #194 ) ) ;
#42 = STYLED_ITEM ( 'NONE', ( #329 ), #226 ) ;
#43 = SURFACE_SIDE_STYLE ('',( #238 ) ) ;
#44 = DIMENSIONAL_EXPONENTS ( 1.000000000000000000, 0.000000000000000000, 0.000000000000000000, 0.000000000000000000, 0.000000000000000000, 0.000000000000000000, 0.000000000000000000 ) ;
#45 = DIRECTION ( 'NONE',  ( -1.227993083434185205E-16, 1.000000000000000000, -0.000000000000000000 ) ) ;
#46 = PRESENTATION_LAYER_ASSIGNMENT (  '', '', ( #28 ) ) ;
#47 = FACE_OUTER_BOUND ( 'NONE', #229, .T. ) ;
#48 = PRODUCT_CONTEXT ( 'NONE', #293, 'mechanical' ) ;
#49 =( NAMED_UNIT ( * ) SI_UNIT ( $, .STERADIAN. ) SOLID_ANGLE_UNIT ( ) );
#50 = FILL_AREA_STYLE ('',( #267 ) ) ;
#51 = SURFACE_STYLE_FILL_AREA ( #30 ) ;
#52 = CLOSED_SHELL ( 'NONE', ( #139, #124, #117, #170, #226 ) ) ;
#53 =( NAMED_UNIT ( * ) PLANE_ANGLE_UNIT ( ) SI_UNIT ( $, .RADIAN. ) );
#54 = CONICAL_SURFACE ( 'NONE', #321, 22.73032555864674364, 0.5235987755983000369 ) ;
#55 = PRODUCT_DEFINITION ( 'UNKNOWN', '', #129, #195 ) ;
#56 = VERTEX_POINT ( 'NONE', #95 ) ;
#57 = PRESENTATION_STYLE_ASSIGNMENT (( #217 ) ) ;
#58 = ORIENTED_EDGE ( 'NONE', *, *, #13, .T. ) ;
#59 = FILL_AREA_STYLE_COLOUR ( '', #252 ) ;
#60 = ADVANCED_BREP_SHAPE_REPRESENTATION ( '83744', ( #237, #109, #224 ), #126 ) ;
#61 = CARTESIAN_POINT ( 'NONE',  ( 0.000000000000000000, 0.000000000000000000, 0.000000000000000000 ) ) ;
#62 =( GEOMETRIC_REPRESENTATION_CONTEXT ( 3 ) GLOBAL_UNCERTAINTY_ASSIGNED_CONTEXT ( ( #327 ) ) GLOBAL_UNIT_ASSIGNED_CONTEXT ( ( #111, #302, #49 ) ) REPRESENTATION_CONTEXT ( 'NONE', 'WORKASPACE' ) );
#63 = MECHANICAL_DESIGN_GEOMETRIC_PRESENTATION_REPRESENTATION (  '', ( #28 ), #268 ) ;
#64 = VERTEX_POINT ( 'NONE', #285 ) ;
#65 = DIRECTION ( 'NONE',  ( -1.000000000000000000, 0.000000000000000000, 0.000000000000000000 ) ) ;
#66 = PRODUCT ( '83744', '83744', '', ( #48 ) ) ;
#67 = CARTESIAN_POINT ( 'NONE',  ( 0.1249999999999998612, 2.500000000000000000, 1.530808498934190893E-17 ) ) ;
#68 = CARTESIAN_POINT ( 'NONE',  ( -0.1250000000000000000, 2.500000000000000000, 0.000000000000000000 ) ) ;
#69 = CIRCLE ( 'NONE', #265, 0.1249999999999998335 ) ;
#70 = VERTEX_POINT ( 'NONE', #37 ) ;
#71 = SURFACE_STYLE_USAGE ( .BOTH. , #134 ) ;
#72 = ORIENTED_EDGE ( 'NONE', *, *, #106, .F. ) ;
#73 = CARTESIAN_POINT ( 'NONE',  ( 1.530808498934191201E-17, 0.7500000000000001110, 0.1249999999999999861 ) ) ;
#74 = ORIENTED_EDGE ( 'NONE', *, *, #77, .F. ) ;
#75 = STYLED_ITEM ( 'NONE', ( #347 ), #139 ) ;
#76 = FILL_AREA_STYLE ('',( #296 ) ) ;
#77 = EDGE_CURVE ( 'NONE', #280, #70, #213, .T. ) ;
#78 = CARTESIAN_POINT ( 'NONE',  ( 0.000000000000000000, 0.000000000000000000, 0.000000000000000000 ) ) ;
#79 = UNCERTAINTY_MEASURE_WITH_UNIT (LENGTH_MEASURE( 1.000000000000000082E-05 ), #320, 'distance_accuracy_value', 'NONE');
#80 = STYLED_ITEM ( 'NONE', ( #350 ), #117 ) ;
#81 =( GEOMETRIC_REPRESENTATION_CONTEXT ( 3 ) GLOBAL_UNCERTAINTY_ASSIGNED_CONTEXT ( ( #297 ) ) GLOBAL_UNIT_ASSIGNED_CONTEXT ( ( #104, #186, #298 ) ) REPRESENTATION_CONTEXT ( 'NONE', 'WORKASPACE' ) );
#82 = DIMENSIONAL_EXPONENTS ( 1.000000000000000000, 0.000000000000000000, 0.000000000000000000, 0.000000000000000000, 0.000000000000000000, 0.000000000000000000, 0.000000000000000000 ) ;
#83 =( LENGTH_UNIT ( ) NAMED_UNIT ( * ) SI_UNIT ( $, .METRE. ) );
#84 =( NAMED_UNIT ( * ) SI_UNIT ( $, .STERADIAN. ) SOLID_ANGLE_UNIT ( ) );
#85 = ADVANCED_FACE ( 'NONE', ( #282 ), #287, .T. ) ;
#86 =( GEOMETRIC_REPRESENTATION_CONTEXT ( 3 ) GLOBAL_UNCERTAINTY_ASSIGNED_CONTEXT ( ( #236 ) ) GLOBAL_UNIT_ASSIGNED_CONTEXT ( ( #292, #103, #295 ) ) REPRESENTATION_CONTEXT ( 'NONE', 'WORKASPACE' ) );
#87 = DIRECTION ( 'NONE',  ( -1.000000000000000000, 0.000000000000000000, 0.000000000000000000 ) ) ;
#88 = COLOUR_RGB ( '',1.000000000000000000, 0.000000000000000000, 0.000000000000000000 ) ;
#89 = VERTEX_POINT ( 'NONE', #239 ) ;
#90 = ORIENTED_EDGE ( 'NONE', *, *, #77, .T. ) ;
#91 = ORIENTED_EDGE ( 'NONE', *, *, #330, .T. ) ;
#92 = AXIS2_PLACEMENT_3D ( 'NONE', #165, #169, #171 ) ;
#93 = EDGE_CURVE ( 'NONE', #271, #70, #322, .T. ) ;
#94 = DIRECTION ( 'NONE',  ( -1.227993083434185205E-16, 1.000000000000000000, -0.000000000000000000 ) ) ;
#95 = CARTESIAN_POINT ( 'NONE',  ( 0.1249999999999999861, 0.7499999999999998890, 1.530808498934191509E-17 ) ) ;
#96 = EDGE_LOOP ( 'NONE', ( #208, #40 ) ) ;
#97 = LENGTH_MEASURE_WITH_UNIT ( LENGTH_MEASURE( 0.02539999999999999897 ), #289 );
#98 = VECTOR ( 'NONE', #258, 39.37007874015748143 ) ;
#99 = PRESENTATION_LAYER_ASSIGNMENT (  '', '', ( #75 ) ) ;
#100 = SURFACE_STYLE_USAGE ( .BOTH. , #43 ) ;
#101 = DIMENSIONAL_EXPONENTS ( 1.000000000000000000, 0.000000000000000000, 0.000000000000000000, 0.000000000000000000, 0.000000000000000000, 0.000000000000000000, 0.000000000000000000 ) ;
#102 = CARTESIAN_POINT ( 'NONE',  ( 0.000000000000000000, 0.000000000000000000, 0.000000000000000000 ) ) ;
#103 =( NAMED_UNIT ( * ) PLANE_ANGLE_UNIT ( ) SI_UNIT ( $, .RADIAN. ) );
#104 =( CONVERSION_BASED_UNIT ( 'INCH', #24 ) LENGTH_UNIT ( ) NAMED_UNIT ( #44 ) );
#105 = CARTESIAN_POINT ( 'NONE',  ( 0.000000000000000000, 0.000000000000000000, 0.000000000000000000 ) ) ;
#106 = EDGE_CURVE ( 'NONE', #201, #56, #234, .T. ) ;
#107 = AXIS2_PLACEMENT_3D ( 'NONE', #160, #211, #210 ) ;
#108 = AXIS2_PLACEMENT_3D ( 'NONE', #18, #148, #342 ) ;
#109 = MANIFOLD_SOLID_BREP ( 'Revolve - Tool Body (Straight Shanked)', #41 ) ;
#110 = DIRECTION ( 'NONE',  ( 0.000000000000000000, 1.000000000000000000, 0.000000000000000000 ) ) ;
#111 =( CONVERSION_BASED_UNIT ( 'INCH', #138 ) LENGTH_UNIT ( ) NAMED_UNIT ( #348 ) );
#112 = FILL_AREA_STYLE_COLOUR ( '', #88 ) ;
#113 =( LENGTH_UNIT ( ) NAMED_UNIT ( * ) SI_UNIT ( $, .METRE. ) );
#114 = MECHANICAL_DESIGN_GEOMETRIC_PRESENTATION_REPRESENTATION (  '', ( #283 ), #184 ) ;
#115 = CIRCLE ( 'NONE', #314, 0.1249999999999999861 ) ;
#116 = SURFACE_STYLE_USAGE ( .BOTH. , #331 ) ;
#117 = ADVANCED_FACE ( 'NONE', ( #245 ), #167, .T. ) ;
#118 = FACE_OUTER_BOUND ( 'NONE', #96, .T. ) ;
#119 = EDGE_LOOP ( 'NONE', ( #11, #290, #172 ) ) ;
#120 = DIRECTION ( 'NONE',  ( 0.000000000000000000, 1.000000000000000000, 0.000000000000000000 ) ) ;
#121 = VECTOR ( 'NONE', #207, 39.37007874015748143 ) ;
#122 = COLOUR_RGB ( '',0.7921568627450980005, 0.8196078431372548767, 0.9333333333333333481 ) ;
#123 = DIRECTION ( 'NONE',  ( -0.000000000000000000, -1.000000000000000000, -0.000000000000000000 ) ) ;
#124 = ADVANCED_FACE ( 'NONE', ( #47 ), #20, .T. ) ;
#125 = DIRECTION ( 'NONE',  ( -1.227993083434185205E-16, 1.000000000000000000, -0.000000000000000000 ) ) ;
#126 =( GEOMETRIC_REPRESENTATION_CONTEXT ( 3 ) GLOBAL_UNCERTAINTY_ASSIGNED_CONTEXT ( ( #29 ) ) GLOBAL_UNIT_ASSIGNED_CONTEXT ( ( #212, #25, #141 ) ) REPRESENTATION_CONTEXT ( 'NONE', 'WORKASPACE' ) );
#127 = PRESENTATION_LAYER_ASSIGNMENT (  '', '', ( #283 ) ) ;
#128 = ORIENTED_EDGE ( 'NONE', *, *, #38, .F. ) ;
#129 = PRODUCT_DEFINITION_FORMATION_WITH_SPECIFIED_SOURCE ( 'ANY', '', #66, .NOT_KNOWN. ) ;
#130 = DIRECTION ( 'NONE',  ( -0.000000000000000000, -1.000000000000000000, -0.000000000000000000 ) ) ;
#131 = DIRECTION ( 'NONE',  ( 0.000000000000000000, 0.000000000000000000, -1.000000000000000000 ) ) ;
#132 = FILL_AREA_STYLE ('',( #179 ) ) ;
#133 =( NAMED_UNIT ( * ) SI_UNIT ( $, .STERADIAN. ) SOLID_ANGLE_UNIT ( ) );
#134 = SURFACE_SIDE_STYLE ('',( #182 ) ) ;
#135 = AXIS2_PLACEMENT_3D ( 'NONE', #343, #8, #266 ) ;
#136 = DIRECTION ( 'NONE',  ( 0.000000000000000000, 0.000000000000000000, -1.000000000000000000 ) ) ;
#137 = DIRECTION ( 'NONE',  ( 0.000000000000000000, 0.000000000000000000, 1.000000000000000000 ) ) ;
#138 = LENGTH_MEASURE_WITH_UNIT ( LENGTH_MEASURE( 0.02539999999999999897 ), #27 );
#139 = ADVANCED_FACE ( 'NONE', ( #183 ), #223, .T. ) ;
#140 = LENGTH_MEASURE_WITH_UNIT ( LENGTH_MEASURE( 0.02539999999999999897 ), #113 );
#141 =( NAMED_UNIT ( * ) SI_UNIT ( $, .STERADIAN. ) SOLID_ANGLE_UNIT ( ) );
#142 =( NAMED_UNIT ( * ) PLANE_ANGLE_UNIT ( ) SI_UNIT ( $, .RADIAN. ) );
#143 = FILL_AREA_STYLE ('',( #299 ) ) ;
#144 = AXIS2_PLACEMENT_3D ( 'NONE', #310, #163, #87 ) ;
#145 = SURFACE_STYLE_USAGE ( .BOTH. , #192 ) ;
#146 = SURFACE_STYLE_FILL_AREA ( #247 ) ;
#147 = EDGE_LOOP ( 'NONE', ( #319, #203, #58, #3 ) ) ;
#148 = DIRECTION ( 'NONE',  ( -0.000000000000000000, -1.000000000000000000, -0.000000000000000000 ) ) ;
#149 = CIRCLE ( 'NONE', #345, 0.1249999999999999861 ) ;
#150 = EDGE_LOOP ( 'NONE', ( #151, #338, #14, #74 ) ) ;
#151 = ORIENTED_EDGE ( 'NONE', *, *, #330, .F. ) ;
#152 = FACE_OUTER_BOUND ( 'NONE', #215, .T. ) ;
#153 = VECTOR ( 'NONE', #130, 39.37007874015748143 ) ;
#154 = CARTESIAN_POINT ( 'NONE',  ( -0.1250000000000001110, 2.500000000000000000, 0.000000000000000000 ) ) ;
#155 = CARTESIAN_POINT ( 'NONE',  ( 1.536664496436147691E-16, 0.7499999999999998890, 0.000000000000000000 ) ) ;
#156 = LENGTH_MEASURE_WITH_UNIT ( LENGTH_MEASURE( 0.02539999999999999897 ), #232 );
#157 = COLOUR_RGB ( '',0.7921568627450980005, 0.8196078431372548767, 0.9333333333333333481 ) ;
#158 = AXIS2_PLACEMENT_3D ( 'NONE', #22, #174, #65 ) ;
#159 =( LENGTH_UNIT ( ) NAMED_UNIT ( * ) SI_UNIT ( $, .METRE. ) );
#160 = CARTESIAN_POINT ( 'NONE',  ( 0.000000000000000000, 0.7500000000000001110, 0.000000000000000000 ) ) ;
#161 = DIMENSIONAL_EXPONENTS ( 1.000000000000000000, 0.000000000000000000, 0.000000000000000000, 0.000000000000000000, 0.000000000000000000, 0.000000000000000000, 0.000000000000000000 ) ;
#162 = UNCERTAINTY_MEASURE_WITH_UNIT (LENGTH_MEASURE( 1.000000000000000082E-05 ), #274, 'distance_accuracy_value', 'NONE');
#163 = DIRECTION ( 'NONE',  ( -1.227993083434185205E-16, 1.000000000000000000, -0.000000000000000000 ) ) ;
#164 = STYLED_ITEM ( 'NONE', ( #318 ), #237 ) ;
#165 = CARTESIAN_POINT ( 'NONE',  ( -6.123233995736766036E-17, 2.500000000000000000, 0.000000000000000000 ) ) ;
#166 = DIMENSIONAL_EXPONENTS ( 1.000000000000000000, 0.000000000000000000, 0.000000000000000000, 0.000000000000000000, 0.000000000000000000, 0.000000000000000000, 0.000000000000000000 ) ;
#167 = PLANE ( 'NONE',  #107 ) ;
#168 = UNCERTAINTY_MEASURE_WITH_UNIT (LENGTH_MEASURE( 1.000000000000000082E-05 ), #173, 'distance_accuracy_value', 'NONE');
#169 = DIRECTION ( 'NONE',  ( -1.227993083434185205E-16, 1.000000000000000000, -0.000000000000000000 ) ) ;
#170 = ADVANCED_FACE ( 'NONE', ( #269 ), #301, .T. ) ;
#171 = DIRECTION ( 'NONE',  ( -1.000000000000000000, 0.000000000000000000, 0.000000000000000000 ) ) ;
#172 = ORIENTED_EDGE ( 'NONE', *, *, #255, .T. ) ;
#173 =( CONVERSION_BASED_UNIT ( 'INCH', #249 ) LENGTH_UNIT ( ) NAMED_UNIT ( #82 ) );
#174 = DIRECTION ( 'NONE',  ( -1.227993083434185205E-16, 1.000000000000000000, -0.000000000000000000 ) ) ;
#175 = LINE ( 'NONE', #68, #251 ) ;
#176 = MECHANICAL_DESIGN_GEOMETRIC_PRESENTATION_REPRESENTATION (  '', ( #75 ), #81 ) ;
#177 = ORIENTED_EDGE ( 'NONE', *, *, #196, .F. ) ;
#178 = DIRECTION ( 'NONE',  ( -0.000000000000000000, -1.000000000000000000, -0.000000000000000000 ) ) ;
#179 = FILL_AREA_STYLE_COLOUR ( '', #122 ) ;
#180 = SURFACE_SIDE_STYLE ('',( #328 ) ) ;
#181 = CARTESIAN_POINT ( 'NONE',  ( 1.536664496436147691E-16, 0.7499999999999998890, 0.000000000000000000 ) ) ;
#182 = SURFACE_STYLE_FILL_AREA ( #132 ) ;
#183 = FACE_OUTER_BOUND ( 'NONE', #119, .T. ) ;
#184 =( GEOMETRIC_REPRESENTATION_CONTEXT ( 3 ) GLOBAL_UNCERTAINTY_ASSIGNED_CONTEXT ( ( #300 ) ) GLOBAL_UNIT_ASSIGNED_CONTEXT ( ( #31, #53, #2 ) ) REPRESENTATION_CONTEXT ( 'NONE', 'WORKASPACE' ) );
#185 = COLOUR_RGB ( '',1.000000000000000000, 0.000000000000000000, 0.000000000000000000 ) ;
#186 =( NAMED_UNIT ( * ) PLANE_ANGLE_UNIT ( ) SI_UNIT ( $, .RADIAN. ) );
#187 = SURFACE_SIDE_STYLE ('',( #306 ) ) ;
#188 = SHAPE_DEFINITION_REPRESENTATION ( #7, #60 ) ;
#189 = DIRECTION ( 'NONE',  ( 1.000000000000000000, 0.000000000000000000, 0.000000000000000000 ) ) ;
#190 = EDGE_LOOP ( 'NONE', ( #308, #288, #90 ) ) ;
#191 = VECTOR ( 'NONE', #294, 39.37007874015748143 ) ;
#192 = SURFACE_SIDE_STYLE ('',( #51 ) ) ;
#193 = SURFACE_SIDE_STYLE ('',( #270 ) ) ;
#194 = ADVANCED_FACE ( 'NONE', ( #118 ), #334, .F. ) ;
#195 = PRODUCT_DEFINITION_CONTEXT ( 'detailed design', #202, 'design' ) ;
#196 = EDGE_CURVE ( 'NONE', #12, #89, #346, .T. ) ;
#197 = CARTESIAN_POINT ( 'NONE',  ( 0.1249999999999999861, 2.500000000000000000, 0.000000000000000000 ) ) ;
#198 = ORIENTED_EDGE ( 'NONE', *, *, #255, .F. ) ;
#199 = CYLINDRICAL_SURFACE ( 'NONE', #144, 0.1249999999999999306 ) ;
#200 = CARTESIAN_POINT ( 'NONE',  ( 0.000000000000000000, 0.2165063509461090385, 0.000000000000000000 ) ) ;
#201 = VERTEX_POINT ( 'NONE', #305 ) ;
#202 = APPLICATION_CONTEXT ( 'automotive_design' ) ;
#203 = ORIENTED_EDGE ( 'NONE', *, *, #248, .T. ) ;
#204 = AXIS2_PLACEMENT_3D ( 'NONE', #349, #110, #220 ) ;
#205 = ADVANCED_FACE ( 'NONE', ( #35 ), #199, .T. ) ;
#206 = CARTESIAN_POINT ( 'NONE',  ( 0.000000000000000000, 0.7500000000000001110, 0.000000000000000000 ) ) ;
#207 = DIRECTION ( 'NONE',  ( -0.000000000000000000, -1.000000000000000000, -0.000000000000000000 ) ) ;
#208 = ORIENTED_EDGE ( 'NONE', *, *, #196, .T. ) ;
#209 = PRESENTATION_LAYER_ASSIGNMENT (  '', '', ( #242 ) ) ;
#210 = DIRECTION ( 'NONE',  ( 0.000000000000000000, -0.000000000000000000, 1.000000000000000000 ) ) ;
#211 = DIRECTION ( 'NONE',  ( 0.000000000000000000, 1.000000000000000000, 0.000000000000000000 ) ) ;
#212 =( CONVERSION_BASED_UNIT ( 'INCH', #97 ) LENGTH_UNIT ( ) NAMED_UNIT ( #161 ) );
#213 = CIRCLE ( 'NONE', #219, 0.1249999999999999861 ) ;
#214 = CIRCLE ( 'NONE', #108, 0.1249999999999999861 ) ;
#215 = EDGE_LOOP ( 'NONE', ( #72, #336 ) ) ;
#216 =( NAMED_UNIT ( * ) PLANE_ANGLE_UNIT ( ) SI_UNIT ( $, .RADIAN. ) );
#217 = SURFACE_STYLE_USAGE ( .BOTH. , #187 ) ;
#218 = APPLICATION_PROTOCOL_DEFINITION ( 'draft international standard', 'automotive_design', 1998, #293 ) ;
#219 = AXIS2_PLACEMENT_3D ( 'NONE', #227, #178, #131 ) ;
#220 = DIRECTION ( 'NONE',  ( 0.000000000000000000, 0.000000000000000000, 1.000000000000000000 ) ) ;
#221 = MECHANICAL_DESIGN_GEOMETRIC_PRESENTATION_REPRESENTATION (  '', ( #42 ), #276 ) ;
#222 = LENGTH_MEASURE_WITH_UNIT ( LENGTH_MEASURE( 0.02539999999999999897 ), #6 );
#223 = CONICAL_SURFACE ( 'NONE', #204, 22.73032555864674364, 0.5235987755983000369 ) ;
#224 = AXIS2_PLACEMENT_3D ( 'NONE', #105, #137, #189 ) ;
#225 = CARTESIAN_POINT ( 'NONE',  ( 0.000000000000000000, 0.000000000000000000, 0.000000000000000000 ) ) ;
#226 = ADVANCED_FACE ( 'NONE', ( #4 ), #54, .T. ) ;
#227 = CARTESIAN_POINT ( 'NONE',  ( 0.000000000000000000, 0.2165063509461090385, 0.000000000000000000 ) ) ;
#228 = COLOUR_RGB ( '',1.000000000000000000, 0.000000000000000000, 0.000000000000000000 ) ;
#229 = EDGE_LOOP ( 'NONE', ( #312, #91, #198, #231 ) ) ;
#230 = LINE ( 'NONE', #10, #121 ) ;
#231 = ORIENTED_EDGE ( 'NONE', *, *, #311, .F. ) ;
#232 =( LENGTH_UNIT ( ) NAMED_UNIT ( * ) SI_UNIT ( $, .METRE. ) );
#233 = DIRECTION ( 'NONE',  ( -0.000000000000000000, -1.000000000000000000, -0.000000000000000000 ) ) ;
#234 = CIRCLE ( 'NONE', #263, 0.1249999999999998335 ) ;
#235 = DIRECTION ( 'NONE',  ( 0.000000000000000000, 0.000000000000000000, 1.000000000000000000 ) ) ;
#236 = UNCERTAINTY_MEASURE_WITH_UNIT (LENGTH_MEASURE( 1.000000000000000082E-05 ), #292, 'distance_accuracy_value', 'NONE');
#237 = MANIFOLD_SOLID_BREP ( 'Revolve - Cutting Edge', #52 ) ;
#238 = SURFACE_STYLE_FILL_AREA ( #26 ) ;
#239 = CARTESIAN_POINT ( 'NONE',  ( 0.1249999999999999861, 2.500000000000000000, 1.530808498934191509E-17 ) ) ;
#240 = DIMENSIONAL_EXPONENTS ( 1.000000000000000000, 0.000000000000000000, 0.000000000000000000, 0.000000000000000000, 0.000000000000000000, 0.000000000000000000, 0.000000000000000000 ) ;
#241 = COLOUR_RGB ( '',1.000000000000000000, 0.000000000000000000, 0.000000000000000000 ) ;
#242 = STYLED_ITEM ( 'NONE', ( #325 ), #124 ) ;
#243 =( NAMED_UNIT ( * ) PLANE_ANGLE_UNIT ( ) SI_UNIT ( $, .RADIAN. ) );
#244 = ADVANCED_FACE ( 'NONE', ( #152 ), #259, .F. ) ;
#245 = FACE_OUTER_BOUND ( 'NONE', #36, .T. ) ;
#246 = DIRECTION ( 'NONE',  ( 1.227993083434185205E-16, -1.000000000000000000, 0.000000000000000000 ) ) ;
#247 = FILL_AREA_STYLE ('',( #112 ) ) ;
#248 = EDGE_CURVE ( 'NONE', #56, #201, #69, .T. ) ;
#249 = LENGTH_MEASURE_WITH_UNIT ( LENGTH_MEASURE( 0.02539999999999999897 ), #335 );
#250 = DIRECTION ( 'NONE',  ( 0.000000000000000000, 0.000000000000000000, -1.000000000000000000 ) ) ;
#251 = VECTOR ( 'NONE', #125, 39.37007874015748143 ) ;
#252 = COLOUR_RGB ( '',1.000000000000000000, 0.000000000000000000, 0.000000000000000000 ) ;
#253 = ORIENTED_EDGE ( 'NONE', *, *, #106, .T. ) ;
#254 = PRODUCT_RELATED_PRODUCT_CATEGORY ( 'part', '', ( #66 ) ) ;
#255 = EDGE_CURVE ( 'NONE', #70, #280, #115, .T. ) ;
#256 = MECHANICAL_DESIGN_GEOMETRIC_PRESENTATION_REPRESENTATION (  '', ( #80 ), #62 ) ;
#257 = DIRECTION ( 'NONE',  ( -1.000000000000000000, -1.227993083434185205E-16, 0.000000000000000000 ) ) ;
#258 = DIRECTION ( 'NONE',  ( 0.000000000000000000, 0.8660254037844380415, 0.5000000000000009992 ) ) ;
#259 = PLANE ( 'NONE',  #284 ) ;
#260 = FILL_AREA_STYLE_COLOUR ( '', #241 ) ;
#261 = DIRECTION ( 'NONE',  ( -1.227993083434185205E-16, 1.000000000000000000, 0.000000000000000000 ) ) ;
#262 = LENGTH_MEASURE_WITH_UNIT ( LENGTH_MEASURE( 0.02539999999999999897 ), #159 );
#263 = AXIS2_PLACEMENT_3D ( 'NONE', #181, #45, #326 ) ;
#264 = DIRECTION ( 'NONE',  ( -0.000000000000000000, -1.000000000000000000, -0.000000000000000000 ) ) ;
#265 = AXIS2_PLACEMENT_3D ( 'NONE', #155, #94, #323 ) ;
#266 = DIRECTION ( 'NONE',  ( -1.000000000000000000, 0.000000000000000000, 0.000000000000000000 ) ) ;
#267 = FILL_AREA_STYLE_COLOUR ( '', #157 ) ;
#268 =( GEOMETRIC_REPRESENTATION_CONTEXT ( 3 ) GLOBAL_UNCERTAINTY_ASSIGNED_CONTEXT ( ( #162 ) ) GLOBAL_UNIT_ASSIGNED_CONTEXT ( ( #274, #142, #279 ) ) REPRESENTATION_CONTEXT ( 'NONE', 'WORKASPACE' ) );
#269 = FACE_OUTER_BOUND ( 'NONE', #150, .T. ) ;
#270 = SURFACE_STYLE_FILL_AREA ( #143 ) ;
#271 = VERTEX_POINT ( 'NONE', #78 ) ;
#272 = DIRECTION ( 'NONE',  ( -0.000000000000000000, -1.000000000000000000, -0.000000000000000000 ) ) ;
#273 = SURFACE_STYLE_USAGE ( .BOTH. , #193 ) ;
#274 =( CONVERSION_BASED_UNIT ( 'INCH', #222 ) LENGTH_UNIT ( ) NAMED_UNIT ( #240 ) );
#275 = PRESENTATION_LAYER_ASSIGNMENT (  '', '', ( #80 ) ) ;
#276 =( GEOMETRIC_REPRESENTATION_CONTEXT ( 3 ) GLOBAL_UNCERTAINTY_ASSIGNED_CONTEXT ( ( #168 ) ) GLOBAL_UNIT_ASSIGNED_CONTEXT ( ( #173, #216, #84 ) ) REPRESENTATION_CONTEXT ( 'NONE', 'WORKASPACE' ) );
#277 = DIRECTION ( 'NONE',  ( 0.000000000000000000, 0.000000000000000000, -1.000000000000000000 ) ) ;
#278 = EDGE_CURVE ( 'NONE', #89, #12, #15, .T. ) ;
#279 =( NAMED_UNIT ( * ) SI_UNIT ( $, .STERADIAN. ) SOLID_ANGLE_UNIT ( ) );
#280 = VERTEX_POINT ( 'NONE', #281 ) ;
#281 = CARTESIAN_POINT ( 'NONE',  ( 1.530808498934191201E-17, 0.2165063509461090385, 0.1249999999999999861 ) ) ;
#282 = FACE_OUTER_BOUND ( 'NONE', #147, .T. ) ;
#283 = STYLED_ITEM ( 'NONE', ( #57 ), #109 ) ;
#284 = AXIS2_PLACEMENT_3D ( 'NONE', #324, #261, #257 ) ;
#285 = CARTESIAN_POINT ( 'NONE',  ( 0.000000000000000000, 0.7500000000000001110, -0.1249999999999999861 ) ) ;
#286 = EDGE_CURVE ( 'NONE', #340, #64, #214, .T. ) ;
#287 = CYLINDRICAL_SURFACE ( 'NONE', #135, 0.1249999999999999306 ) ;
#288 = ORIENTED_EDGE ( 'NONE', *, *, #19, .T. ) ;
#289 =( LENGTH_UNIT ( ) NAMED_UNIT ( * ) SI_UNIT ( $, .METRE. ) );
#290 = ORIENTED_EDGE ( 'NONE', *, *, #93, .T. ) ;
#291 = SURFACE_STYLE_USAGE ( .BOTH. , #180 ) ;
#292 =( CONVERSION_BASED_UNIT ( 'INCH', #156 ) LENGTH_UNIT ( ) NAMED_UNIT ( #21 ) );
#293 = APPLICATION_CONTEXT ( 'automotive_design' ) ;
#294 = DIRECTION ( 'NONE',  ( 6.123233995736778362E-17, 0.8660254037844380415, -0.5000000000000009992 ) ) ;
#295 =( NAMED_UNIT ( * ) SI_UNIT ( $, .STERADIAN. ) SOLID_ANGLE_UNIT ( ) );
#296 = FILL_AREA_STYLE_COLOUR ( '', #185 ) ;
#297 = UNCERTAINTY_MEASURE_WITH_UNIT (LENGTH_MEASURE( 1.000000000000000082E-05 ), #104, 'distance_accuracy_value', 'NONE');
#298 =( NAMED_UNIT ( * ) SI_UNIT ( $, .STERADIAN. ) SOLID_ANGLE_UNIT ( ) );
#299 = FILL_AREA_STYLE_COLOUR ( '', #228 ) ;
#300 = UNCERTAINTY_MEASURE_WITH_UNIT (LENGTH_MEASURE( 1.000000000000000082E-05 ), #31, 'distance_accuracy_value', 'NONE');
#301 = CYLINDRICAL_SURFACE ( 'NONE', #341, 0.1249999999999999861 ) ;
#302 =( NAMED_UNIT ( * ) PLANE_ANGLE_UNIT ( ) SI_UNIT ( $, .RADIAN. ) );
#303 = VECTOR ( 'NONE', #17, 39.37007874015748143 ) ;
#304 = AXIS2_PLACEMENT_3D ( 'NONE', #351, #233, #136 ) ;
#305 = CARTESIAN_POINT ( 'NONE',  ( -0.1249999999999996808, 0.7499999999999998890, 0.000000000000000000 ) ) ;
#306 = SURFACE_STYLE_FILL_AREA ( #50 ) ;
#307 = DIRECTION ( 'NONE',  ( 1.000000000000000000, 1.227993083434185205E-16, 0.000000000000000000 ) ) ;
#308 = ORIENTED_EDGE ( 'NONE', *, *, #93, .F. ) ;
#309 = AXIS2_PLACEMENT_3D ( 'NONE', #197, #246, #307 ) ;
#310 = CARTESIAN_POINT ( 'NONE',  ( -6.123233995736766036E-17, 2.500000000000000000, 0.000000000000000000 ) ) ;
#311 = EDGE_CURVE ( 'NONE', #64, #70, #16, .T. ) ;
#312 = ORIENTED_EDGE ( 'NONE', *, *, #38, .T. ) ;
#313 = ORIENTED_EDGE ( 'NONE', *, *, #13, .F. ) ;
#314 = AXIS2_PLACEMENT_3D ( 'NONE', #200, #264, #337 ) ;
#315 = MECHANICAL_DESIGN_GEOMETRIC_PRESENTATION_REPRESENTATION (  '', ( #164 ), #86 ) ;
#316 = EDGE_LOOP ( 'NONE', ( #253, #39, #177, #313 ) ) ;
#317 = LINE ( 'NONE', #225, #98 ) ;
#318 = PRESENTATION_STYLE_ASSIGNMENT (( #71 ) ) ;
#319 = ORIENTED_EDGE ( 'NONE', *, *, #33, .F. ) ;
#320 =( CONVERSION_BASED_UNIT ( 'INCH', #262 ) LENGTH_UNIT ( ) NAMED_UNIT ( #166 ) );
#321 = AXIS2_PLACEMENT_3D ( 'NONE', #5, #120, #235 ) ;
#322 = LINE ( 'NONE', #102, #191 ) ;
#323 = DIRECTION ( 'NONE',  ( -1.000000000000000000, 0.000000000000000000, 0.000000000000000000 ) ) ;
#324 = CARTESIAN_POINT ( 'NONE',  ( 1.536664496436148184E-16, 0.7500000000000001110, 0.000000000000000000 ) ) ;
#325 = PRESENTATION_STYLE_ASSIGNMENT (( #100 ) ) ;
#326 = DIRECTION ( 'NONE',  ( -1.000000000000000000, 0.000000000000000000, 0.000000000000000000 ) ) ;
#327 = UNCERTAINTY_MEASURE_WITH_UNIT (LENGTH_MEASURE( 1.000000000000000082E-05 ), #111, 'distance_accuracy_value', 'NONE');
#328 = SURFACE_STYLE_FILL_AREA ( #76 ) ;
#329 = PRESENTATION_STYLE_ASSIGNMENT (( #116 ) ) ;
#330 = EDGE_CURVE ( 'NONE', #340, #280, #230, .T. ) ;
#331 = SURFACE_SIDE_STYLE ('',( #146 ) ) ;
#332 = APPLICATION_PROTOCOL_DEFINITION ( 'draft international standard', 'automotive_design', 1998, #202 ) ;
#333 =( GEOMETRIC_REPRESENTATION_CONTEXT ( 3 ) GLOBAL_UNCERTAINTY_ASSIGNED_CONTEXT ( ( #79 ) ) GLOBAL_UNIT_ASSIGNED_CONTEXT ( ( #320, #243, #133 ) ) REPRESENTATION_CONTEXT ( 'NONE', 'WORKASPACE' ) );
#334 = PLANE ( 'NONE',  #309 ) ;
#335 =( LENGTH_UNIT ( ) NAMED_UNIT ( * ) SI_UNIT ( $, .METRE. ) );
#336 = ORIENTED_EDGE ( 'NONE', *, *, #248, .F. ) ;
#337 = DIRECTION ( 'NONE',  ( 0.000000000000000000, 0.000000000000000000, -1.000000000000000000 ) ) ;
#338 = ORIENTED_EDGE ( 'NONE', *, *, #286, .T. ) ;
#339 = LINE ( 'NONE', #67, #303 ) ;
#340 = VERTEX_POINT ( 'NONE', #73 ) ;
#341 = AXIS2_PLACEMENT_3D ( 'NONE', #61, #272, #277 ) ;
#342 = DIRECTION ( 'NONE',  ( 0.000000000000000000, 0.000000000000000000, -1.000000000000000000 ) ) ;
#343 = CARTESIAN_POINT ( 'NONE',  ( -6.123233995736766036E-17, 2.500000000000000000, 0.000000000000000000 ) ) ;
#344 = CARTESIAN_POINT ( 'NONE',  ( 0.000000000000000000, 0.000000000000000000, -0.1249999999999999861 ) ) ;
#345 = AXIS2_PLACEMENT_3D ( 'NONE', #206, #123, #250 ) ;
#346 = CIRCLE ( 'NONE', #92, 0.1250000000000000555 ) ;
#347 = PRESENTATION_STYLE_ASSIGNMENT (( #291 ) ) ;
#348 = DIMENSIONAL_EXPONENTS ( 1.000000000000000000, 0.000000000000000000, 0.000000000000000000, 0.000000000000000000, 0.000000000000000000, 0.000000000000000000, 0.000000000000000000 ) ;
#349 = CARTESIAN_POINT ( 'NONE',  ( 0.000000000000000000, 39.37007874015748143, 0.000000000000000000 ) ) ;
#350 = PRESENTATION_STYLE_ASSIGNMENT (( #273 ) ) ;
#351 = CARTESIAN_POINT ( 'NONE',  ( 0.000000000000000000, 0.000000000000000000, 0.000000000000000000 ) ) ;
ENDSEC;
END-ISO-10303-21;
