ISO-10303-21;
HEADER;
FILE_DESCRIPTION (( 'STEP AP214' ),
    '1' );
FILE_NAME ('59252.STEP',
    '2023-06-22T22:10:53',
    ( '' ),
    ( '' ),
    'SwSTEP 2.0',
    'SolidWorks 2023',
    '' );
FILE_SCHEMA (( 'AUTOMOTIVE_DESIGN' ));
ENDSEC;

DATA;
#1 = CIRCLE ( 'NONE', #6, 0.1250000000000000555 ) ;
#2 = ADVANCED_FACE ( 'NONE', ( #255 ), #69, .F. ) ;
#3 = LINE ( 'NONE', #195, #124 ) ;
#4 = COLOUR_RGB ( '',1.000000000000000000, 0.000000000000000000, 0.000000000000000000 ) ;
#5 =( NAMED_UNIT ( * ) SI_UNIT ( $, .STERADIAN. ) SOLID_ANGLE_UNIT ( ) );
#6 = AXIS2_PLACEMENT_3D ( 'NONE', #282, #149, #286 ) ;
#7 = SURFACE_STYLE_USAGE ( .BOTH. , #288 ) ;
#8 = ORIENTED_EDGE ( 'NONE', *, *, #12, .T. ) ;
#9 = CARTESIAN_POINT ( 'NONE',  ( 0.000000000000000000, 0.7500000000000001110, 0.000000000000000000 ) ) ;
#10 = ORIENTED_EDGE ( 'NONE', *, *, #187, .T. ) ;
#11 = SURFACE_STYLE_USAGE ( .BOTH. , #291 ) ;
#12 = EDGE_CURVE ( 'NONE', #126, #186, #243, .T. ) ;
#13 = ORIENTED_EDGE ( 'NONE', *, *, #142, .F. ) ;
#14 = CYLINDRICAL_SURFACE ( 'NONE', #123, 0.1250000000000000278 ) ;
#15 = DIRECTION ( 'NONE',  ( 0.000000000000000000, 0.000000000000000000, -1.000000000000000000 ) ) ;
#16 = EDGE_LOOP ( 'NONE', ( #205, #157, #308, #269 ) ) ;
#17 = ADVANCED_BREP_SHAPE_REPRESENTATION ( '59252', ( #80, #285, #82 ), #40 ) ;
#18 = CIRCLE ( 'NONE', #152, 0.1250000000000000000 ) ;
#19 = DIRECTION ( 'NONE',  ( 0.000000000000000000, -0.000000000000000000, 1.000000000000000000 ) ) ;
#20 = SURFACE_SIDE_STYLE ('',( #162 ) ) ;
#21 = FILL_AREA_STYLE ('',( #259 ) ) ;
#22 = CARTESIAN_POINT ( 'NONE',  ( 0.1250000000000000000, 2.500000000000000000, 0.000000000000000000 ) ) ;
#23 = PRODUCT_RELATED_PRODUCT_CATEGORY ( 'part', '', ( #118 ) ) ;
#24 = UNCERTAINTY_MEASURE_WITH_UNIT (LENGTH_MEASURE( 1.000000000000000082E-05 ), #43, 'distance_accuracy_value', 'NONE');
#25 = CIRCLE ( 'NONE', #193, 0.1250000000000000000 ) ;
#26 = LENGTH_MEASURE_WITH_UNIT ( LENGTH_MEASURE( 0.02539999999999999897 ), #219 );
#27 = CARTESIAN_POINT ( 'NONE',  ( 0.000000000000000000, 0.000000000000000000, 0.000000000000000000 ) ) ;
#28 = CIRCLE ( 'NONE', #158, 0.1250000000000000278 ) ;
#29 = DIRECTION ( 'NONE',  ( 0.000000000000000000, 0.000000000000000000, -1.000000000000000000 ) ) ;
#30 =( NAMED_UNIT ( * ) PLANE_ANGLE_UNIT ( ) SI_UNIT ( $, .RADIAN. ) );
#31 =( GEOMETRIC_REPRESENTATION_CONTEXT ( 3 ) GLOBAL_UNCERTAINTY_ASSIGNED_CONTEXT ( ( #121 ) ) GLOBAL_UNIT_ASSIGNED_CONTEXT ( ( #275, #229, #296 ) ) REPRESENTATION_CONTEXT ( 'NONE', 'WORKASPACE' ) );
#32 = CARTESIAN_POINT ( 'NONE',  ( 0.000000000000000000, 0.000000000000000000, 0.000000000000000000 ) ) ;
#33 = CIRCLE ( 'NONE', #39, 0.1250000000000000000 ) ;
#34 = PLANE ( 'NONE',  #37 ) ;
#35 = LENGTH_MEASURE_WITH_UNIT ( LENGTH_MEASURE( 0.02539999999999999897 ), #105 );
#36 = EDGE_LOOP ( 'NONE', ( #227, #206 ) ) ;
#37 = AXIS2_PLACEMENT_3D ( 'NONE', #253, #188, #19 ) ;
#38 = FACE_OUTER_BOUND ( 'NONE', #16, .T. ) ;
#39 = AXIS2_PLACEMENT_3D ( 'NONE', #92, #214, #140 ) ;
#40 =( GEOMETRIC_REPRESENTATION_CONTEXT ( 3 ) GLOBAL_UNCERTAINTY_ASSIGNED_CONTEXT ( ( #53 ) ) GLOBAL_UNIT_ASSIGNED_CONTEXT ( ( #112, #207, #88 ) ) REPRESENTATION_CONTEXT ( 'NONE', 'WORKASPACE' ) );
#41 =( LENGTH_UNIT ( ) NAMED_UNIT ( * ) SI_UNIT ( $, .METRE. ) );
#42 = FILL_AREA_STYLE ('',( #254 ) ) ;
#43 =( CONVERSION_BASED_UNIT ( 'INCH', #145 ) LENGTH_UNIT ( ) NAMED_UNIT ( #202 ) );
#44 = AXIS2_PLACEMENT_3D ( 'NONE', #236, #48, #115 ) ;
#45 = ORIENTED_EDGE ( 'NONE', *, *, #244, .T. ) ;
#46 = SURFACE_STYLE_FILL_AREA ( #21 ) ;
#47 = PRODUCT_DEFINITION_SHAPE ( 'NONE', 'NONE',  #239 ) ;
#48 = DIRECTION ( 'NONE',  ( -3.498990854706719663E-17, 1.000000000000000000, -0.000000000000000000 ) ) ;
#49 = MECHANICAL_DESIGN_GEOMETRIC_PRESENTATION_REPRESENTATION (  '', ( #181 ), #295 ) ;
#50 =( LENGTH_UNIT ( ) NAMED_UNIT ( * ) SI_UNIT ( $, .METRE. ) );
#51 = EDGE_CURVE ( 'NONE', #179, #212, #18, .T. ) ;
#52 = DIRECTION ( 'NONE',  ( -1.000000000000000000, 0.000000000000000000, 0.000000000000000000 ) ) ;
#53 = UNCERTAINTY_MEASURE_WITH_UNIT (LENGTH_MEASURE( 1.000000000000000082E-05 ), #112, 'distance_accuracy_value', 'NONE');
#54 = CARTESIAN_POINT ( 'NONE',  ( -0.1250000000000001110, 2.500000000000000000, 0.000000000000000000 ) ) ;
#55 =( GEOMETRIC_REPRESENTATION_CONTEXT ( 3 ) GLOBAL_UNCERTAINTY_ASSIGNED_CONTEXT ( ( #24 ) ) GLOBAL_UNIT_ASSIGNED_CONTEXT ( ( #43, #65, #116 ) ) REPRESENTATION_CONTEXT ( 'NONE', 'WORKASPACE' ) );
#56 = FACE_OUTER_BOUND ( 'NONE', #154, .T. ) ;
#57 = DIRECTION ( 'NONE',  ( -1.000000000000000000, 0.000000000000000000, 0.000000000000000000 ) ) ;
#58 = DIRECTION ( 'NONE',  ( -3.498990854706719663E-17, 1.000000000000000000, -0.000000000000000000 ) ) ;
#59 = AXIS2_PLACEMENT_3D ( 'NONE', #234, #278, #257 ) ;
#60 = FILL_AREA_STYLE ('',( #131 ) ) ;
#61 =( GEOMETRIC_REPRESENTATION_CONTEXT ( 3 ) GLOBAL_UNCERTAINTY_ASSIGNED_CONTEXT ( ( #169 ) ) GLOBAL_UNIT_ASSIGNED_CONTEXT ( ( #192, #119, #96 ) ) REPRESENTATION_CONTEXT ( 'NONE', 'WORKASPACE' ) );
#62 = ORIENTED_EDGE ( 'NONE', *, *, #51, .T. ) ;
#63 = FACE_OUTER_BOUND ( 'NONE', #68, .T. ) ;
#64 = DIRECTION ( 'NONE',  ( 0.000000000000000000, 0.000000000000000000, 1.000000000000000000 ) ) ;
#65 =( NAMED_UNIT ( * ) PLANE_ANGLE_UNIT ( ) SI_UNIT ( $, .RADIAN. ) );
#66 = MECHANICAL_DESIGN_GEOMETRIC_PRESENTATION_REPRESENTATION (  '', ( #290 ), #235 ) ;
#67 = EDGE_CURVE ( 'NONE', #79, #277, #33, .T. ) ;
#68 = EDGE_LOOP ( 'NONE', ( #130, #135 ) ) ;
#69 = PLANE ( 'NONE',  #228 ) ;
#70 = CARTESIAN_POINT ( 'NONE',  ( 0.000000000000000000, 0.000000000000000000, 0.000000000000000000 ) ) ;
#71 = CARTESIAN_POINT ( 'NONE',  ( -6.123233995736759873E-17, 2.500000000000000000, 0.000000000000000000 ) ) ;
#72 = LINE ( 'NONE', #54, #164 ) ;
#73 = ADVANCED_FACE ( 'NONE', ( #298 ), #280, .T. ) ;
#74 = PRESENTATION_LAYER_ASSIGNMENT (  '', '', ( #98 ) ) ;
#75 = PRESENTATION_LAYER_ASSIGNMENT (  '', '', ( #233 ) ) ;
#76 = LINE ( 'NONE', #216, #304 ) ;
#77 =( LENGTH_UNIT ( ) NAMED_UNIT ( * ) SI_UNIT ( $, .METRE. ) );
#78 = CARTESIAN_POINT ( 'NONE',  ( 0.000000000000000000, 0.7499999999999998890, 0.000000000000000000 ) ) ;
#79 = VERTEX_POINT ( 'NONE', #85 ) ;
#80 = MANIFOLD_SOLID_BREP ( 'Revolve - Cutting Edge', #281 ) ;
#81 = ADVANCED_FACE ( 'NONE', ( #56 ), #190, .T. ) ;
#82 = AXIS2_PLACEMENT_3D ( 'NONE', #84, #64, #144 ) ;
#83 = COLOUR_RGB ( '',1.000000000000000000, 0.000000000000000000, 0.000000000000000000 ) ;
#84 = CARTESIAN_POINT ( 'NONE',  ( 0.000000000000000000, 0.000000000000000000, 0.000000000000000000 ) ) ;
#85 = CARTESIAN_POINT ( 'NONE',  ( -0.1250000000000000000, 0.7499999999999998890, 0.000000000000000000 ) ) ;
#86 = PRESENTATION_STYLE_ASSIGNMENT (( #143 ) ) ;
#87 = DIMENSIONAL_EXPONENTS ( 1.000000000000000000, 0.000000000000000000, 0.000000000000000000, 0.000000000000000000, 0.000000000000000000, 0.000000000000000000, 0.000000000000000000 ) ;
#88 =( NAMED_UNIT ( * ) SI_UNIT ( $, .STERADIAN. ) SOLID_ANGLE_UNIT ( ) );
#89 = MECHANICAL_DESIGN_GEOMETRIC_PRESENTATION_REPRESENTATION (  '', ( #98 ), #31 ) ;
#90 = PRESENTATION_LAYER_ASSIGNMENT (  '', '', ( #290 ) ) ;
#91 = LENGTH_MEASURE_WITH_UNIT ( LENGTH_MEASURE( 0.02539999999999999897 ), #114 );
#92 = CARTESIAN_POINT ( 'NONE',  ( 0.000000000000000000, 0.7499999999999998890, 0.000000000000000000 ) ) ;
#93 = FACE_OUTER_BOUND ( 'NONE', #252, .T. ) ;
#94 = PRESENTATION_LAYER_ASSIGNMENT (  '', '', ( #185 ) ) ;
#95 = EDGE_CURVE ( 'NONE', #79, #186, #72, .T. ) ;
#96 =( NAMED_UNIT ( * ) SI_UNIT ( $, .STERADIAN. ) SOLID_ANGLE_UNIT ( ) );
#97 = COLOUR_RGB ( '',1.000000000000000000, 0.000000000000000000, 0.000000000000000000 ) ;
#98 = STYLED_ITEM ( 'NONE', ( #209 ), #297 ) ;
#99 = DIRECTION ( 'NONE',  ( -3.498990854706719663E-17, 1.000000000000000000, -0.000000000000000000 ) ) ;
#100 = DIRECTION ( 'NONE',  ( 0.000000000000000000, 0.000000000000000000, -1.000000000000000000 ) ) ;
#101 = SURFACE_STYLE_FILL_AREA ( #251 ) ;
#102 = EDGE_LOOP ( 'NONE', ( #249, #223 ) ) ;
#103 =( NAMED_UNIT ( * ) PLANE_ANGLE_UNIT ( ) SI_UNIT ( $, .RADIAN. ) );
#104 = EDGE_CURVE ( 'NONE', #212, #225, #3, .T. ) ;
#105 =( LENGTH_UNIT ( ) NAMED_UNIT ( * ) SI_UNIT ( $, .METRE. ) );
#106 = FILL_AREA_STYLE_COLOUR ( '', #302 ) ;
#107 = PRODUCT_CONTEXT ( 'NONE', #224, 'mechanical' ) ;
#108 = COLOUR_RGB ( '',1.000000000000000000, 0.000000000000000000, 0.000000000000000000 ) ;
#109 = DIRECTION ( 'NONE',  ( 3.498990854706719663E-17, -1.000000000000000000, 0.000000000000000000 ) ) ;
#110 = PRODUCT_DEFINITION_CONTEXT ( 'detailed design', #267, 'design' ) ;
#111 = FACE_OUTER_BOUND ( 'NONE', #102, .T. ) ;
#112 =( CONVERSION_BASED_UNIT ( 'INCH', #166 ) LENGTH_UNIT ( ) NAMED_UNIT ( #184 ) );
#113 = FILL_AREA_STYLE_COLOUR ( '', #83 ) ;
#114 =( LENGTH_UNIT ( ) NAMED_UNIT ( * ) SI_UNIT ( $, .METRE. ) );
#115 = DIRECTION ( 'NONE',  ( -1.000000000000000000, 0.000000000000000000, 0.000000000000000000 ) ) ;
#116 =( NAMED_UNIT ( * ) SI_UNIT ( $, .STERADIAN. ) SOLID_ANGLE_UNIT ( ) );
#117 = CARTESIAN_POINT ( 'NONE',  ( 0.000000000000000000, 0.000000000000000000, 0.000000000000000000 ) ) ;
#118 = PRODUCT ( '59252', '59252', '', ( #107 ) ) ;
#119 =( NAMED_UNIT ( * ) PLANE_ANGLE_UNIT ( ) SI_UNIT ( $, .RADIAN. ) );
#120 = DIRECTION ( 'NONE',  ( -0.000000000000000000, -1.000000000000000000, -0.000000000000000000 ) ) ;
#121 = UNCERTAINTY_MEASURE_WITH_UNIT (LENGTH_MEASURE( 1.000000000000000082E-05 ), #275, 'distance_accuracy_value', 'NONE');
#122 = PRESENTATION_STYLE_ASSIGNMENT (( #220 ) ) ;
#123 = AXIS2_PLACEMENT_3D ( 'NONE', #266, #203, #57 ) ;
#124 = VECTOR ( 'NONE', #150, 39.37007874015748143 ) ;
#125 = DIRECTION ( 'NONE',  ( -0.000000000000000000, -1.000000000000000000, -0.000000000000000000 ) ) ;
#126 = VERTEX_POINT ( 'NONE', #240 ) ;
#127 = DIRECTION ( 'NONE',  ( -1.000000000000000000, 0.000000000000000000, 0.000000000000000000 ) ) ;
#128 = ORIENTED_EDGE ( 'NONE', *, *, #244, .F. ) ;
#129 = DIRECTION ( 'NONE',  ( 0.000000000000000000, 0.000000000000000000, -1.000000000000000000 ) ) ;
#130 = ORIENTED_EDGE ( 'NONE', *, *, #215, .F. ) ;
#131 = FILL_AREA_STYLE_COLOUR ( '', #97 ) ;
#132 = CIRCLE ( 'NONE', #284, 0.1250000000000000000 ) ;
#133 = DIMENSIONAL_EXPONENTS ( 1.000000000000000000, 0.000000000000000000, 0.000000000000000000, 0.000000000000000000, 0.000000000000000000, 0.000000000000000000, 0.000000000000000000 ) ;
#134 = SURFACE_SIDE_STYLE ('',( #136 ) ) ;
#135 = ORIENTED_EDGE ( 'NONE', *, *, #51, .F. ) ;
#136 = SURFACE_STYLE_FILL_AREA ( #274 ) ;
#137 = CLOSED_SHELL ( 'NONE', ( #248, #303, #182, #2 ) ) ;
#138 = AXIS2_PLACEMENT_3D ( 'NONE', #27, #146, #237 ) ;
#139 = DIRECTION ( 'NONE',  ( 0.000000000000000000, -1.000000000000000000, -0.000000000000000000 ) ) ;
#140 = DIRECTION ( 'NONE',  ( -1.000000000000000000, 0.000000000000000000, 0.000000000000000000 ) ) ;
#141 = PLANE ( 'NONE',  #59 ) ;
#142 = EDGE_CURVE ( 'NONE', #186, #126, #1, .T. ) ;
#143 = SURFACE_STYLE_USAGE ( .BOTH. , #260 ) ;
#144 = DIRECTION ( 'NONE',  ( 1.000000000000000000, 0.000000000000000000, 0.000000000000000000 ) ) ;
#145 = LENGTH_MEASURE_WITH_UNIT ( LENGTH_MEASURE( 0.02539999999999999897 ), #230 );
#146 = DIRECTION ( 'NONE',  ( -0.000000000000000000, -1.000000000000000000, -0.000000000000000000 ) ) ;
#147 = UNCERTAINTY_MEASURE_WITH_UNIT (LENGTH_MEASURE( 1.000000000000000082E-05 ), #177, 'distance_accuracy_value', 'NONE');
#148 = SHAPE_DEFINITION_REPRESENTATION ( #47, #17 ) ;
#149 = DIRECTION ( 'NONE',  ( -3.498990854706719663E-17, 1.000000000000000000, -0.000000000000000000 ) ) ;
#150 = DIRECTION ( 'NONE',  ( -0.000000000000000000, -1.000000000000000000, -0.000000000000000000 ) ) ;
#151 = DIRECTION ( 'NONE',  ( -3.498990854706719663E-17, 1.000000000000000000, -0.000000000000000000 ) ) ;
#152 = AXIS2_PLACEMENT_3D ( 'NONE', #258, #232, #299 ) ;
#153 =( NAMED_UNIT ( * ) PLANE_ANGLE_UNIT ( ) SI_UNIT ( $, .RADIAN. ) );
#154 = EDGE_LOOP ( 'NONE', ( #292, #62, #198, #222 ) ) ;
#155 = ORIENTED_EDGE ( 'NONE', *, *, #95, .F. ) ;
#156 = CARTESIAN_POINT ( 'NONE',  ( 0.000000000000000000, 0.000000000000000000, -0.1250000000000000278 ) ) ;
#157 = ORIENTED_EDGE ( 'NONE', *, *, #176, .T. ) ;
#158 = AXIS2_PLACEMENT_3D ( 'NONE', #117, #120, #29 ) ;
#159 = CARTESIAN_POINT ( 'NONE',  ( 0.1249999999999999584, 2.500000000000000000, 1.530808498934191817E-17 ) ) ;
#160 =( NAMED_UNIT ( * ) SI_UNIT ( $, .STERADIAN. ) SOLID_ANGLE_UNIT ( ) );
#161 = ORIENTED_EDGE ( 'NONE', *, *, #12, .F. ) ;
#162 = SURFACE_STYLE_FILL_AREA ( #42 ) ;
#163 = SURFACE_STYLE_USAGE ( .BOTH. , #134 ) ;
#164 = VECTOR ( 'NONE', #99, 39.37007874015748143 ) ;
#165 = DIRECTION ( 'NONE',  ( 0.000000000000000000, 0.000000000000000000, -1.000000000000000000 ) ) ;
#166 = LENGTH_MEASURE_WITH_UNIT ( LENGTH_MEASURE( 0.02539999999999999897 ), #41 );
#167 = DIRECTION ( 'NONE',  ( 1.000000000000000000, 3.498990854706719663E-17, 0.000000000000000000 ) ) ;
#168 = AXIS2_PLACEMENT_3D ( 'NONE', #270, #221, #129 ) ;
#169 = UNCERTAINTY_MEASURE_WITH_UNIT (LENGTH_MEASURE( 1.000000000000000082E-05 ), #192, 'distance_accuracy_value', 'NONE');
#170 = LENGTH_MEASURE_WITH_UNIT ( LENGTH_MEASURE( 0.02539999999999999897 ), #50 );
#171 = EDGE_CURVE ( 'NONE', #225, #289, #28, .T. ) ;
#172 = CARTESIAN_POINT ( 'NONE',  ( 1.530808498934191817E-17, 0.7500000000000001110, 0.1250000000000000000 ) ) ;
#173 = LENGTH_MEASURE_WITH_UNIT ( LENGTH_MEASURE( 0.02539999999999999897 ), #77 );
#174 = COLOUR_RGB ( '',0.7921568627450980005, 0.8196078431372548767, 0.9333333333333333481 ) ;
#175 = SURFACE_STYLE_FILL_AREA ( #60 ) ;
#176 = EDGE_CURVE ( 'NONE', #179, #289, #76, .T. ) ;
#177 =( CONVERSION_BASED_UNIT ( 'INCH', #35 ) LENGTH_UNIT ( ) NAMED_UNIT ( #87 ) );
#178 = DIMENSIONAL_EXPONENTS ( 1.000000000000000000, 0.000000000000000000, 0.000000000000000000, 0.000000000000000000, 0.000000000000000000, 0.000000000000000000, 0.000000000000000000 ) ;
#179 = VERTEX_POINT ( 'NONE', #172 ) ;
#180 = MECHANICAL_DESIGN_GEOMETRIC_PRESENTATION_REPRESENTATION (  '', ( #233 ), #242 ) ;
#181 = STYLED_ITEM ( 'NONE', ( #287 ), #197 ) ;
#182 = ADVANCED_FACE ( 'NONE', ( #93 ), #189, .T. ) ;
#183 = DIMENSIONAL_EXPONENTS ( 1.000000000000000000, 0.000000000000000000, 0.000000000000000000, 0.000000000000000000, 0.000000000000000000, 0.000000000000000000, 0.000000000000000000 ) ;
#184 = DIMENSIONAL_EXPONENTS ( 1.000000000000000000, 0.000000000000000000, 0.000000000000000000, 0.000000000000000000, 0.000000000000000000, 0.000000000000000000, 0.000000000000000000 ) ;
#185 = STYLED_ITEM ( 'NONE', ( #86 ), #73 ) ;
#186 = VERTEX_POINT ( 'NONE', #238 ) ;
#187 = EDGE_CURVE ( 'NONE', #277, #79, #25, .T. ) ;
#188 = DIRECTION ( 'NONE',  ( 0.000000000000000000, 1.000000000000000000, 0.000000000000000000 ) ) ;
#189 = CYLINDRICAL_SURFACE ( 'NONE', #250, 0.1250000000000000278 ) ;
#190 = CYLINDRICAL_SURFACE ( 'NONE', #138, 0.1250000000000000278 ) ;
#191 =( CONVERSION_BASED_UNIT ( 'INCH', #26 ) LENGTH_UNIT ( ) NAMED_UNIT ( #133 ) );
#192 =( CONVERSION_BASED_UNIT ( 'INCH', #170 ) LENGTH_UNIT ( ) NAMED_UNIT ( #301 ) );
#193 = AXIS2_PLACEMENT_3D ( 'NONE', #78, #58, #127 ) ;
#194 = AXIS2_PLACEMENT_3D ( 'NONE', #32, #125, #100 ) ;
#195 = CARTESIAN_POINT ( 'NONE',  ( 0.000000000000000000, 0.000000000000000000, -0.1250000000000000278 ) ) ;
#196 = PRESENTATION_STYLE_ASSIGNMENT (( #7 ) ) ;
#197 = ADVANCED_FACE ( 'NONE', ( #38 ), #268, .T. ) ;
#198 = ORIENTED_EDGE ( 'NONE', *, *, #104, .T. ) ;
#199 = STYLED_ITEM ( 'NONE', ( #300 ), #80 ) ;
#200 = CARTESIAN_POINT ( 'NONE',  ( 0.000000000000000000, 0.7500000000000001110, -0.1250000000000000000 ) ) ;
#201 = EDGE_LOOP ( 'NONE', ( #271, #8 ) ) ;
#202 = DIMENSIONAL_EXPONENTS ( 1.000000000000000000, 0.000000000000000000, 0.000000000000000000, 0.000000000000000000, 0.000000000000000000, 0.000000000000000000, 0.000000000000000000 ) ;
#203 = DIRECTION ( 'NONE',  ( -3.498990854706719663E-17, 1.000000000000000000, -0.000000000000000000 ) ) ;
#204 = APPLICATION_PROTOCOL_DEFINITION ( 'draft international standard', 'automotive_design', 1998, #267 ) ;
#205 = ORIENTED_EDGE ( 'NONE', *, *, #215, .T. ) ;
#206 = ORIENTED_EDGE ( 'NONE', *, *, #264, .T. ) ;
#207 =( NAMED_UNIT ( * ) PLANE_ANGLE_UNIT ( ) SI_UNIT ( $, .RADIAN. ) );
#208 = SURFACE_STYLE_USAGE ( .BOTH. , #20 ) ;
#209 = PRESENTATION_STYLE_ASSIGNMENT (( #163 ) ) ;
#210 = MECHANICAL_DESIGN_GEOMETRIC_PRESENTATION_REPRESENTATION (  '', ( #199 ), #61 ) ;
#211 = PRODUCT_DEFINITION_FORMATION_WITH_SPECIFIED_SOURCE ( 'ANY', '', #118, .NOT_KNOWN. ) ;
#212 = VERTEX_POINT ( 'NONE', #200 ) ;
#213 = UNCERTAINTY_MEASURE_WITH_UNIT (LENGTH_MEASURE( 1.000000000000000082E-05 ), #265, 'distance_accuracy_value', 'NONE');
#214 = DIRECTION ( 'NONE',  ( -3.498990854706719663E-17, 1.000000000000000000, -0.000000000000000000 ) ) ;
#215 = EDGE_CURVE ( 'NONE', #212, #179, #132, .T. ) ;
#216 = CARTESIAN_POINT ( 'NONE',  ( 1.530808498934191817E-17, 0.000000000000000000, 0.1250000000000000278 ) ) ;
#217 = UNCERTAINTY_MEASURE_WITH_UNIT (LENGTH_MEASURE( 1.000000000000000082E-05 ), #191, 'distance_accuracy_value', 'NONE');
#218 = AXIS2_PLACEMENT_3D ( 'NONE', #70, #139, #165 ) ;
#219 =( LENGTH_UNIT ( ) NAMED_UNIT ( * ) SI_UNIT ( $, .METRE. ) );
#220 = SURFACE_STYLE_USAGE ( .BOTH. , #261 ) ;
#221 = DIRECTION ( 'NONE',  ( -0.000000000000000000, -1.000000000000000000, -0.000000000000000000 ) ) ;
#222 = ORIENTED_EDGE ( 'NONE', *, *, #264, .F. ) ;
#223 = ORIENTED_EDGE ( 'NONE', *, *, #187, .F. ) ;
#224 = APPLICATION_CONTEXT ( 'automotive_design' ) ;
#225 = VERTEX_POINT ( 'NONE', #156 ) ;
#226 = LINE ( 'NONE', #159, #273 ) ;
#227 = ORIENTED_EDGE ( 'NONE', *, *, #171, .T. ) ;
#228 = AXIS2_PLACEMENT_3D ( 'NONE', #22, #109, #167 ) ;
#229 =( NAMED_UNIT ( * ) PLANE_ANGLE_UNIT ( ) SI_UNIT ( $, .RADIAN. ) );
#230 =( LENGTH_UNIT ( ) NAMED_UNIT ( * ) SI_UNIT ( $, .METRE. ) );
#231 = FILL_AREA_STYLE_COLOUR ( '', #4 ) ;
#232 = DIRECTION ( 'NONE',  ( -0.000000000000000000, -1.000000000000000000, -0.000000000000000000 ) ) ;
#233 = STYLED_ITEM ( 'NONE', ( #196 ), #285 ) ;
#234 = CARTESIAN_POINT ( 'NONE',  ( 7.651835625825786972E-35, 0.7500000000000001110, 0.000000000000000000 ) ) ;
#235 =( GEOMETRIC_REPRESENTATION_CONTEXT ( 3 ) GLOBAL_UNCERTAINTY_ASSIGNED_CONTEXT ( ( #217 ) ) GLOBAL_UNIT_ASSIGNED_CONTEXT ( ( #191, #30, #5 ) ) REPRESENTATION_CONTEXT ( 'NONE', 'WORKASPACE' ) );
#236 = CARTESIAN_POINT ( 'NONE',  ( -6.123233995736759873E-17, 2.500000000000000000, 0.000000000000000000 ) ) ;
#237 = DIRECTION ( 'NONE',  ( 0.000000000000000000, 0.000000000000000000, -1.000000000000000000 ) ) ;
#238 = CARTESIAN_POINT ( 'NONE',  ( -0.1250000000000001388, 2.500000000000000000, 0.000000000000000000 ) ) ;
#239 = PRODUCT_DEFINITION ( 'UNKNOWN', '', #211, #110 ) ;
#240 = CARTESIAN_POINT ( 'NONE',  ( 0.1250000000000000278, 2.500000000000000000, 1.530808498934192125E-17 ) ) ;
#241 = DIRECTION ( 'NONE',  ( -0.000000000000000000, -1.000000000000000000, -0.000000000000000000 ) ) ;
#242 =( GEOMETRIC_REPRESENTATION_CONTEXT ( 3 ) GLOBAL_UNCERTAINTY_ASSIGNED_CONTEXT ( ( #213 ) ) GLOBAL_UNIT_ASSIGNED_CONTEXT ( ( #265, #153, #160 ) ) REPRESENTATION_CONTEXT ( 'NONE', 'WORKASPACE' ) );
#243 = CIRCLE ( 'NONE', #44, 0.1250000000000000555 ) ;
#244 = EDGE_CURVE ( 'NONE', #277, #126, #226, .T. ) ;
#245 =( NAMED_UNIT ( * ) SI_UNIT ( $, .STERADIAN. ) SOLID_ANGLE_UNIT ( ) );
#246 = ORIENTED_EDGE ( 'NONE', *, *, #67, .T. ) ;
#247 = FACE_OUTER_BOUND ( 'NONE', #279, .T. ) ;
#248 = ADVANCED_FACE ( 'NONE', ( #247 ), #14, .T. ) ;
#249 = ORIENTED_EDGE ( 'NONE', *, *, #67, .F. ) ;
#250 = AXIS2_PLACEMENT_3D ( 'NONE', #71, #262, #52 ) ;
#251 = FILL_AREA_STYLE ('',( #106 ) ) ;
#252 = EDGE_LOOP ( 'NONE', ( #128, #10, #307, #161 ) ) ;
#253 = CARTESIAN_POINT ( 'NONE',  ( 0.000000000000000000, 0.7500000000000001110, 0.000000000000000000 ) ) ;
#254 = FILL_AREA_STYLE_COLOUR ( '', #174 ) ;
#255 = FACE_OUTER_BOUND ( 'NONE', #201, .T. ) ;
#256 = MECHANICAL_DESIGN_GEOMETRIC_PRESENTATION_REPRESENTATION (  '', ( #185 ), #55 ) ;
#257 = DIRECTION ( 'NONE',  ( -1.000000000000000000, -3.498990854706719663E-17, 0.000000000000000000 ) ) ;
#258 = CARTESIAN_POINT ( 'NONE',  ( 0.000000000000000000, 0.7500000000000001110, 0.000000000000000000 ) ) ;
#259 = FILL_AREA_STYLE_COLOUR ( '', #108 ) ;
#260 = SURFACE_SIDE_STYLE ('',( #46 ) ) ;
#261 = SURFACE_SIDE_STYLE ('',( #263 ) ) ;
#262 = DIRECTION ( 'NONE',  ( -3.498990854706719663E-17, 1.000000000000000000, -0.000000000000000000 ) ) ;
#263 = SURFACE_STYLE_FILL_AREA ( #283 ) ;
#264 = EDGE_CURVE ( 'NONE', #289, #225, #305, .T. ) ;
#265 =( CONVERSION_BASED_UNIT ( 'INCH', #173 ) LENGTH_UNIT ( ) NAMED_UNIT ( #178 ) );
#266 = CARTESIAN_POINT ( 'NONE',  ( -6.123233995736759873E-17, 2.500000000000000000, 0.000000000000000000 ) ) ;
#267 = APPLICATION_CONTEXT ( 'automotive_design' ) ;
#268 = CYLINDRICAL_SURFACE ( 'NONE', #168, 0.1250000000000000278 ) ;
#269 = ORIENTED_EDGE ( 'NONE', *, *, #104, .F. ) ;
#270 = CARTESIAN_POINT ( 'NONE',  ( 0.000000000000000000, 0.000000000000000000, 0.000000000000000000 ) ) ;
#271 = ORIENTED_EDGE ( 'NONE', *, *, #142, .T. ) ;
#272 = PRESENTATION_LAYER_ASSIGNMENT (  '', '', ( #181 ) ) ;
#273 = VECTOR ( 'NONE', #151, 39.37007874015748143 ) ;
#274 = FILL_AREA_STYLE ('',( #231 ) ) ;
#275 =( CONVERSION_BASED_UNIT ( 'INCH', #91 ) LENGTH_UNIT ( ) NAMED_UNIT ( #183 ) );
#276 = PRESENTATION_LAYER_ASSIGNMENT (  '', '', ( #199 ) ) ;
#277 = VERTEX_POINT ( 'NONE', #293 ) ;
#278 = DIRECTION ( 'NONE',  ( -3.498990854706719663E-17, 1.000000000000000000, 0.000000000000000000 ) ) ;
#279 = EDGE_LOOP ( 'NONE', ( #246, #45, #13, #155 ) ) ;
#280 = PLANE ( 'NONE',  #218 ) ;
#281 = CLOSED_SHELL ( 'NONE', ( #197, #297, #81, #73 ) ) ;
#282 = CARTESIAN_POINT ( 'NONE',  ( -6.123233995736759873E-17, 2.500000000000000000, 0.000000000000000000 ) ) ;
#283 = FILL_AREA_STYLE ('',( #113 ) ) ;
#284 = AXIS2_PLACEMENT_3D ( 'NONE', #9, #241, #15 ) ;
#285 = MANIFOLD_SOLID_BREP ( 'Revolve - Tool Body (Straight Shanked)', #137 ) ;
#286 = DIRECTION ( 'NONE',  ( -1.000000000000000000, 0.000000000000000000, 0.000000000000000000 ) ) ;
#287 = PRESENTATION_STYLE_ASSIGNMENT (( #11 ) ) ;
#288 = SURFACE_SIDE_STYLE ('',( #101 ) ) ;
#289 = VERTEX_POINT ( 'NONE', #306 ) ;
#290 = STYLED_ITEM ( 'NONE', ( #122 ), #81 ) ;
#291 = SURFACE_SIDE_STYLE ('',( #175 ) ) ;
#292 = ORIENTED_EDGE ( 'NONE', *, *, #176, .F. ) ;
#293 = CARTESIAN_POINT ( 'NONE',  ( 0.1250000000000000278, 0.7499999999999998890, 1.530808498934192125E-17 ) ) ;
#294 = APPLICATION_PROTOCOL_DEFINITION ( 'draft international standard', 'automotive_design', 1998, #224 ) ;
#295 =( GEOMETRIC_REPRESENTATION_CONTEXT ( 3 ) GLOBAL_UNCERTAINTY_ASSIGNED_CONTEXT ( ( #147 ) ) GLOBAL_UNIT_ASSIGNED_CONTEXT ( ( #177, #103, #245 ) ) REPRESENTATION_CONTEXT ( 'NONE', 'WORKASPACE' ) );
#296 =( NAMED_UNIT ( * ) SI_UNIT ( $, .STERADIAN. ) SOLID_ANGLE_UNIT ( ) );
#297 = ADVANCED_FACE ( 'NONE', ( #63 ), #34, .T. ) ;
#298 = FACE_OUTER_BOUND ( 'NONE', #36, .T. ) ;
#299 = DIRECTION ( 'NONE',  ( 0.000000000000000000, 0.000000000000000000, -1.000000000000000000 ) ) ;
#300 = PRESENTATION_STYLE_ASSIGNMENT (( #208 ) ) ;
#301 = DIMENSIONAL_EXPONENTS ( 1.000000000000000000, 0.000000000000000000, 0.000000000000000000, 0.000000000000000000, 0.000000000000000000, 0.000000000000000000, 0.000000000000000000 ) ;
#302 = COLOUR_RGB ( '',0.7921568627450980005, 0.8196078431372548767, 0.9333333333333333481 ) ;
#303 = ADVANCED_FACE ( 'NONE', ( #111 ), #141, .F. ) ;
#304 = VECTOR ( 'NONE', #309, 39.37007874015748143 ) ;
#305 = CIRCLE ( 'NONE', #194, 0.1250000000000000278 ) ;
#306 = CARTESIAN_POINT ( 'NONE',  ( 1.530808498934192125E-17, 0.000000000000000000, 0.1250000000000000555 ) ) ;
#307 = ORIENTED_EDGE ( 'NONE', *, *, #95, .T. ) ;
#308 = ORIENTED_EDGE ( 'NONE', *, *, #171, .F. ) ;
#309 = DIRECTION ( 'NONE',  ( -0.000000000000000000, -1.000000000000000000, -0.000000000000000000 ) ) ;
ENDSEC;
END-ISO-10303-21;
